  0
SECTION
  2
HEADER
  9
$ACADVER
  1
AC1015
  9
$ACADMAINTVER
 70
    20
  9
$DWGCODEPAGE
  3
ANSI_1258
  9
$INSBASE
 10
0.0
 20
0.0
 30
0.0
  9
$EXTMIN
 10
-604.6239070615903
 20
2303.363016736389
 30
0.0
  9
$EXTMAX
 10
-604.1109077056005
 20
2303.874615276806
 30
0.0
  9
$LIMMIN
 10
0.0
 20
0.0
  9
$LIMMAX
 10
12.0
 20
9.0
  9
$ORTHOMODE
 70
     0
  9
$REGENMODE
 70
     1
  9
$FILLMODE
 70
     1
  9
$QTEXTMODE
 70
     0
  9
$MIRRTEXT
 70
     0
  9
$LTSCALE
 40
1.0
  9
$ATTMODE
 70
     1
  9
$TEXTSIZE
 40
0.2
  9
$TRACEWID
 40
0.05
  9
$TEXTSTYLE
  7
Standard
  9
$CLAYER
  8
0
  9
$CELTYPE
  6
ByLayer
  9
$CECOLOR
 62
   256
  9
$CELTSCALE
 40
1.0
  9
$DISPSILH
 70
     0
  9
$DIMSCALE
 40
1.0
  9
$DIMASZ
 40
0.18
  9
$DIMEXO
 40
0.0625
  9
$DIMDLI
 40
0.38
  9
$DIMRND
 40
0.0
  9
$DIMDLE
 40
0.0
  9
$DIMEXE
 40
0.18
  9
$DIMTP
 40
0.0
  9
$DIMTM
 40
0.0
  9
$DIMTXT
 40
0.18
  9
$DIMCEN
 40
0.09
  9
$DIMTSZ
 40
0.0
  9
$DIMTOL
 70
     0
  9
$DIMLIM
 70
     0
  9
$DIMTIH
 70
     1
  9
$DIMTOH
 70
     1
  9
$DIMSE1
 70
     0
  9
$DIMSE2
 70
     0
  9
$DIMTAD
 70
     0
  9
$DIMZIN
 70
     0
  9
$DIMBLK
  1

  9
$DIMASO
 70
     1
  9
$DIMSHO
 70
     1
  9
$DIMPOST
  1

  9
$DIMAPOST
  1

  9
$DIMALT
 70
     0
  9
$DIMALTD
 70
     2
  9
$DIMALTF
 40
25.4
  9
$DIMLFAC
 40
1.0
  9
$DIMTOFL
 70
     0
  9
$DIMTVP
 40
0.0
  9
$DIMTIX
 70
     0
  9
$DIMSOXD
 70
     0
  9
$DIMSAH
 70
     0
  9
$DIMBLK1
  1

  9
$DIMBLK2
  1

  9
$DIMSTYLE
  2
Standard
  9
$DIMCLRD
 70
     0
  9
$DIMCLRE
 70
     0
  9
$DIMCLRT
 70
     0
  9
$DIMTFAC
 40
1.0
  9
$DIMGAP
 40
0.09
  9
$DIMJUST
 70
     0
  9
$DIMSD1
 70
     0
  9
$DIMSD2
 70
     0
  9
$DIMTOLJ
 70
     1
  9
$DIMTZIN
 70
     0
  9
$DIMALTZ
 70
     0
  9
$DIMALTTZ
 70
     0
  9
$DIMUPT
 70
     0
  9
$DIMDEC
 70
     4
  9
$DIMTDEC
 70
     4
  9
$DIMALTU
 70
     4
  9
$DIMALTTD
 70
     2
  9
$DIMTXSTY
  7
Standard
  9
$DIMAUNIT
 70
     0
  9
$DIMADEC
 70
     0
  9
$DIMALTRND
 40
0.0
  9
$DIMAZIN
 70
     0
  9
$DIMDSEP
 70
    46
  9
$DIMATFIT
 70
     3
  9
$DIMFRAC
 70
     0
  9
$DIMLDRBLK
  1

  9
$DIMLUNIT
 70
     4
  9
$DIMLWD
 70
    -2
  9
$DIMLWE
 70
    -2
  9
$DIMTMOVE
 70
     0
  9
$LUNITS
 70
     4
  9
$LUPREC
 70
     4
  9
$SKETCHINC
 40
0.1
  9
$FILLETRAD
 40
0.0
  9
$AUNITS
 70
     0
  9
$AUPREC
 70
     0
  9
$MENU
  1
.
  9
$ELEVATION
 40
0.0
  9
$PELEVATION
 40
0.0
  9
$THICKNESS
 40
0.0
  9
$LIMCHECK
 70
     0
  9
$CHAMFERA
 40
0.0
  9
$CHAMFERB
 40
0.0
  9
$CHAMFERC
 40
0.0
  9
$CHAMFERD
 40
0.0
  9
$SKPOLY
 70
     0
  9
$TDCREATE
 40
2456177.384685417
  9
$TDUCREATE
 40
2456177.093018750
  9
$TDUPDATE
 40
2456199.442426297
  9
$TDUUPDATE
 40
2456199.150759629
  9
$TDINDWG
 40
0.0581051968
  9
$TDUSRTIMER
 40
0.0581051968
  9
$USRTIMER
 70
     1
  9
$ANGBASE
 50
0.0
  9
$ANGDIR
 70
     0
  9
$PDMODE
 70
     0
  9
$PDSIZE
 40
0.0
  9
$PLINEWID
 40
0.0
  9
$SPLFRAME
 70
     0
  9
$SPLINETYPE
 70
     6
  9
$SPLINESEGS
 70
     8
  9
$HANDSEED
  5
3436
  9
$SURFTAB1
 70
     6
  9
$SURFTAB2
 70
     6
  9
$SURFTYPE
 70
     6
  9
$SURFU
 70
     6
  9
$SURFV
 70
     6
  9
$UCSBASE
  2

  9
$UCSNAME
  2

  9
$UCSORG
 10
0.0
 20
0.0
 30
0.0
  9
$UCSXDIR
 10
1.0
 20
0.0
 30
0.0
  9
$UCSYDIR
 10
0.0
 20
1.0
 30
0.0
  9
$UCSORTHOREF
  2

  9
$UCSORTHOVIEW
 70
     0
  9
$UCSORGTOP
 10
0.0
 20
0.0
 30
0.0
  9
$UCSORGBOTTOM
 10
0.0
 20
0.0
 30
0.0
  9
$UCSORGLEFT
 10
0.0
 20
0.0
 30
0.0
  9
$UCSORGRIGHT
 10
0.0
 20
0.0
 30
0.0
  9
$UCSORGFRONT
 10
0.0
 20
0.0
 30
0.0
  9
$UCSORGBACK
 10
0.0
 20
0.0
 30
0.0
  9
$PUCSBASE
  2

  9
$PUCSNAME
  2

  9
$PUCSORG
 10
0.0
 20
0.0
 30
0.0
  9
$PUCSXDIR
 10
1.0
 20
0.0
 30
0.0
  9
$PUCSYDIR
 10
0.0
 20
1.0
 30
0.0
  9
$PUCSORTHOREF
  2

  9
$PUCSORTHOVIEW
 70
     0
  9
$PUCSORGTOP
 10
0.0
 20
0.0
 30
0.0
  9
$PUCSORGBOTTOM
 10
0.0
 20
0.0
 30
0.0
  9
$PUCSORGLEFT
 10
0.0
 20
0.0
 30
0.0
  9
$PUCSORGRIGHT
 10
0.0
 20
0.0
 30
0.0
  9
$PUCSORGFRONT
 10
0.0
 20
0.0
 30
0.0
  9
$PUCSORGBACK
 10
0.0
 20
0.0
 30
0.0
  9
$USERI1
 70
     0
  9
$USERI2
 70
     0
  9
$USERI3
 70
     0
  9
$USERI4
 70
     0
  9
$USERI5
 70
     0
  9
$USERR1
 40
0.0
  9
$USERR2
 40
0.0
  9
$USERR3
 40
0.0
  9
$USERR4
 40
0.0
  9
$USERR5
 40
0.0
  9
$WORLDVIEW
 70
     1
  9
$SHADEDGE
 70
     3
  9
$SHADEDIF
 70
    70
  9
$TILEMODE
 70
     1
  9
$MAXACTVP
 70
    64
  9
$PINSBASE
 10
0.0
 20
0.0
 30
0.0
  9
$PLIMCHECK
 70
     0
  9
$PEXTMIN
 10
1.000000000000000E+20
 20
1.000000000000000E+20
 30
1.000000000000000E+20
  9
$PEXTMAX
 10
-1.000000000000000E+20
 20
-1.000000000000000E+20
 30
-1.000000000000000E+20
  9
$PLIMMIN
 10
0.0
 20
0.0
  9
$PLIMMAX
 10
12.0
 20
9.0
  9
$UNITMODE
 70
     0
  9
$VISRETAIN
 70
     1
  9
$PLINEGEN
 70
     0
  9
$PSLTSCALE
 70
     1
  9
$TREEDEPTH
 70
  3020
  9
$CMLSTYLE
  2
Standard
  9
$CMLJUST
 70
     0
  9
$CMLSCALE
 40
1.0
  9
$PROXYGRAPHICS
 70
     1
  9
$MEASUREMENT
 70
     0
  9
$CELWEIGHT
370
    -1
  9
$ENDCAPS
280
     0
  9
$JOINSTYLE
280
     0
  9
$LWDISPLAY
290
     0
  9
$INSUNITS
 70
     1
  9
$HYPERLINKBASE
  1

  9
$STYLESHEET
  1

  9
$XEDIT
290
     1
  9
$CEPSNTYPE
380
     0
  9
$PSTYLEMODE
290
     1
  9
$FINGERPRINTGUID
  2
{50822308-9CB6-4CF9-A61C-2CEBC7A8501F}
  9
$VERSIONGUID
  2
{2E1D0097-57C8-4D3C-BEE9-64891B75BADE}
  9
$EXTNAMES
290
     1
  9
$PSVPSCALE
 40
0.0
  9
$OLESTARTUP
290
     0
  0
ENDSEC
  0
SECTION
  2
CLASSES
  0
CLASS
  1
ACDBDICTIONARYWDFLT
  2
AcDbDictionaryWithDefault
  3
ObjectDBX Classes
 90
        0
280
     0
281
     0
  0
CLASS
  1
MATERIAL
  2
AcDbMaterial
  3
ObjectDBX Classes
 90
     1153
280
     0
281
     0
  0
CLASS
  1
VISUALSTYLE
  2
AcDbVisualStyle
  3
ObjectDBX Classes
 90
     4095
280
     0
281
     0
  0
CLASS
  1
SCALE
  2
AcDbScale
  3
ObjectDBX Classes
 90
     1153
280
     0
281
     0
  0
CLASS
  1
TABLESTYLE
  2
AcDbTableStyle
  3
ObjectDBX Classes
 90
     4095
280
     0
281
     0
  0
CLASS
  1
MLEADERSTYLE
  2
AcDbMLeaderStyle
  3
ACDB_MLEADERSTYLE_CLASS
 90
     4095
280
     0
281
     0
  0
CLASS
  1
RASTERVARIABLES
  2
AcDbRasterVariables
  3
ISM
 90
        0
280
     0
281
     0
  0
CLASS
  1
DICTIONARYVAR
  2
AcDbDictionaryVar
  3
ObjectDBX Classes
 90
        0
280
     0
281
     0
  0
CLASS
  1
SORTENTSTABLE
  2
AcDbSortentsTable
  3
ObjectDBX Classes
 90
        0
280
     0
281
     0
  0
CLASS
  1
SUN
  2
AcDbSun
  3
SCENEOE
 90
     1153
280
     0
281
     0
  0
CLASS
  1
CELLSTYLEMAP
  2
AcDbCellStyleMap
  3
ObjectDBX Classes
 90
     1152
280
     0
281
     0
  0
CLASS
  1
ACDBPLACEHOLDER
  2
AcDbPlaceHolder
  3
ObjectDBX Classes
 90
        0
280
     0
281
     0
  0
CLASS
  1
LAYOUT
  2
AcDbLayout
  3
ObjectDBX Classes
 90
        0
280
     0
281
     0
  0
CLASS
  1
EXACXREFPANELOBJECT
  2
ExAcXREFPanelObject
  3
EXAC_ESW
 90
     1025
280
     0
281
     0
  0
CLASS
  1
NPOCOLLECTION
  2
AcDbImpNonPersistentObjectsCollection
  3
ObjectDBX Classes
 90
     1153
280
     0
281
     0
  0
ENDSEC
  0
SECTION
  2
TABLES
  0
TABLE
  2
VPORT
  5
8
102
{ACAD_XDICTIONARY
360
3103
102
}
330
0
100
AcDbSymbolTable
 70
     1
  0
VPORT
  5
57
330
8
100
AcDbSymbolTableRecord
100
AcDbViewportTableRecord
  2
*Active
 70
     0
 10
0.0
 20
0.0
 11
1.0
 21
1.0
 12
-604.3674073835956
 22
2303.618816006598
 13
0.0
 23
0.0
 14
1.0
 24
1.0
 15
0.0
 25
0.0
 16
0.0
 26
0.0
 36
1.0
 17
0.0
 27
0.0
 37
0.0
 40
0.5153928435606759
 41
2.349009900990099
 42
50.0
 43
0.0
 44
0.0
 50
0.0
 51
0.0
 71
     0
 72
  1000
 73
     1
 74
     1
 75
     0
 76
     0
 77
     0
 78
     0
281
     0
 65
     1
110
0.0
120
0.0
130
0.0
111
1.0
121
0.0
131
0.0
112
0.0
122
1.0
132
0.0
 79
     0
146
0.0
1001
ACAD_NAV_VCDISPLAY
1070
     3
  0
ENDTAB
  0
TABLE
  2
LTYPE
  5
5
330
0
100
AcDbSymbolTable
 70
     2
  0
LTYPE
  5
5B
330
5
100
AcDbSymbolTableRecord
100
AcDbLinetypeTableRecord
  2
ByBlock
 70
     0
  3

 72
    65
 73
     0
 40
0.0
  0
LTYPE
  5
5C
330
5
100
AcDbSymbolTableRecord
100
AcDbLinetypeTableRecord
  2
ByLayer
 70
     0
  3

 72
    65
 73
     0
 40
0.0
  0
LTYPE
  5
5D
330
5
100
AcDbSymbolTableRecord
100
AcDbLinetypeTableRecord
  2
Continuous
 70
     0
  3
Solid line
 72
    65
 73
     0
 40
0.0
  0
ENDTAB
  0
TABLE
  2
LAYER
  5
2
102
{ACAD_XDICTIONARY
360
49C
102
}
330
0
100
AcDbSymbolTable
 70
     2
  0
LAYER
  5
54
330
2
100
AcDbSymbolTableRecord
100
AcDbLayerTableRecord
  2
0
 70
     0
 62
     7
  6
Continuous
370
    -3
390
F
  0
LAYER
  5
494
330
2
100
AcDbSymbolTableRecord
100
AcDbLayerTableRecord
  2
Layer1
 70
     0
 62
     7
  6
Continuous
370
    -3
390
F
1001
AcAecLayerStandard
1000

1000

1001
AcCmTransparency
1071
        0
  0
ENDTAB
  0
TABLE
  2
STYLE
  5
3
330
0
100
AcDbSymbolTable
 70
     1
  0
STYLE
  5
55
330
3
100
AcDbSymbolTableRecord
100
AcDbTextStyleTableRecord
  2
Standard
 70
     0
 40
0.0
 41
1.0
 50
0.0
 71
     0
 42
0.2
  3
txt
  4

  0
ENDTAB
  0
TABLE
  2
VIEW
  5
6
330
0
100
AcDbSymbolTable
 70
     4
  0
ENDTAB
  0
TABLE
  2
UCS
  5
7
330
0
100
AcDbSymbolTable
 70
     0
  0
ENDTAB
  0
TABLE
  2
APPID
  5
9
330
0
100
AcDbSymbolTable
 70
    10
  0
APPID
  5
56
330
9
100
AcDbSymbolTableRecord
100
AcDbRegAppTableRecord
  2
ACAD
 70
     0
  0
APPID
  5
5E
330
9
100
AcDbSymbolTableRecord
100
AcDbRegAppTableRecord
  2
AcadAnnotative
 70
     0
  0
APPID
  5
74
330
9
100
AcDbSymbolTableRecord
100
AcDbRegAppTableRecord
  2
REVIT
 70
     0
  0
APPID
  5
497
330
9
100
AcDbSymbolTableRecord
100
AcDbRegAppTableRecord
  2
ACAD_NAV_VCDISPLAY
 70
     0
  0
APPID
  5
498
330
9
100
AcDbSymbolTableRecord
100
AcDbRegAppTableRecord
  2
AcAecLayerStandard
 70
     0
  0
APPID
  5
499
330
9
100
AcDbSymbolTableRecord
100
AcDbRegAppTableRecord
  2
AcCmTransparency
 70
     0
  0
APPID
  5
49A
330
9
100
AcDbSymbolTableRecord
100
AcDbRegAppTableRecord
  2
GradientColor1ACI
 70
     0
  0
APPID
  5
49B
330
9
100
AcDbSymbolTableRecord
100
AcDbRegAppTableRecord
  2
GradientColor2ACI
 70
     0
  0
APPID
  5
2FD2
330
9
100
AcDbSymbolTableRecord
100
AcDbRegAppTableRecord
  2
ACAD_EXEMPT_FROM_CAD_STANDARDS
 70
     0
  0
APPID
  5
3139
330
9
100
AcDbSymbolTableRecord
100
AcDbRegAppTableRecord
  2
ACAD_MLEADERVER
 70
     0
  0
ENDTAB
  0
TABLE
  2
DIMSTYLE
  5
A
330
0
100
AcDbSymbolTable
 70
     2
100
AcDbDimStyleTable
 71
     1
340
58
  0
DIMSTYLE
105
58
330
A
100
AcDbSymbolTableRecord
100
AcDbDimStyleTableRecord
  2
Standard
 70
     0
340
55
  0
ENDTAB
  0
TABLE
  2
BLOCK_RECORD
  5
1
330
0
100
AcDbSymbolTable
 70
     2
  0
BLOCK_RECORD
  5
6C
102
{ACAD_XDICTIONARY
360
480
102
}
330
1
100
AcDbSymbolTableRecord
100
AcDbBlockTableRecord
  2
*Model_Space
340
6F
  0
BLOCK_RECORD
  5
68
330
1
100
AcDbSymbolTableRecord
100
AcDbBlockTableRecord
  2
*Paper_Space
340
6B
  0
BLOCK_RECORD
  5
70
330
1
100
AcDbSymbolTableRecord
100
AcDbBlockTableRecord
  2
*Paper_Space0
340
73
  0
ENDTAB
  0
ENDSEC
  0
SECTION
  2
BLOCKS
  0
BLOCK
  5
6D
330
6C
100
AcDbEntity
  8
0
100
AcDbBlockBegin
  2
*Model_Space
 70
     0
 10
0.0
 20
0.0
 30
0.0
  3
*Model_Space
  1

  0
ENDBLK
  5
6E
330
6C
100
AcDbEntity
  8
0
100
AcDbBlockEnd
  0
BLOCK
  5
69
330
68
100
AcDbEntity
 67
     1
  8
0
100
AcDbBlockBegin
  2
*Paper_Space
 70
     0
 10
0.0
 20
0.0
 30
0.0
  3
*Paper_Space
  1

  0
ENDBLK
  5
6A
330
68
100
AcDbEntity
 67
     1
  8
0
100
AcDbBlockEnd
  0
BLOCK
  5
71
330
70
100
AcDbEntity
 67
     1
  8
0
100
AcDbBlockBegin
  2
*Paper_Space0
 70
     0
 10
0.0
 20
0.0
 30
0.0
  3
*Paper_Space0
  1

  0
ENDBLK
  5
72
330
70
100
AcDbEntity
 67
     1
  8
0
100
AcDbBlockEnd
  0
ENDSEC
  0
SECTION
  2
ENTITIES
  0
LINE
  5
FC
330
6C
100
AcDbEntity
  8
Layer1
100
AcDbLine
 10
-604.3427046626385
 20
2303.375027872833
 30
0.0
 11
-604.3427046626385
 21
2303.517753529088
 31
0.0
1001
REVIT
1002
{
1070
     1
1000
565640
1002
}
1002
{
1070
     5
1000
565638
1002
}
1002
{
1070
     2
1000
-2000151
1002
}
  0
LINE
  5
FD
330
6C
100
AcDbEntity
  8
Layer1
100
AcDbLine
 10
-604.323567664802
 20
2303.526678610968
 30
0.0
 11
-604.323567664802
 21
2303.386594421774
 31
0.0
1001
REVIT
1002
{
1070
     1
1000
565640
1002
}
1002
{
1070
     5
1000
565638
1002
}
1002
{
1070
     2
1000
-2000151
1002
}
  0
LINE
  5
FF
330
6C
100
AcDbEntity
  8
Layer1
100
AcDbLine
 10
-604.3427046626385
 20
2303.375027872833
 30
0.0
 11
-604.323567664802
 21
2303.386594421774
 31
0.0
1001
REVIT
1002
{
1070
     1
1000
565640
1002
}
1002
{
1070
     5
1000
565638
1002
}
1002
{
1070
     2
1000
-2000151
1002
}
  0
LINE
  5
100
330
6C
100
AcDbEntity
  8
Layer1
100
AcDbLine
 10
-604.4144236141876
 20
2303.484305361277
 30
0.0
 11
-604.4144236141876
 21
2303.387197570417
 31
0.0
1001
REVIT
1002
{
1070
     1
1000
565889
1002
}
1002
{
1070
     5
1000
565887
1002
}
1002
{
1070
     2
1000
-2000151
1002
}
  0
LINE
  5
101
330
6C
100
AcDbEntity
  8
Layer1
100
AcDbLine
 10
-604.4144236141876
 20
2303.387197570417
 30
0.0
 11
-604.399315267052
 21
2303.380151129625
 31
0.0
1001
REVIT
1002
{
1070
     1
1000
565889
1002
}
1002
{
1070
     5
1000
565887
1002
}
1002
{
1070
     2
1000
-2000151
1002
}
  0
LINE
  5
102
330
6C
100
AcDbEntity
  8
Layer1
100
AcDbLine
 10
-604.399315267052
 20
2303.380151129625
 30
0.0
 11
-604.3907965542214
 21
2303.386362225808
 31
0.0
1001
REVIT
1002
{
1070
     1
1000
565889
1002
}
1002
{
1070
     5
1000
565887
1002
}
1002
{
1070
     2
1000
-2000151
1002
}
  0
LINE
  5
103
330
6C
100
AcDbEntity
  8
Layer1
100
AcDbLine
 10
-604.3907965542209
 20
2303.386362225806
 30
0.0
 11
-604.3886749217376
 21
2303.36488657866
 31
0.0
1001
REVIT
1002
{
1070
     1
1000
565889
1002
}
1002
{
1070
     5
1000
565887
1002
}
1002
{
1070
     2
1000
-2000151
1002
}
  0
LINE
  5
104
330
6C
100
AcDbEntity
  8
Layer1
100
AcDbLine
 10
-604.3886749217376
 20
2303.36488657866
 30
0.0
 11
-604.3815569777319
 21
2303.371868771983
 31
0.0
1001
REVIT
1002
{
1070
     1
1000
565889
1002
}
1002
{
1070
     5
1000
565887
1002
}
1002
{
1070
     2
1000
-2000151
1002
}
  0
LINE
  5
105
330
6C
100
AcDbEntity
  8
Layer1
100
AcDbLine
 10
-604.3815569777319
 20
2303.371868771983
 30
0.0
 11
-604.3625772359724
 21
2303.363016736389
 31
0.0
1001
REVIT
1002
{
1070
     1
1000
565889
1002
}
1002
{
1070
     5
1000
565887
1002
}
1002
{
1070
     2
1000
-2000151
1002
}
  0
LINE
  5
106
330
6C
100
AcDbEntity
  8
Layer1
100
AcDbLine
 10
-604.3625772359724
 20
2303.363016736389
 30
0.0
 11
-604.3625772359724
 21
2303.508485390702
 31
0.0
1001
REVIT
1002
{
1070
     1
1000
565889
1002
}
1002
{
1070
     5
1000
565887
1002
}
1002
{
1070
     2
1000
-2000151
1002
}
  0
LINE
  5
107
330
6C
100
AcDbEntity
  8
Layer1
100
AcDbLine
 10
-604.3427046626385
 20
2303.517753529088
 30
0.0
 11
-604.3427046626385
 21
2303.375027872833
 31
0.0
1001
REVIT
1002
{
1070
     1
1000
565889
1002
}
1002
{
1070
     5
1000
565887
1002
}
1002
{
1070
     2
1000
-2000151
1002
}
  0
LINE
  5
109
330
6C
100
AcDbEntity
  8
Layer1
100
AcDbLine
 10
-604.3625772359724
 20
2303.363016736389
 30
0.0
 11
-604.3427046626385
 21
2303.375027872833
 31
0.0
1001
REVIT
1002
{
1070
     1
1000
565889
1002
}
1002
{
1070
     5
1000
565887
1002
}
1002
{
1070
     2
1000
-2000151
1002
}
  0
LINE
  5
10A
330
6C
100
AcDbEntity
  8
Layer1
100
AcDbLine
 10
-604.3886749217376
 20
2303.36488657866
 30
0.0
 11
-604.3789050769301
 21
2303.370631941652
 31
0.0
1001
REVIT
1002
{
1070
     1
1000
565889
1002
}
1002
{
1070
     5
1000
565887
1002
}
1002
{
1070
     2
1000
-2000151
1002
}
  0
LINE
  5
12E
330
6C
100
AcDbEntity
  8
Layer1
100
AcDbLine
 10
-604.3051261440207
 20
2303.397740619024
 30
0.0
 11
-604.3051261440207
 21
2303.860003611621
 31
0.0
1001
REVIT
1002
{
1070
     1
1000
565934
1002
}
1002
{
1070
     5
1000
565932
1002
}
1002
{
1070
     2
1000
-2000151
1002
}
  0
LINE
  5
12F
330
6C
100
AcDbEntity
  8
Layer1
100
AcDbLine
 10
-604.3051261440207
 20
2303.860003611621
 30
0.0
 11
-604.3238402841757
 21
2303.861844454158
 31
0.0
1001
REVIT
1002
{
1070
     1
1000
565934
1002
}
1002
{
1070
     5
1000
565932
1002
}
1002
{
1070
     2
1000
-2000151
1002
}
  0
LINE
  5
130
330
6C
100
AcDbEntity
  8
Layer1
100
AcDbLine
 10
-604.3317197738963
 20
2303.860772115303
 30
0.0
 11
-604.3329608353609
 21
2303.872381469549
 31
0.0
1001
REVIT
1002
{
1070
     1
1000
565934
1002
}
1002
{
1070
     5
1000
565932
1002
}
1002
{
1070
     2
1000
-2000151
1002
}
  0
LINE
  5
131
330
6C
100
AcDbEntity
  8
Layer1
100
AcDbLine
 10
-604.3562873326613
 20
2303.865036153407
 30
0.0
 11
-604.3563141878323
 21
2303.865038795054
 31
0.0
1001
REVIT
1002
{
1070
     1
1000
565934
1002
}
1002
{
1070
     5
1000
565932
1002
}
1002
{
1070
     2
1000
-2000151
1002
}
  0
LINE
  5
132
330
6C
100
AcDbEntity
  8
Layer1
100
AcDbLine
 10
-604.315032054355
 20
2303.874615276806
 30
0.0
 11
-604.3137970684987
 21
2303.863211259725
 31
0.0
1001
REVIT
1002
{
1070
     1
1000
565934
1002
}
1002
{
1070
     5
1000
565932
1002
}
1002
{
1070
     2
1000
-2000151
1002
}
  0
LINE
  5
133
330
6C
100
AcDbEntity
  8
Layer1
100
AcDbLine
 10
-604.3059570497391
 20
2303.864278226883
 30
0.0
 11
-604.287342864355
 21
2303.862502087201
 31
0.0
1001
REVIT
1002
{
1070
     1
1000
565934
1002
}
1002
{
1070
     5
1000
565932
1002
}
1002
{
1070
     2
1000
-2000151
1002
}
  0
LINE
  5
134
330
6C
100
AcDbEntity
  8
Layer1
100
AcDbLine
 10
-604.287342864355
 20
2303.862502087201
 30
0.0
 11
-604.287342864355
 21
2303.408488970275
 31
0.0
1001
REVIT
1002
{
1070
     1
1000
565934
1002
}
1002
{
1070
     5
1000
565932
1002
}
1002
{
1070
     2
1000
-2000151
1002
}
  0
LINE
  5
135
330
6C
100
AcDbEntity
  8
Layer1
100
AcDbLine
 10
-604.287342864355
 20
2303.862502087201
 30
0.0
 11
-604.3051261440207
 21
2303.860003611621
 31
0.0
1001
REVIT
1002
{
1070
     1
1000
565934
1002
}
1002
{
1070
     5
1000
565932
1002
}
1002
{
1070
     2
1000
-2000151
1002
}
  0
LINE
  5
136
330
6C
100
AcDbEntity
  8
Layer1
100
AcDbLine
 10
-604.3051261440207
 20
2303.397740619024
 30
0.0
 11
-604.287342864355
 21
2303.408488970275
 31
0.0
1001
REVIT
1002
{
1070
     1
1000
565934
1002
}
1002
{
1070
     5
1000
565932
1002
}
1002
{
1070
     2
1000
-2000151
1002
}
  0
LINE
  5
137
330
6C
100
AcDbEntity
  8
Layer1
100
AcDbLine
 10
-604.3563141878323
 20
2303.865038795054
 30
0.0
 11
-604.3562807779705
 21
2303.865043099074
 31
0.0
1001
REVIT
1002
{
1070
     1
1000
565934
1002
}
1002
{
1070
     5
1000
565932
1002
}
1002
{
1070
     2
1000
-2000151
1002
}
  0
LINE
  5
138
330
6C
100
AcDbEntity
  8
Layer1
100
AcDbLine
 10
-604.3329608353609
 20
2303.872381469549
 30
0.0
 11
-604.315032054355
 21
2303.874615276806
 31
0.0
1001
REVIT
1002
{
1070
     1
1000
565934
1002
}
1002
{
1070
     5
1000
565932
1002
}
1002
{
1070
     2
1000
-2000151
1002
}
  0
LINE
  5
139
330
6C
100
AcDbEntity
  8
Layer1
100
AcDbLine
 10
-604.3238402841757
 20
2303.861844454158
 30
0.0
 11
-604.3059570497391
 21
2303.864278226883
 31
0.0
1001
REVIT
1002
{
1070
     1
1000
565934
1002
}
1002
{
1070
     5
1000
565932
1002
}
1002
{
1070
     2
1000
-2000151
1002
}
  0
LINE
  5
161
330
6C
100
AcDbEntity
  8
Layer1
100
AcDbLine
 10
-604.3749932772946
 20
2303.862632464841
 30
0.0
 11
-604.3749932772944
 21
2303.729306038116
 31
0.0
1001
REVIT
1002
{
1070
     1
1000
565934
1002
}
1002
{
1070
     5
1000
565932
1002
}
1002
{
1070
     2
1000
-2000151
1002
}
  0
LINE
  5
162
330
6C
100
AcDbEntity
  8
Layer1
100
AcDbLine
 10
-604.3235676648023
 20
2303.386594421774
 30
0.0
 11
-604.3235676648023
 21
2303.545475015301
 31
0.0
1001
REVIT
1002
{
1070
     1
1000
565934
1002
}
1002
{
1070
     5
1000
565932
1002
}
1002
{
1070
     2
1000
-2000151
1002
}
  0
LINE
  5
164
330
6C
100
AcDbEntity
  8
Layer1
100
AcDbLine
 10
-604.3235676648023
 20
2303.721305888394
 30
0.0
 11
-604.3235676648023
 21
2303.857412655949
 31
0.0
1001
REVIT
1002
{
1070
     1
1000
565934
1002
}
1002
{
1070
     5
1000
565932
1002
}
1002
{
1070
     2
1000
-2000151
1002
}
  0
LINE
  5
165
330
6C
100
AcDbEntity
  8
Layer1
100
AcDbLine
 10
-604.3235676648023
 20
2303.857412655949
 30
0.0
 11
-604.3423765965789
 21
2303.859321802474
 31
0.0
1001
REVIT
1002
{
1070
     1
1000
565934
1002
}
1002
{
1070
     5
1000
565932
1002
}
1002
{
1070
     2
1000
-2000151
1002
}
  0
LINE
  5
166
330
6C
100
AcDbEntity
  8
Layer1
100
AcDbLine
 10
-604.3423765965789
 20
2303.859321802474
 30
0.0
 11
-604.3494354746762
 21
2303.850110635865
 31
0.0
1001
REVIT
1002
{
1070
     1
1000
565934
1002
}
1002
{
1070
     5
1000
565932
1002
}
1002
{
1070
     2
1000
-2000151
1002
}
  0
LINE
  5
167
330
6C
100
AcDbEntity
  8
Layer1
100
AcDbLine
 10
-604.3494354746762
 20
2303.850110635865
 30
0.0
 11
-604.3515400287632
 21
2303.870066625217
 31
0.0
1001
REVIT
1002
{
1070
     1
1000
565934
1002
}
1002
{
1070
     5
1000
565932
1002
}
1002
{
1070
     2
1000
-2000151
1002
}
  0
LINE
  5
168
330
6C
100
AcDbEntity
  8
Layer1
100
AcDbLine
 10
-604.3515400287632
 20
2303.870066625217
 30
0.0
 11
-604.359992608164
 21
2303.861109865064
 31
0.0
1001
REVIT
1002
{
1070
     1
1000
565934
1002
}
1002
{
1070
     5
1000
565932
1002
}
1002
{
1070
     2
1000
-2000151
1002
}
  0
LINE
  5
169
330
6C
100
AcDbEntity
  8
Layer1
100
AcDbLine
 10
-604.359992608164
 20
2303.861109865064
 30
0.0
 11
-604.3749932772946
 21
2303.862632464841
 31
0.0
1001
REVIT
1002
{
1070
     1
1000
565934
1002
}
1002
{
1070
     5
1000
565932
1002
}
1002
{
1070
     2
1000
-2000151
1002
}
  0
LINE
  5
16A
330
6C
100
AcDbEntity
  8
Layer1
100
AcDbLine
 10
-604.3563141878323
 20
2303.865038795054
 30
0.0
 11
-604.356287332661
 21
2303.865036153408
 31
0.0
1001
REVIT
1002
{
1070
     1
1000
565934
1002
}
1002
{
1070
     5
1000
565932
1002
}
1002
{
1070
     2
1000
-2000151
1002
}
  0
LINE
  5
16B
330
6C
100
AcDbEntity
  8
Layer1
100
AcDbLine
 10
-604.3329608353609
 20
2303.872381469549
 30
0.0
 11
-604.3317197738964
 21
2303.860772115303
 31
0.0
1001
REVIT
1002
{
1070
     1
1000
565934
1002
}
1002
{
1070
     5
1000
565932
1002
}
1002
{
1070
     2
1000
-2000151
1002
}
  0
LINE
  5
16C
330
6C
100
AcDbEntity
  8
Layer1
100
AcDbLine
 10
-604.3238402841757
 20
2303.861844454158
 30
0.0
 11
-604.3051261440207
 21
2303.860003611621
 31
0.0
1001
REVIT
1002
{
1070
     1
1000
565934
1002
}
1002
{
1070
     5
1000
565932
1002
}
1002
{
1070
     2
1000
-2000151
1002
}
  0
LINE
  5
16D
330
6C
100
AcDbEntity
  8
Layer1
100
AcDbLine
 10
-604.3051261440207
 20
2303.860003611621
 30
0.0
 11
-604.3051261440207
 21
2303.397740619024
 31
0.0
1001
REVIT
1002
{
1070
     1
1000
565934
1002
}
1002
{
1070
     5
1000
565932
1002
}
1002
{
1070
     2
1000
-2000151
1002
}
  0
LINE
  5
16E
330
6C
100
AcDbEntity
  8
Layer1
100
AcDbLine
 10
-604.3051261440207
 20
2303.860003611621
 30
0.0
 11
-604.3235676648023
 21
2303.857412655949
 31
0.0
1001
REVIT
1002
{
1070
     1
1000
565934
1002
}
1002
{
1070
     5
1000
565932
1002
}
1002
{
1070
     2
1000
-2000151
1002
}
  0
LINE
  5
16F
330
6C
100
AcDbEntity
  8
Layer1
100
AcDbLine
 10
-604.3235676648023
 20
2303.386594421774
 30
0.0
 11
-604.3051261440207
 21
2303.397740619024
 31
0.0
1001
REVIT
1002
{
1070
     1
1000
565934
1002
}
1002
{
1070
     5
1000
565932
1002
}
1002
{
1070
     2
1000
-2000151
1002
}
  0
LINE
  5
170
330
6C
100
AcDbEntity
  8
Layer1
100
AcDbLine
 10
-604.3749932772946
 20
2303.862632464841
 30
0.0
 11
-604.3563141878323
 21
2303.865038795054
 31
0.0
1001
REVIT
1002
{
1070
     1
1000
565934
1002
}
1002
{
1070
     5
1000
565932
1002
}
1002
{
1070
     2
1000
-2000151
1002
}
  0
LINE
  5
171
330
6C
100
AcDbEntity
  8
Layer1
100
AcDbLine
 10
-604.3515400287632
 20
2303.870066625217
 30
0.0
 11
-604.3329608353609
 21
2303.872381469549
 31
0.0
1001
REVIT
1002
{
1070
     1
1000
565934
1002
}
1002
{
1070
     5
1000
565932
1002
}
1002
{
1070
     2
1000
-2000151
1002
}
  0
LINE
  5
172
330
6C
100
AcDbEntity
  8
Layer1
100
AcDbLine
 10
-604.3423765965789
 20
2303.859321802474
 30
0.0
 11
-604.3238402841757
 21
2303.861844454158
 31
0.0
1001
REVIT
1002
{
1070
     1
1000
565934
1002
}
1002
{
1070
     5
1000
565932
1002
}
1002
{
1070
     2
1000
-2000151
1002
}
  0
LINE
  5
201
330
6C
100
AcDbEntity
  8
Layer1
100
AcDbLine
 10
-604.6121127741145
 20
2303.435910823949
 30
0.0
 11
-604.6121127741143
 21
2303.543377979522
 31
0.0
1001
REVIT
1002
{
1070
     1
1000
568734
1002
}
1002
{
1070
     5
1000
568732
1002
}
1002
{
1070
     2
1000
-2000151
1002
}
  0
LINE
  5
202
330
6C
100
AcDbEntity
  8
Layer1
100
AcDbLine
 10
-604.6121127741143
 20
2303.543377979522
 30
0.0
 11
-604.6052196278727
 21
2303.549690539391
 31
0.0
1001
REVIT
1002
{
1070
     1
1000
568734
1002
}
1002
{
1070
     5
1000
568732
1002
}
1002
{
1070
     2
1000
-2000151
1002
}
  0
LINE
  5
203
330
6C
100
AcDbEntity
  8
Layer1
100
AcDbLine
 10
-604.6239070615903
 20
2303.557183173964
 30
0.0
 11
-604.6121127741145
 21
2303.57007427845
 31
0.0
1001
REVIT
1002
{
1070
     1
1000
568734
1002
}
1002
{
1070
     5
1000
568732
1002
}
1002
{
1070
     2
1000
-2000151
1002
}
  0
LINE
  5
204
330
6C
100
AcDbEntity
  8
Layer1
100
AcDbLine
 10
-604.6121127741145
 20
2303.57007427845
 30
0.0
 11
-604.6121127741145
 21
2303.666392358019
 31
0.0
1001
REVIT
1002
{
1070
     1
1000
568734
1002
}
1002
{
1070
     5
1000
568732
1002
}
1002
{
1070
     2
1000
-2000151
1002
}
  0
LINE
  5
205
330
6C
100
AcDbEntity
  8
Layer1
100
AcDbLine
 10
-604.6121127741145
 20
2303.666392358019
 30
0.0
 11
-604.4026408402417
 21
2303.720005762564
 31
0.0
1001
REVIT
1002
{
1070
     1
1000
568734
1002
}
1002
{
1070
     5
1000
568732
1002
}
1002
{
1070
     2
1000
-2000151
1002
}
  0
LINE
  5
206
330
6C
100
AcDbEntity
  8
Layer1
100
AcDbLine
 10
-604.3784387044604
 20
2303.715966784637
 30
0.0
 11
-604.5900200340597
 21
2303.659789482908
 31
0.0
1001
REVIT
1002
{
1070
     1
1000
568734
1002
}
1002
{
1070
     5
1000
568732
1002
}
1002
{
1070
     2
1000
-2000151
1002
}
  0
LINE
  5
207
330
6C
100
AcDbEntity
  8
Layer1
100
AcDbLine
 10
-604.5900200340597
 20
2303.659789482908
 30
0.0
 11
-604.5900200340597
 21
2303.561565043382
 31
0.0
1001
REVIT
1002
{
1070
     1
1000
568734
1002
}
1002
{
1070
     5
1000
568732
1002
}
1002
{
1070
     2
1000
-2000151
1002
}
  0
LINE
  5
208
330
6C
100
AcDbEntity
  8
Layer1
100
AcDbLine
 10
-604.5900200340597
 20
2303.561565043382
 30
0.0
 11
-604.6018460101111
 21
2303.548337903953
 31
0.0
1001
REVIT
1002
{
1070
     1
1000
568734
1002
}
1002
{
1070
     5
1000
568732
1002
}
1002
{
1070
     2
1000
-2000151
1002
}
  0
LINE
  5
209
330
6C
100
AcDbEntity
  8
Layer1
100
AcDbLine
 10
-604.5866375584632
 20
2303.537515209106
 30
0.0
 11
-604.5900200340579
 21
2303.534340362286
 31
0.0
1001
REVIT
1002
{
1070
     1
1000
568734
1002
}
1002
{
1070
     5
1000
568732
1002
}
1002
{
1070
     2
1000
-2000151
1002
}
  0
LINE
  5
20A
330
6C
100
AcDbEntity
  8
Layer1
100
AcDbLine
 10
-604.5900200340579
 20
2303.534340362286
 30
0.0
 11
-604.5900200340597
 21
2303.424746180482
 31
0.0
1001
REVIT
1002
{
1070
     1
1000
568734
1002
}
1002
{
1070
     5
1000
568732
1002
}
1002
{
1070
     2
1000
-2000151
1002
}
  0
LINE
  5
20B
330
6C
100
AcDbEntity
  8
Layer1
100
AcDbLine
 10
-604.5900200340597
 20
2303.659789482908
 30
0.0
 11
-604.6121127741145
 21
2303.666392358019
 31
0.0
1001
REVIT
1002
{
1070
     1
1000
568734
1002
}
1002
{
1070
     5
1000
568732
1002
}
1002
{
1070
     2
1000
-2000151
1002
}
  0
LINE
  5
20C
330
6C
100
AcDbEntity
  8
Layer1
100
AcDbLine
 10
-604.5900200340579
 20
2303.534340362286
 30
0.0
 11
-604.6121127741143
 21
2303.543377979522
 31
0.0
1001
REVIT
1002
{
1070
     1
1000
568734
1002
}
1002
{
1070
     5
1000
568732
1002
}
1002
{
1070
     2
1000
-2000151
1002
}
  0
LINE
  5
20D
330
6C
100
AcDbEntity
  8
Layer1
100
AcDbLine
 10
-604.6121127741145
 20
2303.435910823949
 30
0.0
 11
-604.5900200340597
 21
2303.424746180482
 31
0.0
1001
REVIT
1002
{
1070
     1
1000
568734
1002
}
1002
{
1070
     5
1000
568732
1002
}
1002
{
1070
     2
1000
-2000151
1002
}
  0
LINE
  5
20E
330
6C
100
AcDbEntity
  8
Layer1
100
AcDbLine
 10
-604.6121127741145
 20
2303.57007427845
 30
0.0
 11
-604.5900200340597
 21
2303.561565043382
 31
0.0
1001
REVIT
1002
{
1070
     1
1000
568734
1002
}
1002
{
1070
     5
1000
568732
1002
}
1002
{
1070
     2
1000
-2000151
1002
}
  0
LINE
  5
20F
330
6C
100
AcDbEntity
  8
Layer1
100
AcDbLine
 10
-604.6239070615903
 20
2303.557183173964
 30
0.0
 11
-604.6018460101111
 21
2303.548337903953
 31
0.0
1001
REVIT
1002
{
1070
     1
1000
568734
1002
}
1002
{
1070
     5
1000
568732
1002
}
1002
{
1070
     2
1000
-2000151
1002
}
  0
LINE
  5
2AF
330
6C
100
AcDbEntity
  8
Layer1
100
AcDbLine
 10
-604.5900200340597
 20
2303.424746180482
 30
0.0
 11
-604.5900200340579
 21
2303.534340362286
 31
0.0
1001
REVIT
1002
{
1070
     1
1000
568734
1002
}
1002
{
1070
     5
1000
568732
1002
}
1002
{
1070
     2
1000
-2000151
1002
}
  0
LINE
  5
2B0
330
6C
100
AcDbEntity
  8
Layer1
100
AcDbLine
 10
-604.5900200340579
 20
2303.534340362286
 30
0.0
 11
-604.583110328584
 21
2303.540825924661
 31
0.0
1001
REVIT
1002
{
1070
     1
1000
568734
1002
}
1002
{
1070
     5
1000
568732
1002
}
1002
{
1070
     2
1000
-2000151
1002
}
  0
LINE
  5
2B1
330
6C
100
AcDbEntity
  8
Layer1
100
AcDbLine
 10
-604.6018460101111
 20
2303.548337903953
 30
0.0
 11
-604.5900200340597
 21
2303.561565043382
 31
0.0
1001
REVIT
1002
{
1070
     1
1000
568734
1002
}
1002
{
1070
     5
1000
568732
1002
}
1002
{
1070
     2
1000
-2000151
1002
}
  0
LINE
  5
2B2
330
6C
100
AcDbEntity
  8
Layer1
100
AcDbLine
 10
-604.5900200340597
 20
2303.561565043382
 30
0.0
 11
-604.5900200340597
 21
2303.659789482908
 31
0.0
1001
REVIT
1002
{
1070
     1
1000
568734
1002
}
1002
{
1070
     5
1000
568732
1002
}
1002
{
1070
     2
1000
-2000151
1002
}
  0
LINE
  5
2B3
330
6C
100
AcDbEntity
  8
Layer1
100
AcDbLine
 10
-604.5900200340597
 20
2303.659789482908
 30
0.0
 11
-604.3784387044614
 21
2303.715966784638
 31
0.0
1001
REVIT
1002
{
1070
     1
1000
568734
1002
}
1002
{
1070
     5
1000
568732
1002
}
1002
{
1070
     2
1000
-2000151
1002
}
  0
LINE
  5
2B4
330
6C
100
AcDbEntity
  8
Layer1
100
AcDbLine
 10
-604.3235676648023
 20
2303.526678610967
 30
0.0
 11
-604.3235676648023
 21
2303.545475015301
 31
0.0
1001
REVIT
1002
{
1070
     1
1000
568734
1002
}
1002
{
1070
     5
1000
568732
1002
}
1002
{
1070
     2
1000
-2000151
1002
}
  0
LINE
  5
2B6
330
6C
100
AcDbEntity
  8
Layer1
100
AcDbLine
 10
-604.356017172001
 20
2303.711123039575
 30
0.0
 11
-604.5670351014829
 21
2303.652919957496
 31
0.0
1001
REVIT
1002
{
1070
     1
1000
568734
1002
}
1002
{
1070
     5
1000
568732
1002
}
1002
{
1070
     2
1000
-2000151
1002
}
  0
LINE
  5
2B7
330
6C
100
AcDbEntity
  8
Layer1
100
AcDbLine
 10
-604.5670351014829
 20
2303.652919957496
 30
0.0
 11
-604.5670351014829
 21
2303.552712171631
 31
0.0
1001
REVIT
1002
{
1070
     1
1000
568734
1002
}
1002
{
1070
     5
1000
568732
1002
}
1002
{
1070
     2
1000
-2000151
1002
}
  0
LINE
  5
2B8
330
6C
100
AcDbEntity
  8
Layer1
100
AcDbLine
 10
-604.5670351014829
 20
2303.552712171631
 30
0.0
 11
-604.5788856556521
 21
2303.539132062843
 31
0.0
1001
REVIT
1002
{
1070
     1
1000
568734
1002
}
1002
{
1070
     5
1000
568732
1002
}
1002
{
1070
     2
1000
-2000151
1002
}
  0
LINE
  5
2B9
330
6C
100
AcDbEntity
  8
Layer1
100
AcDbLine
 10
-604.5788856556521
 20
2303.539132062843
 30
0.0
 11
-604.5570950505806
 21
2303.534512356212
 31
0.0
1001
REVIT
1002
{
1070
     1
1000
568734
1002
}
1002
{
1070
     5
1000
568732
1002
}
1002
{
1070
     2
1000
-2000151
1002
}
  0
LINE
  5
2BA
330
6C
100
AcDbEntity
  8
Layer1
100
AcDbLine
 10
-604.5570950505811
 20
2303.534512356209
 30
0.0
 11
-604.567035101483
 21
2303.524937770205
 31
0.0
1001
REVIT
1002
{
1070
     1
1000
568734
1002
}
1002
{
1070
     5
1000
568732
1002
}
1002
{
1070
     2
1000
-2000151
1002
}
  0
LINE
  5
2BB
330
6C
100
AcDbEntity
  8
Layer1
100
AcDbLine
 10
-604.567035101483
 20
2303.524937770205
 30
0.0
 11
-604.5670351014829
 21
2303.413130664403
 31
0.0
1001
REVIT
1002
{
1070
     1
1000
568734
1002
}
1002
{
1070
     5
1000
568732
1002
}
1002
{
1070
     2
1000
-2000151
1002
}
  0
LINE
  5
2BC
330
6C
100
AcDbEntity
  8
Layer1
100
AcDbLine
 10
-604.5670351014829
 20
2303.413130664403
 30
0.0
 11
-604.3235676648023
 21
2303.526678610967
 31
0.0
1001
REVIT
1002
{
1070
     1
1000
568734
1002
}
1002
{
1070
     5
1000
568732
1002
}
1002
{
1070
     2
1000
-2000151
1002
}
  0
LINE
  5
2BD
330
6C
100
AcDbEntity
  8
Layer1
100
AcDbLine
 10
-604.5670351014829
 20
2303.652919957496
 30
0.0
 11
-604.5900200340597
 21
2303.659789482908
 31
0.0
1001
REVIT
1002
{
1070
     1
1000
568734
1002
}
1002
{
1070
     5
1000
568732
1002
}
1002
{
1070
     2
1000
-2000151
1002
}
  0
LINE
  5
2BE
330
6C
100
AcDbEntity
  8
Layer1
100
AcDbLine
 10
-604.567035101483
 20
2303.524937770205
 30
0.0
 11
-604.5900200340579
 21
2303.534340362286
 31
0.0
1001
REVIT
1002
{
1070
     1
1000
568734
1002
}
1002
{
1070
     5
1000
568732
1002
}
1002
{
1070
     2
1000
-2000151
1002
}
  0
LINE
  5
2BF
330
6C
100
AcDbEntity
  8
Layer1
100
AcDbLine
 10
-604.5900200340597
 20
2303.424746180482
 30
0.0
 11
-604.5670351014829
 21
2303.413130664403
 31
0.0
1001
REVIT
1002
{
1070
     1
1000
568734
1002
}
1002
{
1070
     5
1000
568732
1002
}
1002
{
1070
     2
1000
-2000151
1002
}
  0
LINE
  5
2C0
330
6C
100
AcDbEntity
  8
Layer1
100
AcDbLine
 10
-604.5900200340597
 20
2303.561565043382
 30
0.0
 11
-604.5670351014829
 21
2303.552712171631
 31
0.0
1001
REVIT
1002
{
1070
     1
1000
568734
1002
}
1002
{
1070
     5
1000
568732
1002
}
1002
{
1070
     2
1000
-2000151
1002
}
  0
LINE
  5
2C1
330
6C
100
AcDbEntity
  8
Layer1
100
AcDbLine
 10
-604.6018460101111
 20
2303.548337903953
 30
0.0
 11
-604.5788856556521
 21
2303.539132062843
 31
0.0
1001
REVIT
1002
{
1070
     1
1000
568734
1002
}
1002
{
1070
     5
1000
568732
1002
}
1002
{
1070
     2
1000
-2000151
1002
}
  0
LINE
  5
2C4
330
6C
100
AcDbEntity
  8
Layer1
100
AcDbLine
 10
-604.3562382778969
 20
2303.711295583856
 30
0.0
 11
-604.3660179791593
 21
2303.713353334775
 31
0.0
1001
REVIT
1002
{
1070
     1
1000
568758
1002
}
1002
{
1070
     5
1000
567159
1002
}
1002
{
1070
     2
1000
-2000196
1002
}
1002
{
1070
     3
1000
476753
1002
}
  0
LINE
  5
2C5
330
6C
100
AcDbEntity
  8
Layer1
100
AcDbLine
 10
-604.3660187313443
 20
2303.713955268084
 30
0.0
 11
-604.3676002058382
 21
2303.714287328196
 31
0.0
1001
REVIT
1002
{
1070
     1
1000
568758
1002
}
1002
{
1070
     5
1000
567159
1002
}
1002
{
1070
     2
1000
-2000196
1002
}
1002
{
1070
     3
1000
476753
1002
}
  0
LINE
  5
2CB
330
6C
100
AcDbEntity
  8
Layer1
100
AcDbLine
 10
-604.3693762405466
 20
2303.714260325675
 30
0.0
 11
-604.3697938687898
 21
2303.714147821248
 31
0.0
1001
REVIT
1002
{
1070
     1
1000
568758
1002
}
1002
{
1070
     5
1000
567159
1002
}
1002
{
1070
     2
1000
-2000196
1002
}
1002
{
1070
     3
1000
476753
1002
}
  0
LINE
  5
2CC
330
6C
100
AcDbEntity
  8
Layer1
100
AcDbLine
 10
-604.3697938687898
 20
2303.714147821248
 30
0.0
 11
-604.3892788161736
 21
2303.718247656956
 31
0.0
1001
REVIT
1002
{
1070
     1
1000
568758
1002
}
1002
{
1070
     5
1000
567159
1002
}
1002
{
1070
     2
1000
-2000196
1002
}
1002
{
1070
     3
1000
476753
1002
}
  0
LINE
  5
2CD
330
6C
100
AcDbEntity
  8
Layer1
100
AcDbLine
 10
-604.3892917051022
 20
2303.718841863643
 30
0.0
 11
-604.3907596119448
 21
2303.719150078103
 31
0.0
1001
REVIT
1002
{
1070
     1
1000
568758
1002
}
1002
{
1070
     5
1000
567159
1002
}
1002
{
1070
     2
1000
-2000196
1002
}
1002
{
1070
     3
1000
476753
1002
}
  0
LINE
  5
2D3
330
6C
100
AcDbEntity
  8
Layer1
100
AcDbLine
 10
-604.392507567755
 20
2303.719123986957
 30
0.0
 11
-604.3929270370975
 21
2303.719015280607
 31
0.0
1001
REVIT
1002
{
1070
     1
1000
568758
1002
}
1002
{
1070
     5
1000
567159
1002
}
1002
{
1070
     2
1000
-2000196
1002
}
1002
{
1070
     3
1000
476753
1002
}
  0
LINE
  5
2D4
330
6C
100
AcDbEntity
  8
Layer1
100
AcDbLine
 10
-604.3929270370975
 20
2303.719015280607
 30
0.0
 11
-604.4021924956402
 21
2303.720964829506
 31
0.0
1001
REVIT
1002
{
1070
     1
1000
568758
1002
}
1002
{
1070
     5
1000
567159
1002
}
1002
{
1070
     2
1000
-2000196
1002
}
1002
{
1070
     3
1000
476753
1002
}
  0
LINE
  5
2DA
330
6C
100
AcDbEntity
  8
Layer1
100
AcDbLine
 10
-604.3550781911208
 20
2303.711951165272
 30
0.0
 11
-604.3228955882031
 21
2303.720842172293
 31
0.0
1001
REVIT
1002
{
1070
     1
1000
568758
1002
}
1002
{
1070
     5
1000
567159
1002
}
1002
{
1070
     2
1000
-2000196
1002
}
1002
{
1070
     3
1000
476753
1002
}
  0
LINE
  5
2E1
330
6C
100
AcDbEntity
  8
Layer1
100
AcDbLine
 10
-604.3557579920929
 20
2303.712466230529
 30
0.0
 11
-604.3660179791593
 21
2303.714615532651
 31
0.0
1001
REVIT
1002
{
1070
     1
1000
568758
1002
}
1002
{
1070
     5
1000
567159
1002
}
1002
{
1070
     2
1000
-2000196
1002
}
1002
{
1070
     3
1000
476753
1002
}
  0
LINE
  5
2E2
330
6C
100
AcDbEntity
  8
Layer1
100
AcDbLine
 10
-604.3660179791593
 20
2303.714615532651
 30
0.0
 11
-604.3660179791593
 21
2303.713353334775
 31
0.0
1001
REVIT
1002
{
1070
     1
1000
568758
1002
}
1002
{
1070
     5
1000
567159
1002
}
1002
{
1070
     2
1000
-2000196
1002
}
1002
{
1070
     3
1000
476753
1002
}
  0
LINE
  5
2E3
330
6C
100
AcDbEntity
  8
Layer1
100
AcDbLine
 10
-604.3557579920929
 20
2303.71055867482
 30
0.0
 11
-604.3557579920929
 21
2303.708472266688
 31
0.0
1001
REVIT
1002
{
1070
     1
1000
568758
1002
}
1002
{
1070
     5
1000
567159
1002
}
1002
{
1070
     2
1000
-2000196
1002
}
1002
{
1070
     3
1000
476753
1002
}
  0
LINE
  5
2E4
330
6C
100
AcDbEntity
  8
Layer1
100
AcDbLine
 10
-604.3557579920929
 20
2303.708472266688
 30
0.0
 11
-604.3547964110716
 21
2303.708268032918
 31
0.0
1001
REVIT
1002
{
1070
     1
1000
568758
1002
}
1002
{
1070
     5
1000
567159
1002
}
1002
{
1070
     2
1000
-2000196
1002
}
1002
{
1070
     3
1000
476753
1002
}
  0
LINE
  5
2E5
330
6C
100
AcDbEntity
  8
Layer1
100
AcDbLine
 10
-604.3547964110716
 20
2303.708268032918
 30
0.0
 11
-604.3547964110716
 21
2303.710992200071
 31
0.0
1001
REVIT
1002
{
1070
     1
1000
568758
1002
}
1002
{
1070
     5
1000
567159
1002
}
1002
{
1070
     2
1000
-2000196
1002
}
1002
{
1070
     3
1000
476753
1002
}
  0
LINE
  5
2E6
330
6C
100
AcDbEntity
  8
Layer1
100
AcDbLine
 10
-604.3235676648021
 20
2303.721305888393
 30
0.0
 11
-604.3337477920881
 21
2303.723325533916
 31
0.0
1001
REVIT
1002
{
1070
     1
1000
568758
1002
}
1002
{
1070
     5
1000
567159
1002
}
1002
{
1070
     2
1000
-2000196
1002
}
1002
{
1070
     3
1000
476753
1002
}
  0
LINE
  5
2E7
330
6C
100
AcDbEntity
  8
Layer1
100
AcDbLine
 10
-604.3337477920881
 20
2303.723325533916
 30
0.0
 11
-604.3341403121107
 21
2303.723219589381
 31
0.0
1001
REVIT
1002
{
1070
     1
1000
568758
1002
}
1002
{
1070
     5
1000
567159
1002
}
1002
{
1070
     2
1000
-2000196
1002
}
1002
{
1070
     3
1000
476753
1002
}
  0
LINE
  5
2ED
330
6C
100
AcDbEntity
  8
Layer1
100
AcDbLine
 10
-604.335865350598
 20
2303.723194136827
 30
0.0
 11
-604.3377397501163
 21
2303.723566743177
 31
0.0
1001
REVIT
1002
{
1070
     1
1000
568758
1002
}
1002
{
1070
     5
1000
567159
1002
}
1002
{
1070
     2
1000
-2000196
1002
}
1002
{
1070
     3
1000
476753
1002
}
  0
LINE
  5
2F3
330
6C
100
AcDbEntity
  8
Layer1
100
AcDbLine
 10
-604.3381745086874
 20
2303.723783196911
 30
0.0
 11
-604.337888365837
 21
2303.723963663626
 31
0.0
1001
REVIT
1002
{
1070
     1
1000
568758
1002
}
1002
{
1070
     5
1000
567159
1002
}
1002
{
1070
     2
1000
-2000196
1002
}
1002
{
1070
     3
1000
476753
1002
}
  0
LINE
  5
2F4
330
6C
100
AcDbEntity
  8
Layer1
100
AcDbLine
 10
-604.337888365837
 20
2303.723963663626
 30
0.0
 11
-604.3374954698266
 21
2303.724069039413
 31
0.0
1001
REVIT
1002
{
1070
     1
1000
568758
1002
}
1002
{
1070
     5
1000
567159
1002
}
1002
{
1070
     2
1000
-2000196
1002
}
1002
{
1070
     3
1000
476753
1002
}
  0
LINE
  5
2F5
330
6C
100
AcDbEntity
  8
Layer1
100
AcDbLine
 10
-604.3374954698266
 20
2303.724069039413
 30
0.0
 11
-604.3568449169974
 21
2303.727907795377
 31
0.0
1001
REVIT
1002
{
1070
     1
1000
568758
1002
}
1002
{
1070
     5
1000
567159
1002
}
1002
{
1070
     2
1000
-2000196
1002
}
1002
{
1070
     3
1000
476753
1002
}
  0
LINE
  5
2F6
330
6C
100
AcDbEntity
  8
Layer1
100
AcDbLine
 10
-604.3568449169974
 20
2303.727907795377
 30
0.0
 11
-604.3572396315298
 21
2303.727805331723
 31
0.0
1001
REVIT
1002
{
1070
     1
1000
568758
1002
}
1002
{
1070
     5
1000
567159
1002
}
1002
{
1070
     2
1000
-2000196
1002
}
1002
{
1070
     3
1000
476753
1002
}
  0
LINE
  5
2FC
330
6C
100
AcDbEntity
  8
Layer1
100
AcDbLine
 10
-604.3589381757199
 20
2303.727780715624
 30
0.0
 11
-604.3607510139722
 21
2303.728141084388
 31
0.0
1001
REVIT
1002
{
1070
     1
1000
568758
1002
}
1002
{
1070
     5
1000
567159
1002
}
1002
{
1070
     2
1000
-2000196
1002
}
1002
{
1070
     3
1000
476753
1002
}
  0
LINE
  5
302
330
6C
100
AcDbEntity
  8
Layer1
100
AcDbLine
 10
-604.3611612960764
 20
2303.728344585244
 30
0.0
 11
-604.3608646788602
 21
2303.728524986392
 31
0.0
1001
REVIT
1002
{
1070
     1
1000
568758
1002
}
1002
{
1070
     5
1000
567159
1002
}
1002
{
1070
     2
1000
-2000196
1002
}
1002
{
1070
     3
1000
476753
1002
}
  0
LINE
  5
303
330
6C
100
AcDbEntity
  8
Layer1
100
AcDbLine
 10
-604.3608646788602
 20
2303.728524986392
 30
0.0
 11
-604.360469646532
 21
2303.728626909056
 31
0.0
1001
REVIT
1002
{
1070
     1
1000
568758
1002
}
1002
{
1070
     5
1000
567159
1002
}
1002
{
1070
     2
1000
-2000196
1002
}
1002
{
1070
     3
1000
476753
1002
}
  0
LINE
  5
304
330
6C
100
AcDbEntity
  8
Layer1
100
AcDbLine
 10
-604.360469646532
 20
2303.728626909056
 30
0.0
 11
-604.3701237926624
 21
2303.730542204657
 31
0.0
1001
REVIT
1002
{
1070
     1
1000
568758
1002
}
1002
{
1070
     5
1000
567159
1002
}
1002
{
1070
     2
1000
-2000196
1002
}
1002
{
1070
     3
1000
476753
1002
}
  0
LINE
  5
305
330
6C
100
AcDbEntity
  8
Layer1
100
AcDbLine
 10
-604.3701237926624
 20
2303.730542204657
 30
0.0
 11
-604.4026408402418
 21
2303.722287432488
 31
0.0
1001
REVIT
1002
{
1070
     1
1000
568758
1002
}
1002
{
1070
     5
1000
567159
1002
}
1002
{
1070
     2
1000
-2000196
1002
}
1002
{
1070
     3
1000
476753
1002
}
  0
LINE
  5
306
330
6C
100
AcDbEntity
  8
Layer1
100
AcDbLine
 10
-604.4026408402418
 20
2303.722287432488
 30
0.0
 11
-604.3929270370975
 21
2303.720252547106
 31
0.0
1001
REVIT
1002
{
1070
     1
1000
568758
1002
}
1002
{
1070
     5
1000
567159
1002
}
1002
{
1070
     2
1000
-2000196
1002
}
1002
{
1070
     3
1000
476753
1002
}
  0
LINE
  5
307
330
6C
100
AcDbEntity
  8
Layer1
100
AcDbLine
 10
-604.3929270370975
 20
2303.720252547106
 30
0.0
 11
-604.392507567755
 21
2303.720360774787
 31
0.0
1001
REVIT
1002
{
1070
     1
1000
568758
1002
}
1002
{
1070
     5
1000
567159
1002
}
1002
{
1070
     2
1000
-2000196
1002
}
1002
{
1070
     3
1000
476753
1002
}
  0
LINE
  5
30D
330
6C
100
AcDbEntity
  8
Layer1
100
AcDbLine
 10
-604.3907596119448
 20
2303.720386751045
 30
0.0
 11
-604.3889359096748
 21
2303.720005516811
 31
0.0
1001
REVIT
1002
{
1070
     1
1000
568758
1002
}
1002
{
1070
     5
1000
567159
1002
}
1002
{
1070
     2
1000
-2000196
1002
}
1002
{
1070
     3
1000
476753
1002
}
  0
LINE
  5
313
330
6C
100
AcDbEntity
  8
Layer1
100
AcDbLine
 10
-604.3888596165904
 20
2303.719597123259
 30
0.0
 11
-604.3892788161736
 21
2303.71948830355
 31
0.0
1001
REVIT
1002
{
1070
     1
1000
568758
1002
}
1002
{
1070
     5
1000
567159
1002
}
1002
{
1070
     2
1000
-2000196
1002
}
1002
{
1070
     3
1000
476753
1002
}
  0
LINE
  5
314
330
6C
100
AcDbEntity
  8
Layer1
100
AcDbLine
 10
-604.3892788161736
 20
2303.71948830355
 30
0.0
 11
-604.3697938687898
 21
2303.715406520744
 31
0.0
1001
REVIT
1002
{
1070
     1
1000
568758
1002
}
1002
{
1070
     5
1000
567159
1002
}
1002
{
1070
     2
1000
-2000196
1002
}
1002
{
1070
     3
1000
476753
1002
}
  0
LINE
  5
315
330
6C
100
AcDbEntity
  8
Layer1
100
AcDbLine
 10
-604.3697938687898
 20
2303.715406520744
 30
0.0
 11
-604.3693762405466
 21
2303.715518529777
 31
0.0
1001
REVIT
1002
{
1070
     1
1000
568758
1002
}
1002
{
1070
     5
1000
567159
1002
}
1002
{
1070
     2
1000
-2000196
1002
}
1002
{
1070
     3
1000
476753
1002
}
  0
LINE
  5
31B
330
6C
100
AcDbEntity
  8
Layer1
100
AcDbLine
 10
-604.3676002058382
 20
2303.715545413397
 30
0.0
 11
-604.3657127596378
 21
2303.715150853869
 31
0.0
1001
REVIT
1002
{
1070
     1
1000
568758
1002
}
1002
{
1070
     5
1000
567159
1002
}
1002
{
1070
     2
1000
-2000196
1002
}
1002
{
1070
     3
1000
476753
1002
}
  0
LINE
  5
321
330
6C
100
AcDbEntity
  8
Layer1
100
AcDbLine
 10
-604.3656006808616
 20
2303.714728165054
 30
0.0
 11
-604.3660179791593
 21
2303.714615532651
 31
0.0
1001
REVIT
1002
{
1070
     1
1000
568758
1002
}
1002
{
1070
     5
1000
567159
1002
}
1002
{
1070
     2
1000
-2000196
1002
}
1002
{
1070
     3
1000
476753
1002
}
  0
LINE
  5
328
330
6C
100
AcDbEntity
  8
Layer1
100
AcDbLine
 10
-604.4026408402418
 20
2303.72044503257
 30
0.0
 11
-604.4026408402417
 21
2303.720005762564
 31
0.0
1001
REVIT
1002
{
1070
     1
1000
568758
1002
}
1002
{
1070
     5
1000
567159
1002
}
1002
{
1070
     2
1000
-2000196
1002
}
1002
{
1070
     3
1000
476753
1002
}
  0
LINE
  5
333
330
6C
100
AcDbEntity
  8
Layer1
100
AcDbLine
 10
-604.4035366206023
 20
2303.719776491587
 30
0.0
 11
-604.4035366206023
 21
2303.721247647386
 31
0.0
1001
REVIT
1002
{
1070
     1
1000
568758
1002
}
1002
{
1070
     5
1000
567159
1002
}
1002
{
1070
     2
1000
-2000196
1002
}
1002
{
1070
     3
1000
476753
1002
}
  0
LINE
  5
334
330
6C
100
AcDbEntity
  8
Layer1
100
AcDbLine
 10
-604.3604696465316
 20
2303.728626909057
 30
0.0
 11
-604.3604696465315
 21
2303.728085152185
 31
0.0
1001
REVIT
1002
{
1070
     1
1000
568758
1002
}
1002
{
1070
     5
1000
567159
1002
}
1002
{
1070
     2
1000
-2000196
1002
}
1002
{
1070
     3
1000
476753
1002
}
  0
LINE
  5
336
330
6C
100
AcDbEntity
  8
Layer1
100
AcDbLine
 10
-604.3374954698266
 20
2303.723518183419
 30
0.0
 11
-604.3374954698266
 21
2303.724069039413
 31
0.0
1001
REVIT
1002
{
1070
     1
1000
568758
1002
}
1002
{
1070
     5
1000
567159
1002
}
1002
{
1070
     2
1000
-2000196
1002
}
1002
{
1070
     3
1000
476753
1002
}
  0
LINE
  5
338
330
6C
100
AcDbEntity
  8
Layer1
100
AcDbLine
 10
-604.3929270370975
 20
2303.719015280607
 30
0.0
 11
-604.3929270370975
 21
2303.720252547106
 31
0.0
1001
REVIT
1002
{
1070
     1
1000
568758
1002
}
1002
{
1070
     5
1000
567159
1002
}
1002
{
1070
     2
1000
-2000196
1002
}
1002
{
1070
     3
1000
476753
1002
}
  0
LINE
  5
33C
330
6C
100
AcDbEntity
  8
Layer1
100
AcDbLine
 10
-604.3892788161736
 20
2303.718247656956
 30
0.0
 11
-604.3892788161736
 21
2303.71948830355
 31
0.0
1001
REVIT
1002
{
1070
     1
1000
568758
1002
}
1002
{
1070
     5
1000
567159
1002
}
1002
{
1070
     2
1000
-2000196
1002
}
1002
{
1070
     3
1000
476753
1002
}
  0
LINE
  5
33D
330
6C
100
AcDbEntity
  8
Layer1
100
AcDbLine
 10
-604.3697938687898
 20
2303.714147821248
 30
0.0
 11
-604.3697938687898
 21
2303.715406520744
 31
0.0
1001
REVIT
1002
{
1070
     1
1000
568758
1002
}
1002
{
1070
     5
1000
567159
1002
}
1002
{
1070
     2
1000
-2000196
1002
}
1002
{
1070
     3
1000
476753
1002
}
  0
LINE
  5
346
330
6C
100
AcDbEntity
  8
Layer1
100
AcDbLine
 10
-604.334934599801
 20
2303.674765175554
 30
0.0
 11
-604.3354729968531
 21
2303.673755976854
 31
0.0
1001
REVIT
1002
{
1070
     1
1000
568758
1002
}
1002
{
1070
     5
1000
567159
1002
}
1002
{
1070
     2
1000
-2000196
1002
}
1002
{
1070
     3
1000
476753
1002
}
  0
LINE
  5
347
330
6C
100
AcDbEntity
  8
Layer1
100
AcDbLine
 10
-604.3360804193219
 20
2303.672617393415
 30
0.0
 11
-604.3366554314587
 21
2303.671539561542
 31
0.0
1001
REVIT
1002
{
1070
     1
1000
568758
1002
}
1002
{
1070
     5
1000
567159
1002
}
1002
{
1070
     2
1000
-2000196
1002
}
1002
{
1070
     3
1000
476753
1002
}
  0
LINE
  5
34D
330
6C
100
AcDbEntity
  8
Layer1
100
AcDbLine
 10
-604.3348425522239
 20
2303.674832761956
 30
0.0
 11
-604.3342645333941
 21
2303.674697883468
 31
0.0
1001
REVIT
1002
{
1070
     1
1000
568758
1002
}
1002
{
1070
     5
1000
567159
1002
}
1002
{
1070
     2
1000
-2000196
1002
}
1002
{
1070
     3
1000
476753
1002
}
  0
LINE
  5
34E
330
6C
100
AcDbEntity
  8
Layer1
100
AcDbLine
 10
-604.3341363730681
 20
2303.673993076712
 30
0.0
 11
-604.3342645333941
 21
2303.674697883468
 31
0.0
1001
REVIT
1002
{
1070
     1
1000
568758
1002
}
1002
{
1070
     5
1000
567159
1002
}
1002
{
1070
     2
1000
-2000196
1002
}
1002
{
1070
     3
1000
476753
1002
}
  0
LINE
  5
34F
330
6C
100
AcDbEntity
  8
Layer1
100
AcDbLine
 10
-604.3351272397018
 20
2303.674404081569
 30
0.0
 11
-604.3350621718426
 21
2303.674046565817
 31
0.0
1001
REVIT
1002
{
1070
     1
1000
568758
1002
}
1002
{
1070
     5
1000
567159
1002
}
1002
{
1070
     2
1000
-2000196
1002
}
1002
{
1070
     3
1000
476753
1002
}
  0
LINE
  5
350
330
6C
100
AcDbEntity
  8
Layer1
100
AcDbLine
 10
-604.3364751989876
 20
2303.670551247526
 30
0.0
 11
-604.3356797420631
 21
2303.670474744057
 31
0.0
1001
REVIT
1002
{
1070
     1
1000
568758
1002
}
1002
{
1070
     5
1000
567159
1002
}
1002
{
1070
     2
1000
-2000196
1002
}
1002
{
1070
     3
1000
476753
1002
}
  0
LINE
  5
351
330
6C
100
AcDbEntity
  8
Layer1
100
AcDbLine
 10
-604.3358461352093
 20
2303.670625067351
 30
0.0
 11
-604.3365932663111
 21
2303.670697020761
 31
0.0
1001
REVIT
1002
{
1070
     1
1000
568758
1002
}
1002
{
1070
     5
1000
567159
1002
}
1002
{
1070
     2
1000
-2000196
1002
}
1002
{
1070
     3
1000
476753
1002
}
  0
LINE
  5
357
330
6C
100
AcDbEntity
  8
Layer1
100
AcDbLine
 10
-604.334934599801
 20
2303.594928211065
 30
0.0
 11
-604.3354347464203
 21
2303.593951802233
 31
0.0
1001
REVIT
1002
{
1070
     1
1000
568758
1002
}
1002
{
1070
     5
1000
567159
1002
}
1002
{
1070
     2
1000
-2000196
1002
}
1002
{
1070
     3
1000
476753
1002
}
  0
LINE
  5
358
330
6C
100
AcDbEntity
  8
Layer1
100
AcDbLine
 10
-604.3360999575379
 20
2303.592653147031
 30
0.0
 11
-604.3366554314587
 21
2303.591568725739
 31
0.0
1001
REVIT
1002
{
1070
     1
1000
568758
1002
}
1002
{
1070
     5
1000
567159
1002
}
1002
{
1070
     2
1000
-2000196
1002
}
1002
{
1070
     3
1000
476753
1002
}
  0
LINE
  5
35E
330
6C
100
AcDbEntity
  8
Layer1
100
AcDbLine
 10
-604.3347717689873
 20
2303.595060437767
 30
0.0
 11
-604.3342645333939
 21
2303.594913046488
 31
0.0
1001
REVIT
1002
{
1070
     1
1000
568758
1002
}
1002
{
1070
     5
1000
567159
1002
}
1002
{
1070
     2
1000
-2000196
1002
}
1002
{
1070
     3
1000
476753
1002
}
  0
LINE
  5
35F
330
6C
100
AcDbEntity
  8
Layer1
100
AcDbLine
 10
-604.3341304853989
 20
2303.594186289204
 30
0.0
 11
-604.3342645333939
 21
2303.594913046488
 31
0.0
1001
REVIT
1002
{
1070
     1
1000
568758
1002
}
1002
{
1070
     5
1000
567159
1002
}
1002
{
1070
     2
1000
-2000196
1002
}
1002
{
1070
     3
1000
476753
1002
}
  0
LINE
  5
360
330
6C
100
AcDbEntity
  8
Layer1
100
AcDbLine
 10
-604.3351097093335
 20
2303.594586354323
 30
0.0
 11
-604.3350478413483
 21
2303.594251225505
 31
0.0
1001
REVIT
1002
{
1070
     1
1000
568758
1002
}
1002
{
1070
     5
1000
567159
1002
}
1002
{
1070
     2
1000
-2000196
1002
}
1002
{
1070
     3
1000
476753
1002
}
  0
LINE
  5
361
330
6C
100
AcDbEntity
  8
Layer1
100
AcDbLine
 10
-604.3364751989876
 20
2303.590594432824
 30
0.0
 11
-604.3356244579647
 21
2303.590578795388
 31
0.0
1001
REVIT
1002
{
1070
     1
1000
568758
1002
}
1002
{
1070
     5
1000
567159
1002
}
1002
{
1070
     2
1000
-2000196
1002
}
1002
{
1070
     3
1000
476753
1002
}
  0
LINE
  5
362
330
6C
100
AcDbEntity
  8
Layer1
100
AcDbLine
 10
-604.3358997026136
 20
2303.590847461953
 30
0.0
 11
-604.3367069228204
 21
2303.590862506582
 31
0.0
1001
REVIT
1002
{
1070
     1
1000
568758
1002
}
1002
{
1070
     5
1000
567159
1002
}
1002
{
1070
     2
1000
-2000196
1002
}
1002
{
1070
     3
1000
476753
1002
}
  0
LINE
  5
36E
330
6C
100
AcDbEntity
  8
Layer1
100
AcDbLine
 10
-604.3226138081537
 20
2303.546092336027
 30
0.0
 11
-604.3398469196143
 21
2303.538374631418
 31
0.0
1001
REVIT
1002
{
1070
     1
1000
568758
1002
}
1002
{
1070
     5
1000
567159
1002
}
1002
{
1070
     2
1000
-2000196
1002
}
1002
{
1070
     3
1000
476753
1002
}
  0
LINE
  5
36F
330
6C
100
AcDbEntity
  8
Layer1
100
AcDbLine
 10
-604.3398469196143
 20
2303.538374631418
 30
0.0
 11
-604.3408050849526
 21
2303.538693187939
 31
0.0
1001
REVIT
1002
{
1070
     1
1000
568758
1002
}
1002
{
1070
     5
1000
567159
1002
}
1002
{
1070
     2
1000
-2000196
1002
}
1002
{
1070
     3
1000
476753
1002
}
  0
LINE
  5
370
330
6C
100
AcDbEntity
  8
Layer1
100
AcDbLine
 10
-604.3398469196143
 20
2303.538374631418
 30
0.0
 11
-604.3398469196143
 21
2303.682775703136
 31
0.0
1001
REVIT
1002
{
1070
     1
1000
568758
1002
}
1002
{
1070
     5
1000
567159
1002
}
1002
{
1070
     2
1000
-2000196
1002
}
1002
{
1070
     3
1000
476753
1002
}
  0
LINE
  5
371
330
6C
100
AcDbEntity
  8
Layer1
100
AcDbLine
 10
-604.3398469196143
 20
2303.682775703136
 30
0.0
 11
-604.3408050849526
 21
2303.682994611964
 31
0.0
1001
REVIT
1002
{
1070
     1
1000
568758
1002
}
1002
{
1070
     5
1000
567159
1002
}
1002
{
1070
     2
1000
-2000196
1002
}
1002
{
1070
     3
1000
476753
1002
}
  0
LINE
  5
372
330
6C
100
AcDbEntity
  8
Layer1
100
AcDbLine
 10
-604.3408050849526
 20
2303.682994611964
 30
0.0
 11
-604.3408050849526
 21
2303.538693187939
 31
0.0
1001
REVIT
1002
{
1070
     1
1000
568758
1002
}
1002
{
1070
     5
1000
567159
1002
}
1002
{
1070
     2
1000
-2000196
1002
}
1002
{
1070
     3
1000
476753
1002
}
  0
LINE
  5
373
330
6C
100
AcDbEntity
  8
Layer1
100
AcDbLine
 10
-604.3398469196143
 20
2303.682775703136
 30
0.0
 11
-604.3547964110716
 21
2303.708268032918
 31
0.0
1001
REVIT
1002
{
1070
     1
1000
568758
1002
}
1002
{
1070
     5
1000
567159
1002
}
1002
{
1070
     2
1000
-2000196
1002
}
1002
{
1070
     3
1000
476753
1002
}
  0
LINE
  5
374
330
6C
100
AcDbEntity
  8
Layer1
100
AcDbLine
 10
-604.3557579920929
 20
2303.708472266688
 30
0.0
 11
-604.3408050849526
 21
2303.682994611964
 31
0.0
1001
REVIT
1002
{
1070
     1
1000
568758
1002
}
1002
{
1070
     5
1000
567159
1002
}
1002
{
1070
     2
1000
-2000196
1002
}
1002
{
1070
     3
1000
476753
1002
}
  0
LINE
  5
375
330
6C
100
AcDbEntity
  8
Layer1
100
AcDbLine
 10
-604.3226138081543
 20
2303.546092336029
 30
0.0
 11
-604.3226138081539
 21
2303.66327353769
 31
0.0
1001
REVIT
1002
{
1070
     1
1000
568758
1002
}
1002
{
1070
     5
1000
567159
1002
}
1002
{
1070
     2
1000
-2000196
1002
}
1002
{
1070
     3
1000
476753
1002
}
  0
LINE
  5
376
330
6C
100
AcDbEntity
  8
Layer1
100
AcDbLine
 10
-604.3226138081539
 20
2303.669430893827
 30
0.0
 11
-604.3226138081539
 21
2303.719883207091
 31
0.0
1001
REVIT
1002
{
1070
     1
1000
568758
1002
}
1002
{
1070
     5
1000
567159
1002
}
1002
{
1070
     2
1000
-2000196
1002
}
1002
{
1070
     3
1000
476753
1002
}
  0
LINE
  5
378
330
6C
100
AcDbEntity
  8
Layer1
100
AcDbLine
 10
-604.3346324912231
 20
2303.558900043758
 30
0.0
 11
-604.3355907602946
 21
2303.559203270962
 31
0.0
1001
REVIT
1002
{
1070
     1
1000
568758
1002
}
1002
{
1070
     5
1000
567159
1002
}
1002
{
1070
     2
1000
-2000151
1002
}
1002
{
1070
     3
1000
388270
1002
}
  0
LINE
  5
379
330
6C
100
AcDbEntity
  8
Layer1
100
AcDbLine
 10
-604.3346780654765
 20
2303.563024786023
 30
0.0
 11
-604.3337200986805
 21
2303.562724495169
 31
0.0
1001
REVIT
1002
{
1070
     1
1000
568758
1002
}
1002
{
1070
     5
1000
567159
1002
}
1002
{
1070
     2
1000
-2000151
1002
}
1002
{
1070
     3
1000
388270
1002
}
  0
LINE
  5
37A
330
6C
100
AcDbEntity
  8
Layer1
100
AcDbLine
 10
-604.334632304768
 20
2303.590270211544
 30
0.0
 11
-604.3355718479745
 21
2303.590542896363
 31
0.0
1001
REVIT
1002
{
1070
     1
1000
568758
1002
}
1002
{
1070
     5
1000
567159
1002
}
1002
{
1070
     2
1000
-2000151
1002
}
1002
{
1070
     3
1000
388270
1002
}
  0
LINE
  5
37B
330
6C
100
AcDbEntity
  8
Layer1
100
AcDbLine
 10
-604.3346780654765
 20
2303.594345636619
 30
0.0
 11
-604.3337200939289
 21
2303.594066864078
 31
0.0
1001
REVIT
1002
{
1070
     1
1000
568758
1002
}
1002
{
1070
     5
1000
567159
1002
}
1002
{
1070
     2
1000
-2000151
1002
}
1002
{
1070
     3
1000
388270
1002
}
  0
LINE
  5
37C
330
6C
100
AcDbEntity
  8
Layer1
100
AcDbLine
 10
-604.3346325226781
 20
2303.641378403588
 30
0.0
 11
-604.3355907602946
 21
2303.641624934968
 31
0.0
1001
REVIT
1002
{
1070
     1
1000
568758
1002
}
1002
{
1070
     5
1000
567159
1002
}
1002
{
1070
     2
1000
-2000151
1002
}
1002
{
1070
     3
1000
388270
1002
}
  0
LINE
  5
37D
330
6C
100
AcDbEntity
  8
Layer1
100
AcDbLine
 10
-604.3346780654765
 20
2303.645373195497
 30
0.0
 11
-604.333720085036
 21
2303.645129482618
 31
0.0
1001
REVIT
1002
{
1070
     1
1000
568758
1002
}
1002
{
1070
     5
1000
567159
1002
}
1002
{
1070
     2
1000
-2000151
1002
}
1002
{
1070
     3
1000
388270
1002
}
  0
LINE
  5
37E
330
6C
100
AcDbEntity
  8
Layer1
100
AcDbLine
 10
-604.3343421117821
 20
2303.670076221085
 30
0.0
 11
-604.3354354937999
 21
2303.670329783915
 31
0.0
1001
REVIT
1002
{
1070
     1
1000
568758
1002
}
1002
{
1070
     5
1000
567159
1002
}
1002
{
1070
     2
1000
-2000151
1002
}
1002
{
1070
     3
1000
388270
1002
}
  0
LINE
  5
37F
330
6C
100
AcDbEntity
  8
Layer1
100
AcDbLine
 10
-604.3346780654765
 20
2303.674119715021
 30
0.0
 11
-604.333720079357
 21
2303.673895754449
 31
0.0
1001
REVIT
1002
{
1070
     1
1000
568758
1002
}
1002
{
1070
     5
1000
567159
1002
}
1002
{
1070
     2
1000
-2000151
1002
}
1002
{
1070
     3
1000
388270
1002
}
  0
LINE
  5
380
330
6C
100
AcDbEntity
  8
Layer1
100
AcDbLine
 10
-604.3343421117821
 20
2303.685229285068
 30
0.0
 11
-604.3353400767945
 21
2303.685451257858
 31
0.0
1001
REVIT
1002
{
1070
     1
1000
568758
1002
}
1002
{
1070
     5
1000
567159
1002
}
1002
{
1070
     2
1000
-2000151
1002
}
1002
{
1070
     3
1000
388270
1002
}
  0
LINE
  5
381
330
6C
100
AcDbEntity
  8
Layer1
100
AcDbLine
 10
-604.3346780654765
 20
2303.689253180304
 30
0.0
 11
-604.3337200761636
 21
2303.689039618646
 31
0.0
1001
REVIT
1002
{
1070
     1
1000
568758
1002
}
1002
{
1070
     5
1000
567159
1002
}
1002
{
1070
     2
1000
-2000151
1002
}
1002
{
1070
     3
1000
388270
1002
}
  0
LINE
  5
2DAA
330
6C
100
AcDbEntity
  8
Layer1
100
AcDbLine
 10
-604.3349891863177
 20
2303.689222762611
 30
0.0
 11
-604.3346780654765
 21
2303.689253180304
 31
0.0
1001
REVIT
1002
{
1070
     1
1000
568758
1002
}
1002
{
1070
     5
1000
567159
1002
}
1002
{
1070
     2
1000
-2000151
1002
}
1002
{
1070
     3
1000
388270
1002
}
  0
LINE
  5
2DAD
330
6C
100
AcDbEntity
  8
Layer1
100
AcDbLine
 10
-604.3353400767945
 20
2303.685451257858
 30
0.0
 11
-604.3355907602946
 21
2303.685543954015
 31
0.0
1001
REVIT
1002
{
1070
     1
1000
568758
1002
}
1002
{
1070
     5
1000
567159
1002
}
1002
{
1070
     2
1000
-2000151
1002
}
1002
{
1070
     3
1000
388270
1002
}
  0
LINE
  5
2DAE
330
6C
100
AcDbEntity
  8
Layer1
100
AcDbLine
 10
-604.3355907602946
 20
2303.685543954015
 30
0.0
 11
-604.3358401470014
 21
2303.685765449341
 31
0.0
1001
REVIT
1002
{
1070
     1
1000
568758
1002
}
1002
{
1070
     5
1000
567159
1002
}
1002
{
1070
     2
1000
-2000151
1002
}
1002
{
1070
     3
1000
388270
1002
}
  0
LINE
  5
2DAF
330
6C
100
AcDbEntity
  8
Layer1
100
AcDbLine
 10
-604.3358401470014
 20
2303.685765449341
 30
0.0
 11
-604.3360315902987
 21
2303.686095134864
 31
0.0
1001
REVIT
1002
{
1070
     1
1000
568758
1002
}
1002
{
1070
     5
1000
567159
1002
}
1002
{
1070
     2
1000
-2000151
1002
}
1002
{
1070
     3
1000
388270
1002
}
  0
LINE
  5
2DB0
330
6C
100
AcDbEntity
  8
Layer1
100
AcDbLine
 10
-604.3360315902987
 20
2303.686095134864
 30
0.0
 11
-604.336151973122
 21
2303.686510535279
 31
0.0
1001
REVIT
1002
{
1070
     1
1000
568758
1002
}
1002
{
1070
     5
1000
567159
1002
}
1002
{
1070
     2
1000
-2000151
1002
}
1002
{
1070
     3
1000
388270
1002
}
  0
LINE
  5
2DB1
330
6C
100
AcDbEntity
  8
Layer1
100
AcDbLine
 10
-604.336151973122
 20
2303.686510535279
 30
0.0
 11
-604.3361930399139
 21
2303.686983277142
 31
0.0
1001
REVIT
1002
{
1070
     1
1000
568758
1002
}
1002
{
1070
     5
1000
567159
1002
}
1002
{
1070
     2
1000
-2000151
1002
}
1002
{
1070
     3
1000
388270
1002
}
  0
LINE
  5
2DB2
330
6C
100
AcDbEntity
  8
Layer1
100
AcDbLine
 10
-604.3361930399139
 20
2303.686983277142
 30
0.0
 11
-604.336151973122
 21
2303.687481039807
 31
0.0
1001
REVIT
1002
{
1070
     1
1000
568758
1002
}
1002
{
1070
     5
1000
567159
1002
}
1002
{
1070
     2
1000
-2000151
1002
}
1002
{
1070
     3
1000
388270
1002
}
  0
LINE
  5
2DB3
330
6C
100
AcDbEntity
  8
Layer1
100
AcDbLine
 10
-604.336151973122
 20
2303.687481039807
 30
0.0
 11
-604.3360315902987
 21
2303.68796978597
 31
0.0
1001
REVIT
1002
{
1070
     1
1000
568758
1002
}
1002
{
1070
     5
1000
567159
1002
}
1002
{
1070
     2
1000
-2000151
1002
}
1002
{
1070
     3
1000
388270
1002
}
  0
LINE
  5
2DB4
330
6C
100
AcDbEntity
  8
Layer1
100
AcDbLine
 10
-604.3360315902987
 20
2303.68796978597
 30
0.0
 11
-604.3358401470014
 21
2303.688416112326
 31
0.0
1001
REVIT
1002
{
1070
     1
1000
568758
1002
}
1002
{
1070
     5
1000
567159
1002
}
1002
{
1070
     2
1000
-2000151
1002
}
1002
{
1070
     3
1000
388270
1002
}
  0
LINE
  5
2DB5
330
6C
100
AcDbEntity
  8
Layer1
100
AcDbLine
 10
-604.3358401470014
 20
2303.688416112326
 30
0.0
 11
-604.3355907602946
 21
2303.688789551715
 31
0.0
1001
REVIT
1002
{
1070
     1
1000
568758
1002
}
1002
{
1070
     5
1000
567159
1002
}
1002
{
1070
     2
1000
-2000151
1002
}
1002
{
1070
     3
1000
388270
1002
}
  0
LINE
  5
2DB6
330
6C
100
AcDbEntity
  8
Layer1
100
AcDbLine
 10
-604.3355907602946
 20
2303.688789551715
 30
0.0
 11
-604.3353004959034
 21
2303.689064663007
 31
0.0
1001
REVIT
1002
{
1070
     1
1000
568758
1002
}
1002
{
1070
     5
1000
567159
1002
}
1002
{
1070
     2
1000
-2000151
1002
}
1002
{
1070
     3
1000
388270
1002
}
  0
LINE
  5
2DB7
330
6C
100
AcDbEntity
  8
Layer1
100
AcDbLine
 10
-604.3353004959034
 20
2303.689064663007
 30
0.0
 11
-604.3349891863177
 21
2303.689222762611
 31
0.0
1001
REVIT
1002
{
1070
     1
1000
568758
1002
}
1002
{
1070
     5
1000
567159
1002
}
1002
{
1070
     2
1000
-2000151
1002
}
1002
{
1070
     3
1000
388270
1002
}
  0
LINE
  5
2DB8
330
6C
100
AcDbEntity
  8
Layer1
100
AcDbLine
 10
-604.3349891863177
 20
2303.674084708295
 30
0.0
 11
-604.3346780654765
 21
2303.674119715021
 31
0.0
1001
REVIT
1002
{
1070
     1
1000
568758
1002
}
1002
{
1070
     5
1000
567159
1002
}
1002
{
1070
     2
1000
-2000151
1002
}
1002
{
1070
     3
1000
388270
1002
}
  0
LINE
  5
2DBB
330
6C
100
AcDbEntity
  8
Layer1
100
AcDbLine
 10
-604.3354354937999
 20
2303.670329783915
 30
0.0
 11
-604.3355907602946
 21
2303.670397026484
 31
0.0
1001
REVIT
1002
{
1070
     1
1000
568758
1002
}
1002
{
1070
     5
1000
567159
1002
}
1002
{
1070
     2
1000
-2000151
1002
}
1002
{
1070
     3
1000
388270
1002
}
  0
LINE
  5
2DBC
330
6C
100
AcDbEntity
  8
Layer1
100
AcDbLine
 10
-604.3355907602946
 20
2303.670397026484
 30
0.0
 11
-604.3358401470014
 21
2303.670614843353
 31
0.0
1001
REVIT
1002
{
1070
     1
1000
568758
1002
}
1002
{
1070
     5
1000
567159
1002
}
1002
{
1070
     2
1000
-2000151
1002
}
1002
{
1070
     3
1000
388270
1002
}
  0
LINE
  5
2DBD
330
6C
100
AcDbEntity
  8
Layer1
100
AcDbLine
 10
-604.3358401470014
 20
2303.670614843353
 30
0.0
 11
-604.3360315902987
 21
2303.670941705087
 31
0.0
1001
REVIT
1002
{
1070
     1
1000
568758
1002
}
1002
{
1070
     5
1000
567159
1002
}
1002
{
1070
     2
1000
-2000151
1002
}
1002
{
1070
     3
1000
388270
1002
}
  0
LINE
  5
2DBE
330
6C
100
AcDbEntity
  8
Layer1
100
AcDbLine
 10
-604.3360315902987
 20
2303.670941705087
 30
0.0
 11
-604.336151973122
 21
2303.671355329855
 31
0.0
1001
REVIT
1002
{
1070
     1
1000
568758
1002
}
1002
{
1070
     5
1000
567159
1002
}
1002
{
1070
     2
1000
-2000151
1002
}
1002
{
1070
     3
1000
388270
1002
}
  0
LINE
  5
2DBF
330
6C
100
AcDbEntity
  8
Layer1
100
AcDbLine
 10
-604.336151973122
 20
2303.671355329855
 30
0.0
 11
-604.3361930399139
 21
2303.671827465983
 31
0.0
1001
REVIT
1002
{
1070
     1
1000
568758
1002
}
1002
{
1070
     5
1000
567159
1002
}
1002
{
1070
     2
1000
-2000151
1002
}
1002
{
1070
     3
1000
388270
1002
}
  0
LINE
  5
2DC0
330
6C
100
AcDbEntity
  8
Layer1
100
AcDbLine
 10
-604.3361930399139
 20
2303.671827465983
 30
0.0
 11
-604.336151973122
 21
2303.672325834382
 31
0.0
1001
REVIT
1002
{
1070
     1
1000
568758
1002
}
1002
{
1070
     5
1000
567159
1002
}
1002
{
1070
     2
1000
-2000151
1002
}
1002
{
1070
     3
1000
388270
1002
}
  0
LINE
  5
2DC1
330
6C
100
AcDbEntity
  8
Layer1
100
AcDbLine
 10
-604.336151973122
 20
2303.672325834382
 30
0.0
 11
-604.3360315902987
 21
2303.672816356195
 31
0.0
1001
REVIT
1002
{
1070
     1
1000
568758
1002
}
1002
{
1070
     5
1000
567159
1002
}
1002
{
1070
     2
1000
-2000151
1002
}
1002
{
1070
     3
1000
388270
1002
}
  0
LINE
  5
2DC2
330
6C
100
AcDbEntity
  8
Layer1
100
AcDbLine
 10
-604.3360315902987
 20
2303.672816356195
 30
0.0
 11
-604.3358401470014
 21
2303.673265506338
 31
0.0
1001
REVIT
1002
{
1070
     1
1000
568758
1002
}
1002
{
1070
     5
1000
567159
1002
}
1002
{
1070
     2
1000
-2000151
1002
}
1002
{
1070
     3
1000
388270
1002
}
  0
LINE
  5
2DC3
330
6C
100
AcDbEntity
  8
Layer1
100
AcDbLine
 10
-604.3358401470014
 20
2303.673265506338
 30
0.0
 11
-604.3355907602946
 21
2303.673642624181
 31
0.0
1001
REVIT
1002
{
1070
     1
1000
568758
1002
}
1002
{
1070
     5
1000
567159
1002
}
1002
{
1070
     2
1000
-2000151
1002
}
1002
{
1070
     3
1000
388270
1002
}
  0
LINE
  5
2DC4
330
6C
100
AcDbEntity
  8
Layer1
100
AcDbLine
 10
-604.3355907602946
 20
2303.673642624181
 30
0.0
 11
-604.3353004959034
 21
2303.673922016873
 31
0.0
1001
REVIT
1002
{
1070
     1
1000
568758
1002
}
1002
{
1070
     5
1000
567159
1002
}
1002
{
1070
     2
1000
-2000151
1002
}
1002
{
1070
     3
1000
388270
1002
}
  0
LINE
  5
2DC5
330
6C
100
AcDbEntity
  8
Layer1
100
AcDbLine
 10
-604.3353004959034
 20
2303.673922016873
 30
0.0
 11
-604.3349891863177
 21
2303.674084708295
 31
0.0
1001
REVIT
1002
{
1070
     1
1000
568758
1002
}
1002
{
1070
     5
1000
567159
1002
}
1002
{
1070
     2
1000
-2000151
1002
}
1002
{
1070
     3
1000
388270
1002
}
  0
LINE
  5
2DC6
330
6C
100
AcDbEntity
  8
Layer1
100
AcDbLine
 10
-604.3349891863177
 20
2303.64532947175
 30
0.0
 11
-604.3346780654765
 21
2303.645373195497
 31
0.0
1001
REVIT
1002
{
1070
     1
1000
568758
1002
}
1002
{
1070
     5
1000
567159
1002
}
1002
{
1070
     2
1000
-2000151
1002
}
1002
{
1070
     3
1000
388270
1002
}
  0
LINE
  5
2DCA
330
6C
100
AcDbEntity
  8
Layer1
100
AcDbLine
 10
-604.3355907602946
 20
2303.641624934968
 30
0.0
 11
-604.3358401470014
 21
2303.64183576449
 31
0.0
1001
REVIT
1002
{
1070
     1
1000
568758
1002
}
1002
{
1070
     5
1000
567159
1002
}
1002
{
1070
     2
1000
-2000151
1002
}
1002
{
1070
     3
1000
388270
1002
}
  0
LINE
  5
2DCB
330
6C
100
AcDbEntity
  8
Layer1
100
AcDbLine
 10
-604.3358401470014
 20
2303.64183576449
 30
0.0
 11
-604.3360315902987
 21
2303.642157262344
 31
0.0
1001
REVIT
1002
{
1070
     1
1000
568758
1002
}
1002
{
1070
     5
1000
567159
1002
}
1002
{
1070
     2
1000
-2000151
1002
}
1002
{
1070
     3
1000
388270
1002
}
  0
LINE
  5
2DCC
330
6C
100
AcDbEntity
  8
Layer1
100
AcDbLine
 10
-604.3360315902987
 20
2303.642157262344
 30
0.0
 11
-604.336151973122
 21
2303.642567514211
 31
0.0
1001
REVIT
1002
{
1070
     1
1000
568758
1002
}
1002
{
1070
     5
1000
567159
1002
}
1002
{
1070
     2
1000
-2000151
1002
}
1002
{
1070
     3
1000
388270
1002
}
  0
LINE
  5
2DCD
330
6C
100
AcDbEntity
  8
Layer1
100
AcDbLine
 10
-604.336151973122
 20
2303.642567514211
 30
0.0
 11
-604.3361930399139
 21
2303.643038499725
 31
0.0
1001
REVIT
1002
{
1070
     1
1000
568758
1002
}
1002
{
1070
     5
1000
567159
1002
}
1002
{
1070
     2
1000
-2000151
1002
}
1002
{
1070
     3
1000
388270
1002
}
  0
LINE
  5
2DCE
330
6C
100
AcDbEntity
  8
Layer1
100
AcDbLine
 10
-604.3361930399139
 20
2303.643038499725
 30
0.0
 11
-604.336151973122
 21
2303.643538018739
 31
0.0
1001
REVIT
1002
{
1070
     1
1000
568758
1002
}
1002
{
1070
     5
1000
567159
1002
}
1002
{
1070
     2
1000
-2000151
1002
}
1002
{
1070
     3
1000
388270
1002
}
  0
LINE
  5
2DCF
330
6C
100
AcDbEntity
  8
Layer1
100
AcDbLine
 10
-604.336151973122
 20
2303.643538018739
 30
0.0
 11
-604.3360315902987
 21
2303.644031913452
 31
0.0
1001
REVIT
1002
{
1070
     1
1000
568758
1002
}
1002
{
1070
     5
1000
567159
1002
}
1002
{
1070
     2
1000
-2000151
1002
}
1002
{
1070
     3
1000
388270
1002
}
  0
LINE
  5
2DD0
330
6C
100
AcDbEntity
  8
Layer1
100
AcDbLine
 10
-604.3360315902987
 20
2303.644031913452
 30
0.0
 11
-604.3358401470014
 21
2303.644486427476
 31
0.0
1001
REVIT
1002
{
1070
     1
1000
568758
1002
}
1002
{
1070
     5
1000
567159
1002
}
1002
{
1070
     2
1000
-2000151
1002
}
1002
{
1070
     3
1000
388270
1002
}
  0
LINE
  5
2DD1
330
6C
100
AcDbEntity
  8
Layer1
100
AcDbLine
 10
-604.3358401470014
 20
2303.644486427476
 30
0.0
 11
-604.3355907602946
 21
2303.644870532665
 31
0.0
1001
REVIT
1002
{
1070
     1
1000
568758
1002
}
1002
{
1070
     5
1000
567159
1002
}
1002
{
1070
     2
1000
-2000151
1002
}
1002
{
1070
     3
1000
388270
1002
}
  0
LINE
  5
2DD2
330
6C
100
AcDbEntity
  8
Layer1
100
AcDbLine
 10
-604.3355907602946
 20
2303.644870532665
 30
0.0
 11
-604.3353004959034
 21
2303.64515805802
 31
0.0
1001
REVIT
1002
{
1070
     1
1000
568758
1002
}
1002
{
1070
     5
1000
567159
1002
}
1002
{
1070
     2
1000
-2000151
1002
}
1002
{
1070
     3
1000
388270
1002
}
  0
LINE
  5
2DD3
330
6C
100
AcDbEntity
  8
Layer1
100
AcDbLine
 10
-604.3353004959034
 20
2303.64515805802
 30
0.0
 11
-604.3349891863177
 21
2303.64532947175
 31
0.0
1001
REVIT
1002
{
1070
     1
1000
568758
1002
}
1002
{
1070
     5
1000
567159
1002
}
1002
{
1070
     2
1000
-2000151
1002
}
1002
{
1070
     3
1000
388270
1002
}
  0
LINE
  5
2DD4
330
6C
100
AcDbEntity
  8
Layer1
100
AcDbLine
 10
-604.3349891863177
 20
2303.594286439406
 30
0.0
 11
-604.3346780654765
 21
2303.594345636619
 31
0.0
1001
REVIT
1002
{
1070
     1
1000
568758
1002
}
1002
{
1070
     5
1000
567159
1002
}
1002
{
1070
     2
1000
-2000151
1002
}
1002
{
1070
     3
1000
388270
1002
}
  0
LINE
  5
2DD7
330
6C
100
AcDbEntity
  8
Layer1
100
AcDbLine
 10
-604.3355718479745
 20
2303.590542896363
 30
0.0
 11
-604.3355907602946
 21
2303.590551983592
 31
0.0
1001
REVIT
1002
{
1070
     1
1000
568758
1002
}
1002
{
1070
     5
1000
567159
1002
}
1002
{
1070
     2
1000
-2000151
1002
}
1002
{
1070
     3
1000
388270
1002
}
  0
LINE
  5
2DD8
330
6C
100
AcDbEntity
  8
Layer1
100
AcDbLine
 10
-604.3355907602946
 20
2303.590551983592
 30
0.0
 11
-604.3358401470014
 21
2303.59075040997
 31
0.0
1001
REVIT
1002
{
1070
     1
1000
568758
1002
}
1002
{
1070
     5
1000
567159
1002
}
1002
{
1070
     2
1000
-2000151
1002
}
1002
{
1070
     3
1000
388270
1002
}
  0
LINE
  5
2DD9
330
6C
100
AcDbEntity
  8
Layer1
100
AcDbLine
 10
-604.3358401470014
 20
2303.59075040997
 30
0.0
 11
-604.3360315902987
 21
2303.591062386473
 31
0.0
1001
REVIT
1002
{
1070
     1
1000
568758
1002
}
1002
{
1070
     5
1000
567159
1002
}
1002
{
1070
     2
1000
-2000151
1002
}
1002
{
1070
     3
1000
388270
1002
}
  0
LINE
  5
2DDA
330
6C
100
AcDbEntity
  8
Layer1
100
AcDbLine
 10
-604.3360315902987
 20
2303.591062386473
 30
0.0
 11
-604.336151973122
 21
2303.591466651149
 31
0.0
1001
REVIT
1002
{
1070
     1
1000
568758
1002
}
1002
{
1070
     5
1000
567159
1002
}
1002
{
1070
     2
1000
-2000151
1002
}
1002
{
1070
     3
1000
388270
1002
}
  0
LINE
  5
2DDB
330
6C
100
AcDbEntity
  8
Layer1
100
AcDbLine
 10
-604.336151973122
 20
2303.591466651149
 30
0.0
 11
-604.3361930399139
 21
2303.591935594222
 31
0.0
1001
REVIT
1002
{
1070
     1
1000
568758
1002
}
1002
{
1070
     5
1000
567159
1002
}
1002
{
1070
     2
1000
-2000151
1002
}
1002
{
1070
     3
1000
388270
1002
}
  0
LINE
  5
2DDC
330
6C
100
AcDbEntity
  8
Layer1
100
AcDbLine
 10
-604.3361930399139
 20
2303.591935594222
 30
0.0
 11
-604.336151973122
 21
2303.592437155677
 31
0.0
1001
REVIT
1002
{
1070
     1
1000
568758
1002
}
1002
{
1070
     5
1000
567159
1002
}
1002
{
1070
     2
1000
-2000151
1002
}
1002
{
1070
     3
1000
388270
1002
}
  0
LINE
  5
2DDD
330
6C
100
AcDbEntity
  8
Layer1
100
AcDbLine
 10
-604.336151973122
 20
2303.592437155677
 30
0.0
 11
-604.3360315902987
 21
2303.592937037579
 31
0.0
1001
REVIT
1002
{
1070
     1
1000
568758
1002
}
1002
{
1070
     5
1000
567159
1002
}
1002
{
1070
     2
1000
-2000151
1002
}
1002
{
1070
     3
1000
388270
1002
}
  0
LINE
  5
2DDE
330
6C
100
AcDbEntity
  8
Layer1
100
AcDbLine
 10
-604.3360315902987
 20
2303.592937037579
 30
0.0
 11
-604.3358401470014
 21
2303.593401072956
 31
0.0
1001
REVIT
1002
{
1070
     1
1000
568758
1002
}
1002
{
1070
     5
1000
567159
1002
}
1002
{
1070
     2
1000
-2000151
1002
}
1002
{
1070
     3
1000
388270
1002
}
  0
LINE
  5
2DDF
330
6C
100
AcDbEntity
  8
Layer1
100
AcDbLine
 10
-604.3358401470014
 20
2303.593401072956
 30
0.0
 11
-604.3355907602946
 21
2303.593797581292
 31
0.0
1001
REVIT
1002
{
1070
     1
1000
568758
1002
}
1002
{
1070
     5
1000
567159
1002
}
1002
{
1070
     2
1000
-2000151
1002
}
1002
{
1070
     3
1000
388270
1002
}
  0
LINE
  5
2DE0
330
6C
100
AcDbEntity
  8
Layer1
100
AcDbLine
 10
-604.3355907602946
 20
2303.593797581292
 30
0.0
 11
-604.3353004959031
 21
2303.594099542822
 31
0.0
1001
REVIT
1002
{
1070
     1
1000
568758
1002
}
1002
{
1070
     5
1000
567159
1002
}
1002
{
1070
     2
1000
-2000151
1002
}
1002
{
1070
     3
1000
388270
1002
}
  0
LINE
  5
2DE1
330
6C
100
AcDbEntity
  8
Layer1
100
AcDbLine
 10
-604.3353004959031
 20
2303.594099542822
 30
0.0
 11
-604.3349891863177
 21
2303.594286439406
 31
0.0
1001
REVIT
1002
{
1070
     1
1000
568758
1002
}
1002
{
1070
     5
1000
567159
1002
}
1002
{
1070
     2
1000
-2000151
1002
}
1002
{
1070
     3
1000
388270
1002
}
  0
LINE
  5
2DE2
330
6C
100
AcDbEntity
  8
Layer1
100
AcDbLine
 10
-604.3349891863177
 20
2303.562956091157
 30
0.0
 11
-604.3346780654765
 21
2303.563024786023
 31
0.0
1001
REVIT
1002
{
1070
     1
1000
568758
1002
}
1002
{
1070
     5
1000
567159
1002
}
1002
{
1070
     2
1000
-2000151
1002
}
1002
{
1070
     3
1000
388270
1002
}
  0
LINE
  5
2DE5
330
6C
100
AcDbEntity
  8
Layer1
100
AcDbLine
 10
-604.3355907602946
 20
2303.559203270962
 30
0.0
 11
-604.3358401470014
 21
2303.559394084258
 31
0.0
1001
REVIT
1002
{
1070
     1
1000
568758
1002
}
1002
{
1070
     5
1000
567159
1002
}
1002
{
1070
     2
1000
-2000151
1002
}
1002
{
1070
     3
1000
388270
1002
}
  0
LINE
  5
2DE6
330
6C
100
AcDbEntity
  8
Layer1
100
AcDbLine
 10
-604.3358401470014
 20
2303.559394084258
 30
0.0
 11
-604.3360315902987
 21
2303.559700216526
 31
0.0
1001
REVIT
1002
{
1070
     1
1000
568758
1002
}
1002
{
1070
     5
1000
567159
1002
}
1002
{
1070
     2
1000
-2000151
1002
}
1002
{
1070
     3
1000
388270
1002
}
  0
LINE
  5
2DE7
330
6C
100
AcDbEntity
  8
Layer1
100
AcDbLine
 10
-604.3360315902987
 20
2303.559700216526
 30
0.0
 11
-604.336151973122
 21
2303.560100806252
 31
0.0
1001
REVIT
1002
{
1070
     1
1000
568758
1002
}
1002
{
1070
     5
1000
567159
1002
}
1002
{
1070
     2
1000
-2000151
1002
}
1002
{
1070
     3
1000
388270
1002
}
  0
LINE
  5
2DE8
330
6C
100
AcDbEntity
  8
Layer1
100
AcDbLine
 10
-604.336151973122
 20
2303.560100806252
 30
0.0
 11
-604.3361930399139
 21
2303.560568495671
 31
0.0
1001
REVIT
1002
{
1070
     1
1000
568758
1002
}
1002
{
1070
     5
1000
567159
1002
}
1002
{
1070
     2
1000
-2000151
1002
}
1002
{
1070
     3
1000
388270
1002
}
  0
LINE
  5
2DE9
330
6C
100
AcDbEntity
  8
Layer1
100
AcDbLine
 10
-604.3361930399139
 20
2303.560568495671
 30
0.0
 11
-604.336151973122
 21
2303.561071310779
 31
0.0
1001
REVIT
1002
{
1070
     1
1000
568758
1002
}
1002
{
1070
     5
1000
567159
1002
}
1002
{
1070
     2
1000
-2000151
1002
}
1002
{
1070
     3
1000
388270
1002
}
  0
LINE
  5
2DEA
330
6C
100
AcDbEntity
  8
Layer1
100
AcDbLine
 10
-604.336151973122
 20
2303.561071310779
 30
0.0
 11
-604.3360315902987
 21
2303.561574867634
 31
0.0
1001
REVIT
1002
{
1070
     1
1000
568758
1002
}
1002
{
1070
     5
1000
567159
1002
}
1002
{
1070
     2
1000
-2000151
1002
}
1002
{
1070
     3
1000
388270
1002
}
  0
LINE
  5
2DEB
330
6C
100
AcDbEntity
  8
Layer1
100
AcDbLine
 10
-604.3360315902987
 20
2303.561574867634
 30
0.0
 11
-604.3358401470014
 21
2303.562044747243
 31
0.0
1001
REVIT
1002
{
1070
     1
1000
568758
1002
}
1002
{
1070
     5
1000
567159
1002
}
1002
{
1070
     2
1000
-2000151
1002
}
1002
{
1070
     3
1000
388270
1002
}
  0
LINE
  5
2DEC
330
6C
100
AcDbEntity
  8
Layer1
100
AcDbLine
 10
-604.3358401470014
 20
2303.562044747243
 30
0.0
 11
-604.3355907602946
 21
2303.562448868659
 31
0.0
1001
REVIT
1002
{
1070
     1
1000
568758
1002
}
1002
{
1070
     5
1000
567159
1002
}
1002
{
1070
     2
1000
-2000151
1002
}
1002
{
1070
     3
1000
388270
1002
}
  0
LINE
  5
2DED
330
6C
100
AcDbEntity
  8
Layer1
100
AcDbLine
 10
-604.3355907602946
 20
2303.562448868659
 30
0.0
 11
-604.3353004959031
 21
2303.562759691156
 31
0.0
1001
REVIT
1002
{
1070
     1
1000
568758
1002
}
1002
{
1070
     5
1000
567159
1002
}
1002
{
1070
     2
1000
-2000151
1002
}
1002
{
1070
     3
1000
388270
1002
}
  0
LINE
  5
2DEE
330
6C
100
AcDbEntity
  8
Layer1
100
AcDbLine
 10
-604.3353004959031
 20
2303.562759691156
 30
0.0
 11
-604.3349891863177
 21
2303.562956091157
 31
0.0
1001
REVIT
1002
{
1070
     1
1000
568758
1002
}
1002
{
1070
     5
1000
567159
1002
}
1002
{
1070
     2
1000
-2000151
1002
}
1002
{
1070
     3
1000
388270
1002
}
  0
LINE
  5
2DEF
330
6C
100
AcDbEntity
  8
Layer1
100
AcDbLine
 10
-604.3340308789042
 20
2303.68900901874
 30
0.0
 11
-604.3343421117821
 21
2303.688850745484
 31
0.0
1001
REVIT
1002
{
1070
     1
1000
568758
1002
}
1002
{
1070
     5
1000
567159
1002
}
1002
{
1070
     2
1000
-2000151
1002
}
1002
{
1070
     3
1000
388270
1002
}
  0
LINE
  5
2DF0
330
6C
100
AcDbEntity
  8
Layer1
100
AcDbLine
 10
-604.3343421117821
 20
2303.688850745484
 30
0.0
 11
-604.334632304768
 21
2303.688575384343
 31
0.0
1001
REVIT
1002
{
1070
     1
1000
568758
1002
}
1002
{
1070
     5
1000
567159
1002
}
1002
{
1070
     2
1000
-2000151
1002
}
1002
{
1070
     3
1000
388270
1002
}
  0
LINE
  5
2DF1
330
6C
100
AcDbEntity
  8
Layer1
100
AcDbLine
 10
-604.334632304768
 20
2303.688575384343
 30
0.0
 11
-604.3348816302162
 21
2303.688201635853
 31
0.0
1001
REVIT
1002
{
1070
     1
1000
568758
1002
}
1002
{
1070
     5
1000
567159
1002
}
1002
{
1070
     2
1000
-2000151
1002
}
1002
{
1070
     3
1000
388270
1002
}
  0
LINE
  5
2DF2
330
6C
100
AcDbEntity
  8
Layer1
100
AcDbLine
 10
-604.3348816302162
 20
2303.688201635853
 30
0.0
 11
-604.3350730265437
 21
2303.687754962215
 31
0.0
1001
REVIT
1002
{
1070
     1
1000
568758
1002
}
1002
{
1070
     5
1000
567159
1002
}
1002
{
1070
     2
1000
-2000151
1002
}
1002
{
1070
     3
1000
388270
1002
}
  0
LINE
  5
2DF3
330
6C
100
AcDbEntity
  8
Layer1
100
AcDbLine
 10
-604.3350730265437
 20
2303.687754962215
 30
0.0
 11
-604.3351933798569
 21
2303.687265854332
 31
0.0
1001
REVIT
1002
{
1070
     1
1000
568758
1002
}
1002
{
1070
     5
1000
567159
1002
}
1002
{
1070
     2
1000
-2000151
1002
}
1002
{
1070
     3
1000
388270
1002
}
  0
LINE
  5
2DF4
330
6C
100
AcDbEntity
  8
Layer1
100
AcDbLine
 10
-604.3351933798569
 20
2303.687265854332
 30
0.0
 11
-604.3352344365864
 21
2303.686767740313
 31
0.0
1001
REVIT
1002
{
1070
     1
1000
568758
1002
}
1002
{
1070
     5
1000
567159
1002
}
1002
{
1070
     2
1000
-2000151
1002
}
1002
{
1070
     3
1000
388270
1002
}
  0
LINE
  5
2DF5
330
6C
100
AcDbEntity
  8
Layer1
100
AcDbLine
 10
-604.3352344365864
 20
2303.686767740313
 30
0.0
 11
-604.3351933798569
 21
2303.686294681563
 31
0.0
1001
REVIT
1002
{
1070
     1
1000
568758
1002
}
1002
{
1070
     5
1000
567159
1002
}
1002
{
1070
     2
1000
-2000151
1002
}
1002
{
1070
     3
1000
388270
1002
}
  0
LINE
  5
2DF6
330
6C
100
AcDbEntity
  8
Layer1
100
AcDbLine
 10
-604.3351933798569
 20
2303.686294681563
 30
0.0
 11
-604.3350730265437
 21
2303.685879020466
 31
0.0
1001
REVIT
1002
{
1070
     1
1000
568758
1002
}
1002
{
1070
     5
1000
567159
1002
}
1002
{
1070
     2
1000
-2000151
1002
}
1002
{
1070
     3
1000
388270
1002
}
  0
LINE
  5
2DF7
330
6C
100
AcDbEntity
  8
Layer1
100
AcDbLine
 10
-604.3350730265437
 20
2303.685879020466
 30
0.0
 11
-604.3348816302162
 21
2303.685549148304
 31
0.0
1001
REVIT
1002
{
1070
     1
1000
568758
1002
}
1002
{
1070
     5
1000
567159
1002
}
1002
{
1070
     2
1000
-2000151
1002
}
1002
{
1070
     3
1000
388270
1002
}
  0
LINE
  5
2DF8
330
6C
100
AcDbEntity
  8
Layer1
100
AcDbLine
 10
-604.3348816302162
 20
2303.685549148304
 30
0.0
 11
-604.334632304768
 21
2303.685327553103
 31
0.0
1001
REVIT
1002
{
1070
     1
1000
568758
1002
}
1002
{
1070
     5
1000
567159
1002
}
1002
{
1070
     2
1000
-2000151
1002
}
1002
{
1070
     3
1000
388270
1002
}
  0
LINE
  5
2DF9
330
6C
100
AcDbEntity
  8
Layer1
100
AcDbLine
 10
-604.334632304768
 20
2303.685327553103
 30
0.0
 11
-604.3343421117821
 21
2303.685229285068
 31
0.0
1001
REVIT
1002
{
1070
     1
1000
568758
1002
}
1002
{
1070
     5
1000
567159
1002
}
1002
{
1070
     2
1000
-2000151
1002
}
1002
{
1070
     3
1000
388270
1002
}
  0
LINE
  5
2DFA
330
6C
100
AcDbEntity
  8
Layer1
100
AcDbLine
 10
-604.3343421117821
 20
2303.685229285068
 30
0.0
 11
-604.3340308789042
 21
2303.685260944717
 31
0.0
1001
REVIT
1002
{
1070
     1
1000
568758
1002
}
1002
{
1070
     5
1000
567159
1002
}
1002
{
1070
     2
1000
-2000151
1002
}
1002
{
1070
     3
1000
388270
1002
}
  0
LINE
  5
2DFB
330
6C
100
AcDbEntity
  8
Layer1
100
AcDbLine
 10
-604.3340308789042
 20
2303.685260944717
 30
0.0
 11
-604.3337198348544
 21
2303.685420258938
 31
0.0
1001
REVIT
1002
{
1070
     1
1000
568758
1002
}
1002
{
1070
     5
1000
567159
1002
}
1002
{
1070
     2
1000
-2000151
1002
}
1002
{
1070
     3
1000
388270
1002
}
  0
LINE
  5
2DFC
330
6C
100
AcDbEntity
  8
Layer1
100
AcDbLine
 10
-604.3337198348544
 20
2303.685420258938
 30
0.0
 11
-604.333430157754
 21
2303.685696266882
 31
0.0
1001
REVIT
1002
{
1070
     1
1000
568758
1002
}
1002
{
1070
     5
1000
567159
1002
}
1002
{
1070
     2
1000
-2000151
1002
}
1002
{
1070
     3
1000
388270
1002
}
  0
LINE
  5
2DFD
330
6C
100
AcDbEntity
  8
Layer1
100
AcDbLine
 10
-604.333430157754
 20
2303.685696266882
 30
0.0
 11
-604.3331815370209
 21
2303.686070094713
 31
0.0
1001
REVIT
1002
{
1070
     1
1000
568758
1002
}
1002
{
1070
     5
1000
567159
1002
}
1002
{
1070
     2
1000
-2000151
1002
}
1002
{
1070
     3
1000
388270
1002
}
  0
LINE
  5
2DFE
330
6C
100
AcDbEntity
  8
Layer1
100
AcDbLine
 10
-604.3331815370209
 20
2303.686070094713
 30
0.0
 11
-604.3329908454073
 21
2303.686516258952
 31
0.0
1001
REVIT
1002
{
1070
     1
1000
568758
1002
}
1002
{
1070
     5
1000
567159
1002
}
1002
{
1070
     2
1000
-2000151
1002
}
1002
{
1070
     3
1000
388270
1002
}
  0
LINE
  5
2DFF
330
6C
100
AcDbEntity
  8
Layer1
100
AcDbLine
 10
-604.3329908454073
 20
2303.686516258952
 30
0.0
 11
-604.3328710079824
 21
2303.687004405208
 31
0.0
1001
REVIT
1002
{
1070
     1
1000
568758
1002
}
1002
{
1070
     5
1000
567159
1002
}
1002
{
1070
     2
1000
-2000151
1002
}
1002
{
1070
     3
1000
388270
1002
}
  0
LINE
  5
2E00
330
6C
100
AcDbEntity
  8
Layer1
100
AcDbLine
 10
-604.3328710079824
 20
2303.687004405208
 30
0.0
 11
-604.3328301400809
 21
2303.687501363022
 31
0.0
1001
REVIT
1002
{
1070
     1
1000
568758
1002
}
1002
{
1070
     5
1000
567159
1002
}
1002
{
1070
     2
1000
-2000151
1002
}
1002
{
1070
     3
1000
388270
1002
}
  0
LINE
  5
2E01
330
6C
100
AcDbEntity
  8
Layer1
100
AcDbLine
 10
-604.3328301400809
 20
2303.687501363022
 30
0.0
 11
-604.3328710079824
 21
2303.687973380807
 31
0.0
1001
REVIT
1002
{
1070
     1
1000
568758
1002
}
1002
{
1070
     5
1000
567159
1002
}
1002
{
1070
     2
1000
-2000151
1002
}
1002
{
1070
     3
1000
388270
1002
}
  0
LINE
  5
2E02
330
6C
100
AcDbEntity
  8
Layer1
100
AcDbLine
 10
-604.3328710079824
 20
2303.687973380807
 30
0.0
 11
-604.3329908454073
 21
2303.68838839509
 31
0.0
1001
REVIT
1002
{
1070
     1
1000
568758
1002
}
1002
{
1070
     5
1000
567159
1002
}
1002
{
1070
     2
1000
-2000151
1002
}
1002
{
1070
     3
1000
388270
1002
}
  0
LINE
  5
2E03
330
6C
100
AcDbEntity
  8
Layer1
100
AcDbLine
 10
-604.3329908454073
 20
2303.68838839509
 30
0.0
 11
-604.3331815370209
 21
2303.688718187923
 31
0.0
1001
REVIT
1002
{
1070
     1
1000
568758
1002
}
1002
{
1070
     5
1000
567159
1002
}
1002
{
1070
     2
1000
-2000151
1002
}
1002
{
1070
     3
1000
388270
1002
}
  0
LINE
  5
2E04
330
6C
100
AcDbEntity
  8
Layer1
100
AcDbLine
 10
-604.3331815370209
 20
2303.688718187923
 30
0.0
 11
-604.333430157754
 21
2303.688940292514
 31
0.0
1001
REVIT
1002
{
1070
     1
1000
568758
1002
}
1002
{
1070
     5
1000
567159
1002
}
1002
{
1070
     2
1000
-2000151
1002
}
1002
{
1070
     3
1000
388270
1002
}
  0
LINE
  5
2E05
330
6C
100
AcDbEntity
  8
Layer1
100
AcDbLine
 10
-604.333430157754
 20
2303.688940292514
 30
0.0
 11
-604.3337198348544
 21
2303.689039522187
 31
0.0
1001
REVIT
1002
{
1070
     1
1000
568758
1002
}
1002
{
1070
     5
1000
567159
1002
}
1002
{
1070
     2
1000
-2000151
1002
}
1002
{
1070
     3
1000
388270
1002
}
  0
LINE
  5
2E06
330
6C
100
AcDbEntity
  8
Layer1
100
AcDbLine
 10
-604.3337198348544
 20
2303.689039522187
 30
0.0
 11
-604.3340308789042
 21
2303.68900901874
 31
0.0
1001
REVIT
1002
{
1070
     1
1000
568758
1002
}
1002
{
1070
     5
1000
567159
1002
}
1002
{
1070
     2
1000
-2000151
1002
}
1002
{
1070
     3
1000
388270
1002
}
  0
LINE
  5
2E07
330
6C
100
AcDbEntity
  8
Layer1
100
AcDbLine
 10
-604.3340308789042
 20
2303.673860552894
 30
0.0
 11
-604.3343421117821
 21
2303.673697681502
 31
0.0
1001
REVIT
1002
{
1070
     1
1000
568758
1002
}
1002
{
1070
     5
1000
567159
1002
}
1002
{
1070
     2
1000
-2000151
1002
}
1002
{
1070
     3
1000
388270
1002
}
  0
LINE
  5
2E08
330
6C
100
AcDbEntity
  8
Layer1
100
AcDbLine
 10
-604.3343421117821
 20
2303.673697681502
 30
0.0
 11
-604.334632304768
 21
2303.673418033067
 31
0.0
1001
REVIT
1002
{
1070
     1
1000
568758
1002
}
1002
{
1070
     5
1000
567159
1002
}
1002
{
1070
     2
1000
-2000151
1002
}
1002
{
1070
     3
1000
388270
1002
}
  0
LINE
  5
2E09
330
6C
100
AcDbEntity
  8
Layer1
100
AcDbLine
 10
-604.334632304768
 20
2303.673418033067
 30
0.0
 11
-604.3348816302162
 21
2303.673040601057
 31
0.0
1001
REVIT
1002
{
1070
     1
1000
568758
1002
}
1002
{
1070
     5
1000
567159
1002
}
1002
{
1070
     2
1000
-2000151
1002
}
1002
{
1070
     3
1000
388270
1002
}
  0
LINE
  5
2E0A
330
6C
100
AcDbEntity
  8
Layer1
100
AcDbLine
 10
-604.3348816302162
 20
2303.673040601057
 30
0.0
 11
-604.3350730265437
 21
2303.672591099743
 31
0.0
1001
REVIT
1002
{
1070
     1
1000
568758
1002
}
1002
{
1070
     5
1000
567159
1002
}
1002
{
1070
     2
1000
-2000151
1002
}
1002
{
1070
     3
1000
388270
1002
}
  0
LINE
  5
2E0B
330
6C
100
AcDbEntity
  8
Layer1
100
AcDbLine
 10
-604.3350730265437
 20
2303.672591099743
 30
0.0
 11
-604.3351933798569
 21
2303.672100213765
 31
0.0
1001
REVIT
1002
{
1070
     1
1000
568758
1002
}
1002
{
1070
     5
1000
567159
1002
}
1002
{
1070
     2
1000
-2000151
1002
}
1002
{
1070
     3
1000
388270
1002
}
  0
LINE
  5
2E0C
330
6C
100
AcDbEntity
  8
Layer1
100
AcDbLine
 10
-604.3351933798569
 20
2303.672100213765
 30
0.0
 11
-604.3352344365864
 21
2303.671601493175
 31
0.0
1001
REVIT
1002
{
1070
     1
1000
568758
1002
}
1002
{
1070
     5
1000
567159
1002
}
1002
{
1070
     2
1000
-2000151
1002
}
1002
{
1070
     3
1000
388270
1002
}
  0
LINE
  5
2E0D
330
6C
100
AcDbEntity
  8
Layer1
100
AcDbLine
 10
-604.3352344365864
 20
2303.671601493175
 30
0.0
 11
-604.3351933798569
 21
2303.671129040995
 31
0.0
1001
REVIT
1002
{
1070
     1
1000
568758
1002
}
1002
{
1070
     5
1000
567159
1002
}
1002
{
1070
     2
1000
-2000151
1002
}
1002
{
1070
     3
1000
388270
1002
}
  0
LINE
  5
2E0E
330
6C
100
AcDbEntity
  8
Layer1
100
AcDbLine
 10
-604.3351933798569
 20
2303.671129040995
 30
0.0
 11
-604.3350730265437
 21
2303.670715157991
 31
0.0
1001
REVIT
1002
{
1070
     1
1000
568758
1002
}
1002
{
1070
     5
1000
567159
1002
}
1002
{
1070
     2
1000
-2000151
1002
}
1002
{
1070
     3
1000
388270
1002
}
  0
LINE
  5
2E0F
330
6C
100
AcDbEntity
  8
Layer1
100
AcDbLine
 10
-604.3350730265437
 20
2303.670715157991
 30
0.0
 11
-604.3348816302162
 21
2303.670388113507
 31
0.0
1001
REVIT
1002
{
1070
     1
1000
568758
1002
}
1002
{
1070
     5
1000
567159
1002
}
1002
{
1070
     2
1000
-2000151
1002
}
1002
{
1070
     3
1000
388270
1002
}
  0
LINE
  5
2E10
330
6C
100
AcDbEntity
  8
Layer1
100
AcDbLine
 10
-604.3348816302162
 20
2303.670388113507
 30
0.0
 11
-604.334632304768
 21
2303.670170201829
 31
0.0
1001
REVIT
1002
{
1070
     1
1000
568758
1002
}
1002
{
1070
     5
1000
567159
1002
}
1002
{
1070
     2
1000
-2000151
1002
}
1002
{
1070
     3
1000
388270
1002
}
  0
LINE
  5
2E11
330
6C
100
AcDbEntity
  8
Layer1
100
AcDbLine
 10
-604.334632304768
 20
2303.670170201829
 30
0.0
 11
-604.3343421117821
 21
2303.670076221085
 31
0.0
1001
REVIT
1002
{
1070
     1
1000
568758
1002
}
1002
{
1070
     5
1000
567159
1002
}
1002
{
1070
     2
1000
-2000151
1002
}
1002
{
1070
     3
1000
388270
1002
}
  0
LINE
  5
2E12
330
6C
100
AcDbEntity
  8
Layer1
100
AcDbLine
 10
-604.3343421117821
 20
2303.670076221085
 30
0.0
 11
-604.3340308789042
 21
2303.670112478871
 31
0.0
1001
REVIT
1002
{
1070
     1
1000
568758
1002
}
1002
{
1070
     5
1000
567159
1002
}
1002
{
1070
     2
1000
-2000151
1002
}
1002
{
1070
     3
1000
388270
1002
}
  0
LINE
  5
2E13
330
6C
100
AcDbEntity
  8
Layer1
100
AcDbLine
 10
-604.3340308789042
 20
2303.670112478871
 30
0.0
 11
-604.3337198348544
 21
2303.670276388439
 31
0.0
1001
REVIT
1002
{
1070
     1
1000
568758
1002
}
1002
{
1070
     5
1000
567159
1002
}
1002
{
1070
     2
1000
-2000151
1002
}
1002
{
1070
     3
1000
388270
1002
}
  0
LINE
  5
2E14
330
6C
100
AcDbEntity
  8
Layer1
100
AcDbLine
 10
-604.3337198348544
 20
2303.670276388439
 30
0.0
 11
-604.333430157754
 21
2303.670556676058
 31
0.0
1001
REVIT
1002
{
1070
     1
1000
568758
1002
}
1002
{
1070
     5
1000
567159
1002
}
1002
{
1070
     2
1000
-2000151
1002
}
1002
{
1070
     3
1000
388270
1002
}
  0
LINE
  5
2E15
330
6C
100
AcDbEntity
  8
Layer1
100
AcDbLine
 10
-604.333430157754
 20
2303.670556676058
 30
0.0
 11
-604.3331815370209
 21
2303.670934176995
 31
0.0
1001
REVIT
1002
{
1070
     1
1000
568758
1002
}
1002
{
1070
     5
1000
567159
1002
}
1002
{
1070
     2
1000
-2000151
1002
}
1002
{
1070
     3
1000
388270
1002
}
  0
LINE
  5
2E16
330
6C
100
AcDbEntity
  8
Layer1
100
AcDbLine
 10
-604.3331815370209
 20
2303.670934176995
 30
0.0
 11
-604.3329908454073
 21
2303.671383158501
 31
0.0
1001
REVIT
1002
{
1070
     1
1000
568758
1002
}
1002
{
1070
     5
1000
567159
1002
}
1002
{
1070
     2
1000
-2000151
1002
}
1002
{
1070
     3
1000
388270
1002
}
  0
LINE
  5
2E17
330
6C
100
AcDbEntity
  8
Layer1
100
AcDbLine
 10
-604.3329908454073
 20
2303.671383158501
 30
0.0
 11
-604.3328710079814
 21
2303.671873075225
 31
0.0
1001
REVIT
1002
{
1070
     1
1000
568758
1002
}
1002
{
1070
     5
1000
567159
1002
}
1002
{
1070
     2
1000
-2000151
1002
}
1002
{
1070
     3
1000
388270
1002
}
  0
LINE
  5
2E18
330
6C
100
AcDbEntity
  8
Layer1
100
AcDbLine
 10
-604.3328710079814
 20
2303.671873075225
 30
0.0
 11
-604.3328301400809
 21
2303.672370636822
 31
0.0
1001
REVIT
1002
{
1070
     1
1000
568758
1002
}
1002
{
1070
     5
1000
567159
1002
}
1002
{
1070
     2
1000
-2000151
1002
}
1002
{
1070
     3
1000
388270
1002
}
  0
LINE
  5
2E19
330
6C
100
AcDbEntity
  8
Layer1
100
AcDbLine
 10
-604.3328301400809
 20
2303.672370636822
 30
0.0
 11
-604.3328710079814
 21
2303.672842050823
 31
0.0
1001
REVIT
1002
{
1070
     1
1000
568758
1002
}
1002
{
1070
     5
1000
567159
1002
}
1002
{
1070
     2
1000
-2000151
1002
}
1002
{
1070
     3
1000
388270
1002
}
  0
LINE
  5
2E1A
330
6C
100
AcDbEntity
  8
Layer1
100
AcDbLine
 10
-604.3328710079814
 20
2303.672842050823
 30
0.0
 11
-604.3329908454073
 21
2303.673255294641
 31
0.0
1001
REVIT
1002
{
1070
     1
1000
568758
1002
}
1002
{
1070
     5
1000
567159
1002
}
1002
{
1070
     2
1000
-2000151
1002
}
1002
{
1070
     3
1000
388270
1002
}
  0
LINE
  5
2E1B
330
6C
100
AcDbEntity
  8
Layer1
100
AcDbLine
 10
-604.3329908454073
 20
2303.673255294641
 30
0.0
 11
-604.3331815370209
 21
2303.673582270205
 31
0.0
1001
REVIT
1002
{
1070
     1
1000
568758
1002
}
1002
{
1070
     5
1000
567159
1002
}
1002
{
1070
     2
1000
-2000151
1002
}
1002
{
1070
     3
1000
388270
1002
}
  0
LINE
  5
2E1C
330
6C
100
AcDbEntity
  8
Layer1
100
AcDbLine
 10
-604.3331815370209
 20
2303.673582270205
 30
0.0
 11
-604.333430157754
 21
2303.673800701687
 31
0.0
1001
REVIT
1002
{
1070
     1
1000
568758
1002
}
1002
{
1070
     5
1000
567159
1002
}
1002
{
1070
     2
1000
-2000151
1002
}
1002
{
1070
     3
1000
388270
1002
}
  0
LINE
  5
2E1D
330
6C
100
AcDbEntity
  8
Layer1
100
AcDbLine
 10
-604.333430157754
 20
2303.673800701687
 30
0.0
 11
-604.3337198348544
 21
2303.673895651687
 31
0.0
1001
REVIT
1002
{
1070
     1
1000
568758
1002
}
1002
{
1070
     5
1000
567159
1002
}
1002
{
1070
     2
1000
-2000151
1002
}
1002
{
1070
     3
1000
388270
1002
}
  0
LINE
  5
2E1E
330
6C
100
AcDbEntity
  8
Layer1
100
AcDbLine
 10
-604.3337198348544
 20
2303.673895651687
 30
0.0
 11
-604.3340308789042
 21
2303.673860552894
 31
0.0
1001
REVIT
1002
{
1070
     1
1000
568758
1002
}
1002
{
1070
     5
1000
567159
1002
}
1002
{
1070
     2
1000
-2000151
1002
}
1002
{
1070
     3
1000
388270
1002
}
  0
LINE
  5
2E1F
330
6C
100
AcDbEntity
  8
Layer1
100
AcDbLine
 10
-604.3340308789042
 20
2303.645085539304
 30
0.0
 11
-604.3343421117821
 21
2303.644913933599
 31
0.0
1001
REVIT
1002
{
1070
     1
1000
568758
1002
}
1002
{
1070
     5
1000
567159
1002
}
1002
{
1070
     2
1000
-2000151
1002
}
1002
{
1070
     3
1000
388270
1002
}
  0
LINE
  5
2E20
330
6C
100
AcDbEntity
  8
Layer1
100
AcDbLine
 10
-604.3343421117821
 20
2303.644913933599
 30
0.0
 11
-604.334632304768
 21
2303.644626141306
 31
0.0
1001
REVIT
1002
{
1070
     1
1000
568758
1002
}
1002
{
1070
     5
1000
567159
1002
}
1002
{
1070
     2
1000
-2000151
1002
}
1002
{
1070
     3
1000
388270
1002
}
  0
LINE
  5
2E21
330
6C
100
AcDbEntity
  8
Layer1
100
AcDbLine
 10
-604.334632304768
 20
2303.644626141306
 30
0.0
 11
-604.3348816302162
 21
2303.644241712329
 31
0.0
1001
REVIT
1002
{
1070
     1
1000
568758
1002
}
1002
{
1070
     5
1000
567159
1002
}
1002
{
1070
     2
1000
-2000151
1002
}
1002
{
1070
     3
1000
388270
1002
}
  0
LINE
  5
2E22
330
6C
100
AcDbEntity
  8
Layer1
100
AcDbLine
 10
-604.3348816302162
 20
2303.644241712329
 30
0.0
 11
-604.3350730265437
 21
2303.643786839745
 31
0.0
1001
REVIT
1002
{
1070
     1
1000
568758
1002
}
1002
{
1070
     5
1000
567159
1002
}
1002
{
1070
     2
1000
-2000151
1002
}
1002
{
1070
     3
1000
388270
1002
}
  0
LINE
  5
2E23
330
6C
100
AcDbEntity
  8
Layer1
100
AcDbLine
 10
-604.3350730265437
 20
2303.643786839745
 30
0.0
 11
-604.3351933798569
 21
2303.643292576222
 31
0.0
1001
REVIT
1002
{
1070
     1
1000
568758
1002
}
1002
{
1070
     5
1000
567159
1002
}
1002
{
1070
     2
1000
-2000151
1002
}
1002
{
1070
     3
1000
388270
1002
}
  0
LINE
  5
2E24
330
6C
100
AcDbEntity
  8
Layer1
100
AcDbLine
 10
-604.3351933798569
 20
2303.643292576222
 30
0.0
 11
-604.3352344365864
 21
2303.642792703432
 31
0.0
1001
REVIT
1002
{
1070
     1
1000
568758
1002
}
1002
{
1070
     5
1000
567159
1002
}
1002
{
1070
     2
1000
-2000151
1002
}
1002
{
1070
     3
1000
388270
1002
}
  0
LINE
  5
2E25
330
6C
100
AcDbEntity
  8
Layer1
100
AcDbLine
 10
-604.3352344365864
 20
2303.642792703432
 30
0.0
 11
-604.3351933798569
 21
2303.642321403451
 31
0.0
1001
REVIT
1002
{
1070
     1
1000
568758
1002
}
1002
{
1070
     5
1000
567159
1002
}
1002
{
1070
     2
1000
-2000151
1002
}
1002
{
1070
     3
1000
388270
1002
}
  0
LINE
  5
2E26
330
6C
100
AcDbEntity
  8
Layer1
100
AcDbLine
 10
-604.3351933798569
 20
2303.642321403451
 30
0.0
 11
-604.3350730265437
 21
2303.641910897995
 31
0.0
1001
REVIT
1002
{
1070
     1
1000
568758
1002
}
1002
{
1070
     5
1000
567159
1002
}
1002
{
1070
     2
1000
-2000151
1002
}
1002
{
1070
     3
1000
388270
1002
}
  0
LINE
  5
2E27
330
6C
100
AcDbEntity
  8
Layer1
100
AcDbLine
 10
-604.3350730265437
 20
2303.641910897995
 30
0.0
 11
-604.3348816302162
 21
2303.641589224779
 31
0.0
1001
REVIT
1002
{
1070
     1
1000
568758
1002
}
1002
{
1070
     5
1000
567159
1002
}
1002
{
1070
     2
1000
-2000151
1002
}
1002
{
1070
     3
1000
388270
1002
}
  0
LINE
  5
2E28
330
6C
100
AcDbEntity
  8
Layer1
100
AcDbLine
 10
-604.3348816302162
 20
2303.641589224779
 30
0.0
 11
-604.334632304768
 21
2303.641378310068
 31
0.0
1001
REVIT
1002
{
1070
     1
1000
568758
1002
}
1002
{
1070
     5
1000
567159
1002
}
1002
{
1070
     2
1000
-2000151
1002
}
1002
{
1070
     3
1000
388270
1002
}
  0
LINE
  5
2E29
330
6C
100
AcDbEntity
  8
Layer1
100
AcDbLine
 10
-604.334632304768
 20
2303.641378310068
 30
0.0
 11
-604.3343421117821
 21
2303.641292473183
 31
0.0
1001
REVIT
1002
{
1070
     1
1000
568758
1002
}
1002
{
1070
     5
1000
567159
1002
}
1002
{
1070
     2
1000
-2000151
1002
}
1002
{
1070
     3
1000
388270
1002
}
  0
LINE
  5
2E2A
330
6C
100
AcDbEntity
  8
Layer1
100
AcDbLine
 10
-604.3343421117821
 20
2303.641292473183
 30
0.0
 11
-604.3340308789042
 21
2303.641337465281
 31
0.0
1001
REVIT
1002
{
1070
     1
1000
568758
1002
}
1002
{
1070
     5
1000
567159
1002
}
1002
{
1070
     2
1000
-2000151
1002
}
1002
{
1070
     3
1000
388270
1002
}
  0
LINE
  5
2E2B
330
6C
100
AcDbEntity
  8
Layer1
100
AcDbLine
 10
-604.3340308789042
 20
2303.641337465281
 30
0.0
 11
-604.3337198348544
 21
2303.641510103863
 31
0.0
1001
REVIT
1002
{
1070
     1
1000
568758
1002
}
1002
{
1070
     5
1000
567159
1002
}
1002
{
1070
     2
1000
-2000151
1002
}
1002
{
1070
     3
1000
388270
1002
}
  0
LINE
  5
2E2C
330
6C
100
AcDbEntity
  8
Layer1
100
AcDbLine
 10
-604.3337198348544
 20
2303.641510103863
 30
0.0
 11
-604.333430157754
 21
2303.641798520861
 31
0.0
1001
REVIT
1002
{
1070
     1
1000
568758
1002
}
1002
{
1070
     5
1000
567159
1002
}
1002
{
1070
     2
1000
-2000151
1002
}
1002
{
1070
     3
1000
388270
1002
}
  0
LINE
  5
2E2D
330
6C
100
AcDbEntity
  8
Layer1
100
AcDbLine
 10
-604.333430157754
 20
2303.641798520861
 30
0.0
 11
-604.3331815370209
 21
2303.64218299899
 31
0.0
1001
REVIT
1002
{
1070
     1
1000
568758
1002
}
1002
{
1070
     5
1000
567159
1002
}
1002
{
1070
     2
1000
-2000151
1002
}
1002
{
1070
     3
1000
388270
1002
}
  0
LINE
  5
2E2E
330
6C
100
AcDbEntity
  8
Layer1
100
AcDbLine
 10
-604.3331815370209
 20
2303.64218299899
 30
0.0
 11
-604.3329908454073
 21
2303.642637331988
 31
0.0
1001
REVIT
1002
{
1070
     1
1000
568758
1002
}
1002
{
1070
     5
1000
567159
1002
}
1002
{
1070
     2
1000
-2000151
1002
}
1002
{
1070
     3
1000
388270
1002
}
  0
LINE
  5
2E2F
330
6C
100
AcDbEntity
  8
Layer1
100
AcDbLine
 10
-604.3329908454073
 20
2303.642637331988
 30
0.0
 11
-604.3328710079814
 21
2303.64313061178
 31
0.0
1001
REVIT
1002
{
1070
     1
1000
568758
1002
}
1002
{
1070
     5
1000
567159
1002
}
1002
{
1070
     2
1000
-2000151
1002
}
1002
{
1070
     3
1000
388270
1002
}
  0
LINE
  5
2E30
330
6C
100
AcDbEntity
  8
Layer1
100
AcDbLine
 10
-604.3328710079814
 20
2303.64313061178
 30
0.0
 11
-604.3328301400809
 21
2303.643629320277
 31
0.0
1001
REVIT
1002
{
1070
     1
1000
568758
1002
}
1002
{
1070
     5
1000
567159
1002
}
1002
{
1070
     2
1000
-2000151
1002
}
1002
{
1070
     3
1000
388270
1002
}
  0
LINE
  5
2E31
330
6C
100
AcDbEntity
  8
Layer1
100
AcDbLine
 10
-604.3328301400809
 20
2303.643629320277
 30
0.0
 11
-604.3328710079814
 21
2303.644099587379
 31
0.0
1001
REVIT
1002
{
1070
     1
1000
568758
1002
}
1002
{
1070
     5
1000
567159
1002
}
1002
{
1070
     2
1000
-2000151
1002
}
1002
{
1070
     3
1000
388270
1002
}
  0
LINE
  5
2E32
330
6C
100
AcDbEntity
  8
Layer1
100
AcDbLine
 10
-604.3328710079814
 20
2303.644099587379
 30
0.0
 11
-604.3329908454073
 21
2303.644509468128
 31
0.0
1001
REVIT
1002
{
1070
     1
1000
568758
1002
}
1002
{
1070
     5
1000
567159
1002
}
1002
{
1070
     2
1000
-2000151
1002
}
1002
{
1070
     3
1000
388270
1002
}
  0
LINE
  5
2E33
330
6C
100
AcDbEntity
  8
Layer1
100
AcDbLine
 10
-604.3329908454073
 20
2303.644509468128
 30
0.0
 11
-604.3331815370209
 21
2303.6448310922
 31
0.0
1001
REVIT
1002
{
1070
     1
1000
568758
1002
}
1002
{
1070
     5
1000
567159
1002
}
1002
{
1070
     2
1000
-2000151
1002
}
1002
{
1070
     3
1000
388270
1002
}
  0
LINE
  5
2E34
330
6C
100
AcDbEntity
  8
Layer1
100
AcDbLine
 10
-604.3331815370209
 20
2303.6448310922
 30
0.0
 11
-604.333430157754
 21
2303.645042546491
 31
0.0
1001
REVIT
1002
{
1070
     1
1000
568758
1002
}
1002
{
1070
     5
1000
567159
1002
}
1002
{
1070
     2
1000
-2000151
1002
}
1002
{
1070
     3
1000
388270
1002
}
  0
LINE
  5
2E35
330
6C
100
AcDbEntity
  8
Layer1
100
AcDbLine
 10
-604.333430157754
 20
2303.645042546491
 30
0.0
 11
-604.3337198348544
 21
2303.645129367112
 31
0.0
1001
REVIT
1002
{
1070
     1
1000
568758
1002
}
1002
{
1070
     5
1000
567159
1002
}
1002
{
1070
     2
1000
-2000151
1002
}
1002
{
1070
     3
1000
388270
1002
}
  0
LINE
  5
2E36
330
6C
100
AcDbEntity
  8
Layer1
100
AcDbLine
 10
-604.3337198348544
 20
2303.645129367112
 30
0.0
 11
-604.3340308789042
 21
2303.645085539304
 31
0.0
1001
REVIT
1002
{
1070
     1
1000
568758
1002
}
1002
{
1070
     5
1000
567159
1002
}
1002
{
1070
     2
1000
-2000151
1002
}
1002
{
1070
     3
1000
388270
1002
}
  0
LINE
  5
2E37
330
6C
100
AcDbEntity
  8
Layer1
100
AcDbLine
 10
-604.3340308789042
 20
2303.594007400993
 30
0.0
 11
-604.3343421117823
 21
2303.593820291129
 31
0.0
1001
REVIT
1002
{
1070
     1
1000
568758
1002
}
1002
{
1070
     5
1000
567159
1002
}
1002
{
1070
     2
1000
-2000151
1002
}
1002
{
1070
     3
1000
388270
1002
}
  0
LINE
  5
2E38
330
6C
100
AcDbEntity
  8
Layer1
100
AcDbLine
 10
-604.3343421117823
 20
2303.593820291129
 30
0.0
 11
-604.334632304768
 21
2303.593518042784
 31
0.0
1001
REVIT
1002
{
1070
     1
1000
568758
1002
}
1002
{
1070
     5
1000
567159
1002
}
1002
{
1070
     2
1000
-2000151
1002
}
1002
{
1070
     3
1000
388270
1002
}
  0
LINE
  5
2E39
330
6C
100
AcDbEntity
  8
Layer1
100
AcDbLine
 10
-604.334632304768
 20
2303.593518042784
 30
0.0
 11
-604.3348816302162
 21
2303.593121193582
 31
0.0
1001
REVIT
1002
{
1070
     1
1000
568758
1002
}
1002
{
1070
     5
1000
567159
1002
}
1002
{
1070
     2
1000
-2000151
1002
}
1002
{
1070
     3
1000
388270
1002
}
  0
LINE
  5
2E3A
330
6C
100
AcDbEntity
  8
Layer1
100
AcDbLine
 10
-604.3348816302162
 20
2303.593121193582
 30
0.0
 11
-604.3350730265437
 21
2303.592656786532
 31
0.0
1001
REVIT
1002
{
1070
     1
1000
568758
1002
}
1002
{
1070
     5
1000
567159
1002
}
1002
{
1070
     2
1000
-2000151
1002
}
1002
{
1070
     3
1000
388270
1002
}
  0
LINE
  5
2E3B
330
6C
100
AcDbEntity
  8
Layer1
100
AcDbLine
 10
-604.3350730265437
 20
2303.592656786532
 30
0.0
 11
-604.3351933798569
 21
2303.592156527571
 31
0.0
1001
REVIT
1002
{
1070
     1
1000
568758
1002
}
1002
{
1070
     5
1000
567159
1002
}
1002
{
1070
     2
1000
-2000151
1002
}
1002
{
1070
     3
1000
388270
1002
}
  0
LINE
  5
2E3C
330
6C
100
AcDbEntity
  8
Layer1
100
AcDbLine
 10
-604.3351933798569
 20
2303.592156527571
 30
0.0
 11
-604.3352344365864
 21
2303.591654609528
 31
0.0
1001
REVIT
1002
{
1070
     1
1000
568758
1002
}
1002
{
1070
     5
1000
567159
1002
}
1002
{
1070
     2
1000
-2000151
1002
}
1002
{
1070
     3
1000
388270
1002
}
  0
LINE
  5
2E3D
330
6C
100
AcDbEntity
  8
Layer1
100
AcDbLine
 10
-604.3352344365864
 20
2303.591654609528
 30
0.0
 11
-604.3351933798569
 21
2303.5911853548
 31
0.0
1001
REVIT
1002
{
1070
     1
1000
568758
1002
}
1002
{
1070
     5
1000
567159
1002
}
1002
{
1070
     2
1000
-2000151
1002
}
1002
{
1070
     3
1000
388270
1002
}
  0
LINE
  5
2E3E
330
6C
100
AcDbEntity
  8
Layer1
100
AcDbLine
 10
-604.3351933798569
 20
2303.5911853548
 30
0.0
 11
-604.3350730265437
 21
2303.590780844783
 31
0.0
1001
REVIT
1002
{
1070
     1
1000
568758
1002
}
1002
{
1070
     5
1000
567159
1002
}
1002
{
1070
     2
1000
-2000151
1002
}
1002
{
1070
     3
1000
388270
1002
}
  0
LINE
  5
2E3F
330
6C
100
AcDbEntity
  8
Layer1
100
AcDbLine
 10
-604.3350730265437
 20
2303.590780844783
 30
0.0
 11
-604.3348816302162
 21
2303.590468706032
 31
0.0
1001
REVIT
1002
{
1070
     1
1000
568758
1002
}
1002
{
1070
     5
1000
567159
1002
}
1002
{
1070
     2
1000
-2000151
1002
}
1002
{
1070
     3
1000
388270
1002
}
  0
LINE
  5
2E40
330
6C
100
AcDbEntity
  8
Layer1
100
AcDbLine
 10
-604.3348816302162
 20
2303.590468706032
 30
0.0
 11
-604.334632304768
 21
2303.590270211544
 31
0.0
1001
REVIT
1002
{
1070
     1
1000
568758
1002
}
1002
{
1070
     5
1000
567159
1002
}
1002
{
1070
     2
1000
-2000151
1002
}
1002
{
1070
     3
1000
388270
1002
}
  0
LINE
  5
2E41
330
6C
100
AcDbEntity
  8
Layer1
100
AcDbLine
 10
-604.334632304768
 20
2303.590270211544
 30
0.0
 11
-604.3343421117823
 21
2303.590198830712
 31
0.0
1001
REVIT
1002
{
1070
     1
1000
568758
1002
}
1002
{
1070
     5
1000
567159
1002
}
1002
{
1070
     2
1000
-2000151
1002
}
1002
{
1070
     3
1000
388270
1002
}
  0
LINE
  5
2E42
330
6C
100
AcDbEntity
  8
Layer1
100
AcDbLine
 10
-604.3343421117823
 20
2303.590198830712
 30
0.0
 11
-604.3340308789042
 21
2303.59025932697
 31
0.0
1001
REVIT
1002
{
1070
     1
1000
568758
1002
}
1002
{
1070
     5
1000
567159
1002
}
1002
{
1070
     2
1000
-2000151
1002
}
1002
{
1070
     3
1000
388270
1002
}
  0
LINE
  5
2E43
330
6C
100
AcDbEntity
  8
Layer1
100
AcDbLine
 10
-604.3340308789042
 20
2303.59025932697
 30
0.0
 11
-604.3337198348544
 21
2303.590447460307
 31
0.0
1001
REVIT
1002
{
1070
     1
1000
568758
1002
}
1002
{
1070
     5
1000
567159
1002
}
1002
{
1070
     2
1000
-2000151
1002
}
1002
{
1070
     3
1000
388270
1002
}
  0
LINE
  5
2E44
330
6C
100
AcDbEntity
  8
Layer1
100
AcDbLine
 10
-604.3337198348544
 20
2303.590447460307
 30
0.0
 11
-604.333430157754
 21
2303.590750307658
 31
0.0
1001
REVIT
1002
{
1070
     1
1000
568758
1002
}
1002
{
1070
     5
1000
567159
1002
}
1002
{
1070
     2
1000
-2000151
1002
}
1002
{
1070
     3
1000
388270
1002
}
  0
LINE
  5
2E45
330
6C
100
AcDbEntity
  8
Layer1
100
AcDbLine
 10
-604.333430157754
 20
2303.590750307658
 30
0.0
 11
-604.3331815370212
 21
2303.591147170901
 31
0.0
1001
REVIT
1002
{
1070
     1
1000
568758
1002
}
1002
{
1070
     5
1000
567159
1002
}
1002
{
1070
     2
1000
-2000151
1002
}
1002
{
1070
     3
1000
388270
1002
}
  0
LINE
  5
2E46
330
6C
100
AcDbEntity
  8
Layer1
100
AcDbLine
 10
-604.3331815370212
 20
2303.591147170901
 30
0.0
 11
-604.3329908454073
 21
2303.591611003265
 31
0.0
1001
REVIT
1002
{
1070
     1
1000
568758
1002
}
1002
{
1070
     5
1000
567159
1002
}
1002
{
1070
     2
1000
-2000151
1002
}
1002
{
1070
     3
1000
388270
1002
}
  0
LINE
  5
2E47
330
6C
100
AcDbEntity
  8
Layer1
100
AcDbLine
 10
-604.3329908454073
 20
2303.591611003265
 30
0.0
 11
-604.3328710079814
 21
2303.592110252793
 31
0.0
1001
REVIT
1002
{
1070
     1
1000
568758
1002
}
1002
{
1070
     5
1000
567159
1002
}
1002
{
1070
     2
1000
-2000151
1002
}
1002
{
1070
     3
1000
388270
1002
}
  0
LINE
  5
2E48
330
6C
100
AcDbEntity
  8
Layer1
100
AcDbLine
 10
-604.3328710079814
 20
2303.592110252793
 30
0.0
 11
-604.3328301400809
 21
2303.592610997137
 31
0.0
1001
REVIT
1002
{
1070
     1
1000
568758
1002
}
1002
{
1070
     5
1000
567159
1002
}
1002
{
1070
     2
1000
-2000151
1002
}
1002
{
1070
     3
1000
388270
1002
}
  0
LINE
  5
2E49
330
6C
100
AcDbEntity
  8
Layer1
100
AcDbLine
 10
-604.3328301400809
 20
2303.592610997137
 30
0.0
 11
-604.3328710079814
 21
2303.593079228392
 31
0.0
1001
REVIT
1002
{
1070
     1
1000
568758
1002
}
1002
{
1070
     5
1000
567159
1002
}
1002
{
1070
     2
1000
-2000151
1002
}
1002
{
1070
     3
1000
388270
1002
}
  0
LINE
  5
2E4A
330
6C
100
AcDbEntity
  8
Layer1
100
AcDbLine
 10
-604.3328710079814
 20
2303.593079228392
 30
0.0
 11
-604.3329908454073
 21
2303.593483139403
 31
0.0
1001
REVIT
1002
{
1070
     1
1000
568758
1002
}
1002
{
1070
     5
1000
567159
1002
}
1002
{
1070
     2
1000
-2000151
1002
}
1002
{
1070
     3
1000
388270
1002
}
  0
LINE
  5
2E4B
330
6C
100
AcDbEntity
  8
Layer1
100
AcDbLine
 10
-604.3329908454073
 20
2303.593483139403
 30
0.0
 11
-604.3331815370212
 21
2303.593795264111
 31
0.0
1001
REVIT
1002
{
1070
     1
1000
568758
1002
}
1002
{
1070
     5
1000
567159
1002
}
1002
{
1070
     2
1000
-2000151
1002
}
1002
{
1070
     3
1000
388270
1002
}
  0
LINE
  5
2E4C
330
6C
100
AcDbEntity
  8
Layer1
100
AcDbLine
 10
-604.3331815370212
 20
2303.593795264111
 30
0.0
 11
-604.333430157754
 21
2303.593994333289
 31
0.0
1001
REVIT
1002
{
1070
     1
1000
568758
1002
}
1002
{
1070
     5
1000
567159
1002
}
1002
{
1070
     2
1000
-2000151
1002
}
1002
{
1070
     3
1000
388270
1002
}
  0
LINE
  5
2E4D
330
6C
100
AcDbEntity
  8
Layer1
100
AcDbLine
 10
-604.333430157754
 20
2303.593994333289
 30
0.0
 11
-604.3337198348544
 21
2303.594066723555
 31
0.0
1001
REVIT
1002
{
1070
     1
1000
568758
1002
}
1002
{
1070
     5
1000
567159
1002
}
1002
{
1070
     2
1000
-2000151
1002
}
1002
{
1070
     3
1000
388270
1002
}
  0
LINE
  5
2E4E
330
6C
100
AcDbEntity
  8
Layer1
100
AcDbLine
 10
-604.3337198348544
 20
2303.594066723555
 30
0.0
 11
-604.3340308789042
 21
2303.594007400993
 31
0.0
1001
REVIT
1002
{
1070
     1
1000
568758
1002
}
1002
{
1070
     5
1000
567159
1002
}
1002
{
1070
     2
1000
-2000151
1002
}
1002
{
1070
     3
1000
388270
1002
}
  0
LINE
  5
2E4F
330
6C
100
AcDbEntity
  8
Layer1
100
AcDbLine
 10
-604.3340308789042
 20
2303.562655504608
 30
0.0
 11
-604.3343421117823
 21
2303.562458878249
 31
0.0
1001
REVIT
1002
{
1070
     1
1000
568758
1002
}
1002
{
1070
     5
1000
567159
1002
}
1002
{
1070
     2
1000
-2000151
1002
}
1002
{
1070
     3
1000
388270
1002
}
  0
LINE
  5
2E50
330
6C
100
AcDbEntity
  8
Layer1
100
AcDbLine
 10
-604.3343421117823
 20
2303.562458878249
 30
0.0
 11
-604.334632304768
 21
2303.562147756739
 31
0.0
1001
REVIT
1002
{
1070
     1
1000
568758
1002
}
1002
{
1070
     5
1000
567159
1002
}
1002
{
1070
     2
1000
-2000151
1002
}
1002
{
1070
     3
1000
388270
1002
}
  0
LINE
  5
2E51
330
6C
100
AcDbEntity
  8
Layer1
100
AcDbLine
 10
-604.334632304768
 20
2303.562147756739
 30
0.0
 11
-604.3348816302162
 21
2303.561743283973
 31
0.0
1001
REVIT
1002
{
1070
     1
1000
568758
1002
}
1002
{
1070
     5
1000
567159
1002
}
1002
{
1070
     2
1000
-2000151
1002
}
1002
{
1070
     3
1000
388270
1002
}
  0
LINE
  5
2E52
330
6C
100
AcDbEntity
  8
Layer1
100
AcDbLine
 10
-604.3348816302162
 20
2303.561743283973
 30
0.0
 11
-604.3350730265437
 21
2303.561273024643
 31
0.0
1001
REVIT
1002
{
1070
     1
1000
568758
1002
}
1002
{
1070
     5
1000
567159
1002
}
1002
{
1070
     2
1000
-2000151
1002
}
1002
{
1070
     3
1000
388270
1002
}
  0
LINE
  5
2E53
330
6C
100
AcDbEntity
  8
Layer1
100
AcDbLine
 10
-604.3350730265437
 20
2303.561273024643
 30
0.0
 11
-604.3351933798569
 21
2303.560769085667
 31
0.0
1001
REVIT
1002
{
1070
     1
1000
568758
1002
}
1002
{
1070
     5
1000
567159
1002
}
1002
{
1070
     2
1000
-2000151
1002
}
1002
{
1070
     3
1000
388270
1002
}
  0
LINE
  5
2E54
330
6C
100
AcDbEntity
  8
Layer1
100
AcDbLine
 10
-604.3351933798569
 20
2303.560769085667
 30
0.0
 11
-604.3352344365864
 21
2303.560265912242
 31
0.0
1001
REVIT
1002
{
1070
     1
1000
568758
1002
}
1002
{
1070
     5
1000
567159
1002
}
1002
{
1070
     2
1000
-2000151
1002
}
1002
{
1070
     3
1000
388270
1002
}
  0
LINE
  5
2E55
330
6C
100
AcDbEntity
  8
Layer1
100
AcDbLine
 10
-604.3352344365864
 20
2303.560265912242
 30
0.0
 11
-604.3351933798569
 21
2303.559797912897
 31
0.0
1001
REVIT
1002
{
1070
     1
1000
568758
1002
}
1002
{
1070
     5
1000
567159
1002
}
1002
{
1070
     2
1000
-2000151
1002
}
1002
{
1070
     3
1000
388270
1002
}
  0
LINE
  5
2E56
330
6C
100
AcDbEntity
  8
Layer1
100
AcDbLine
 10
-604.3351933798569
 20
2303.559797912897
 30
0.0
 11
-604.3350730265437
 21
2303.559397082892
 31
0.0
1001
REVIT
1002
{
1070
     1
1000
568758
1002
}
1002
{
1070
     5
1000
567159
1002
}
1002
{
1070
     2
1000
-2000151
1002
}
1002
{
1070
     3
1000
388270
1002
}
  0
LINE
  5
2E57
330
6C
100
AcDbEntity
  8
Layer1
100
AcDbLine
 10
-604.3350730265437
 20
2303.559397082892
 30
0.0
 11
-604.3348816302162
 21
2303.559090796424
 31
0.0
1001
REVIT
1002
{
1070
     1
1000
568758
1002
}
1002
{
1070
     5
1000
567159
1002
}
1002
{
1070
     2
1000
-2000151
1002
}
1002
{
1070
     3
1000
388270
1002
}
  0
LINE
  5
2E58
330
6C
100
AcDbEntity
  8
Layer1
100
AcDbLine
 10
-604.3348816302162
 20
2303.559090796424
 30
0.0
 11
-604.334632304768
 21
2303.558899925501
 31
0.0
1001
REVIT
1002
{
1070
     1
1000
568758
1002
}
1002
{
1070
     5
1000
567159
1002
}
1002
{
1070
     2
1000
-2000151
1002
}
1002
{
1070
     3
1000
388270
1002
}
  0
LINE
  5
2E59
330
6C
100
AcDbEntity
  8
Layer1
100
AcDbLine
 10
-604.334632304768
 20
2303.558899925501
 30
0.0
 11
-604.3343421117823
 21
2303.558837417833
 31
0.0
1001
REVIT
1002
{
1070
     1
1000
568758
1002
}
1002
{
1070
     5
1000
567159
1002
}
1002
{
1070
     2
1000
-2000151
1002
}
1002
{
1070
     3
1000
388270
1002
}
  0
LINE
  5
2E5A
330
6C
100
AcDbEntity
  8
Layer1
100
AcDbLine
 10
-604.3343421117823
 20
2303.558837417833
 30
0.0
 11
-604.3340308789042
 21
2303.558907430586
 31
0.0
1001
REVIT
1002
{
1070
     1
1000
568758
1002
}
1002
{
1070
     5
1000
567159
1002
}
1002
{
1070
     2
1000
-2000151
1002
}
1002
{
1070
     3
1000
388270
1002
}
  0
LINE
  5
2E5B
330
6C
100
AcDbEntity
  8
Layer1
100
AcDbLine
 10
-604.3340308789042
 20
2303.558907430586
 30
0.0
 11
-604.3337198348544
 21
2303.559105074643
 31
0.0
1001
REVIT
1002
{
1070
     1
1000
568758
1002
}
1002
{
1070
     5
1000
567159
1002
}
1002
{
1070
     2
1000
-2000151
1002
}
1002
{
1070
     3
1000
388270
1002
}
  0
LINE
  5
2E5C
330
6C
100
AcDbEntity
  8
Layer1
100
AcDbLine
 10
-604.3337198348544
 20
2303.559105074643
 30
0.0
 11
-604.333430157754
 21
2303.559416779384
 31
0.0
1001
REVIT
1002
{
1070
     1
1000
568758
1002
}
1002
{
1070
     5
1000
567159
1002
}
1002
{
1070
     2
1000
-2000151
1002
}
1002
{
1070
     3
1000
388270
1002
}
  0
LINE
  5
2E5D
330
6C
100
AcDbEntity
  8
Layer1
100
AcDbLine
 10
-604.333430157754
 20
2303.559416779384
 30
0.0
 11
-604.3331815370212
 21
2303.559821244644
 31
0.0
1001
REVIT
1002
{
1070
     1
1000
568758
1002
}
1002
{
1070
     5
1000
567159
1002
}
1002
{
1070
     2
1000
-2000151
1002
}
1002
{
1070
     3
1000
388270
1002
}
  0
LINE
  5
2E5E
330
6C
100
AcDbEntity
  8
Layer1
100
AcDbLine
 10
-604.3331815370212
 20
2303.559821244644
 30
0.0
 11
-604.3329908454073
 21
2303.560290907739
 31
0.0
1001
REVIT
1002
{
1070
     1
1000
568758
1002
}
1002
{
1070
     5
1000
567159
1002
}
1002
{
1070
     2
1000
-2000151
1002
}
1002
{
1070
     3
1000
388270
1002
}
  0
LINE
  5
2E5F
330
6C
100
AcDbEntity
  8
Layer1
100
AcDbLine
 10
-604.3329908454073
 20
2303.560290907739
 30
0.0
 11
-604.3328710079814
 21
2303.56079382151
 31
0.0
1001
REVIT
1002
{
1070
     1
1000
568758
1002
}
1002
{
1070
     5
1000
567159
1002
}
1002
{
1070
     2
1000
-2000151
1002
}
1002
{
1070
     3
1000
388270
1002
}
  0
LINE
  5
2E60
330
6C
100
AcDbEntity
  8
Layer1
100
AcDbLine
 10
-604.3328710079814
 20
2303.56079382151
 30
0.0
 11
-604.3328301400809
 21
2303.561295815462
 31
0.0
1001
REVIT
1002
{
1070
     1
1000
568758
1002
}
1002
{
1070
     5
1000
567159
1002
}
1002
{
1070
     2
1000
-2000151
1002
}
1002
{
1070
     3
1000
388270
1002
}
  0
LINE
  5
2E61
330
6C
100
AcDbEntity
  8
Layer1
100
AcDbLine
 10
-604.3328301400809
 20
2303.561295815462
 30
0.0
 11
-604.3328710079814
 21
2303.561762797109
 31
0.0
1001
REVIT
1002
{
1070
     1
1000
568758
1002
}
1002
{
1070
     5
1000
567159
1002
}
1002
{
1070
     2
1000
-2000151
1002
}
1002
{
1070
     3
1000
388270
1002
}
  0
LINE
  5
2E62
330
6C
100
AcDbEntity
  8
Layer1
100
AcDbLine
 10
-604.3328710079814
 20
2303.561762797109
 30
0.0
 11
-604.3329908454073
 21
2303.562163043879
 31
0.0
1001
REVIT
1002
{
1070
     1
1000
568758
1002
}
1002
{
1070
     5
1000
567159
1002
}
1002
{
1070
     2
1000
-2000151
1002
}
1002
{
1070
     3
1000
388270
1002
}
  0
LINE
  5
2E63
330
6C
100
AcDbEntity
  8
Layer1
100
AcDbLine
 10
-604.3329908454073
 20
2303.562163043879
 30
0.0
 11
-604.3331815370212
 21
2303.562469337854
 31
0.0
1001
REVIT
1002
{
1070
     1
1000
568758
1002
}
1002
{
1070
     5
1000
567159
1002
}
1002
{
1070
     2
1000
-2000151
1002
}
1002
{
1070
     3
1000
388270
1002
}
  0
LINE
  5
2E64
330
6C
100
AcDbEntity
  8
Layer1
100
AcDbLine
 10
-604.3331815370212
 20
2303.562469337854
 30
0.0
 11
-604.333430157754
 21
2303.562660805013
 31
0.0
1001
REVIT
1002
{
1070
     1
1000
568758
1002
}
1002
{
1070
     5
1000
567159
1002
}
1002
{
1070
     2
1000
-2000151
1002
}
1002
{
1070
     3
1000
388270
1002
}
  0
LINE
  5
2E65
330
6C
100
AcDbEntity
  8
Layer1
100
AcDbLine
 10
-604.333430157754
 20
2303.562660805013
 30
0.0
 11
-604.3337198348544
 21
2303.562724337891
 31
0.0
1001
REVIT
1002
{
1070
     1
1000
568758
1002
}
1002
{
1070
     5
1000
567159
1002
}
1002
{
1070
     2
1000
-2000151
1002
}
1002
{
1070
     3
1000
388270
1002
}
  0
LINE
  5
2E66
330
6C
100
AcDbEntity
  8
Layer1
100
AcDbLine
 10
-604.3337198348544
 20
2303.562724337891
 30
0.0
 11
-604.3340308789042
 21
2303.562655504608
 31
0.0
1001
REVIT
1002
{
1070
     1
1000
568758
1002
}
1002
{
1070
     5
1000
567159
1002
}
1002
{
1070
     2
1000
-2000151
1002
}
1002
{
1070
     3
1000
388270
1002
}
  0
LINE
  5
2E69
330
6C
100
AcDbEntity
  8
Layer1
100
AcDbLine
 10
-604.3226138081539
 20
2303.669430893827
 30
0.0
 11
-604.3245704796876
 21
2303.6657083478
 31
0.0
1001
REVIT
1002
{
1070
     1
1000
568758
1002
}
1002
{
1070
     5
1000
567159
1002
}
1002
{
1070
     2
1000
-2000196
1002
}
1002
{
1070
     3
1000
476753
1002
}
  0
LINE
  5
2E6A
330
6C
100
AcDbEntity
  8
Layer1
100
AcDbLine
 10
-604.3245704796876
 20
2303.6657083478
 30
0.0
 11
-604.3226138081539
 21
2303.66327353769
 31
0.0
1001
REVIT
1002
{
1070
     1
1000
568758
1002
}
1002
{
1070
     5
1000
567159
1002
}
1002
{
1070
     2
1000
-2000196
1002
}
1002
{
1070
     3
1000
476753
1002
}
  0
LINE
  5
2E6B
330
6C
100
AcDbEntity
  8
Layer1
100
AcDbLine
 10
-604.3342645333939
 20
2303.594913046488
 30
0.0
 11
-604.3345476299933
 21
2303.595242449755
 31
0.0
1001
REVIT
1002
{
1070
     1
1000
568758
1002
}
1002
{
1070
     5
1000
567159
1002
}
1002
{
1070
     2
1000
-2000196
1002
}
1002
{
1070
     3
1000
476753
1002
}
  0
LINE
  5
2E6C
330
6C
100
AcDbEntity
  8
Layer1
100
AcDbLine
 10
-604.3345476299933
 20
2303.595242449755
 30
0.0
 11
-604.334934599801
 21
2303.594928211065
 31
0.0
1001
REVIT
1002
{
1070
     1
1000
568758
1002
}
1002
{
1070
     5
1000
567159
1002
}
1002
{
1070
     2
1000
-2000196
1002
}
1002
{
1070
     3
1000
476753
1002
}
  0
LINE
  5
2E6D
330
6C
100
AcDbEntity
  8
Layer1
100
AcDbLine
 10
-604.3366554314587
 20
2303.591568725739
 30
0.0
 11
-604.3367595175105
 21
2303.590923351667
 31
0.0
1001
REVIT
1002
{
1070
     1
1000
568758
1002
}
1002
{
1070
     5
1000
567159
1002
}
1002
{
1070
     2
1000
-2000196
1002
}
1002
{
1070
     3
1000
476753
1002
}
  0
LINE
  5
2E6E
330
6C
100
AcDbEntity
  8
Layer1
100
AcDbLine
 10
-604.3367595175105
 20
2303.590923351667
 30
0.0
 11
-604.3364751989876
 21
2303.590594432824
 31
0.0
1001
REVIT
1002
{
1070
     1
1000
568758
1002
}
1002
{
1070
     5
1000
567159
1002
}
1002
{
1070
     2
1000
-2000196
1002
}
1002
{
1070
     3
1000
476753
1002
}
  0
LINE
  5
2E6F
330
6C
100
AcDbEntity
  8
Layer1
100
AcDbLine
 10
-604.3342645333939
 20
2303.674697883467
 30
0.0
 11
-604.3345476299933
 21
2303.675049310103
 31
0.0
1001
REVIT
1002
{
1070
     1
1000
568758
1002
}
1002
{
1070
     5
1000
567159
1002
}
1002
{
1070
     2
1000
-2000196
1002
}
1002
{
1070
     3
1000
476753
1002
}
  0
LINE
  5
2E70
330
6C
100
AcDbEntity
  8
Layer1
100
AcDbLine
 10
-604.3345476299933
 20
2303.675049310103
 30
0.0
 11
-604.334934599801
 21
2303.674765175554
 31
0.0
1001
REVIT
1002
{
1070
     1
1000
568758
1002
}
1002
{
1070
     5
1000
567159
1002
}
1002
{
1070
     2
1000
-2000196
1002
}
1002
{
1070
     3
1000
476753
1002
}
  0
LINE
  5
2E71
330
6C
100
AcDbEntity
  8
Layer1
100
AcDbLine
 10
-604.3366554314587
 20
2303.671539561542
 30
0.0
 11
-604.3367595175105
 21
2303.670902284796
 31
0.0
1001
REVIT
1002
{
1070
     1
1000
568758
1002
}
1002
{
1070
     5
1000
567159
1002
}
1002
{
1070
     2
1000
-2000196
1002
}
1002
{
1070
     3
1000
476753
1002
}
  0
LINE
  5
2E72
330
6C
100
AcDbEntity
  8
Layer1
100
AcDbLine
 10
-604.3367595175105
 20
2303.670902284796
 30
0.0
 11
-604.3364751989876
 21
2303.670551247526
 31
0.0
1001
REVIT
1002
{
1070
     1
1000
568758
1002
}
1002
{
1070
     5
1000
567159
1002
}
1002
{
1070
     2
1000
-2000196
1002
}
1002
{
1070
     3
1000
476753
1002
}
  0
LINE
  5
2E73
330
6C
100
AcDbEntity
  8
Layer1
100
AcDbLine
 10
-604.4035366206023
 20
2303.721247647386
 30
0.0
 11
-604.4032743779919
 21
2303.722060569408
 31
0.0
1001
REVIT
1002
{
1070
     1
1000
568758
1002
}
1002
{
1070
     5
1000
567159
1002
}
1002
{
1070
     2
1000
-2000196
1002
}
1002
{
1070
     3
1000
476753
1002
}
  0
LINE
  5
2E74
330
6C
100
AcDbEntity
  8
Layer1
100
AcDbLine
 10
-604.4032743779919
 20
2303.722060569408
 30
0.0
 11
-604.4026408402418
 21
2303.722287432488
 31
0.0
1001
REVIT
1002
{
1070
     1
1000
568758
1002
}
1002
{
1070
     5
1000
567159
1002
}
1002
{
1070
     2
1000
-2000196
1002
}
1002
{
1070
     3
1000
476753
1002
}
  0
LINE
  5
2E76
330
6C
100
AcDbEntity
  8
Layer1
100
AcDbLine
 10
-604.3707535856425
 20
2303.730318254096
 30
0.0
 11
-604.3707535856425
 21
2303.730318254096
 31
0.0
1001
REVIT
1002
{
1070
     1
1000
568758
1002
}
1002
{
1070
     5
1000
567159
1002
}
1002
{
1070
     2
1000
-2000196
1002
}
1002
{
1070
     3
1000
476753
1002
}
  0
LINE
  5
2E77
330
6C
100
AcDbEntity
  8
Layer1
100
AcDbLine
 10
-604.4021924956402
 20
2303.720964829506
 30
0.0
 11
-604.4025095545446
 21
2303.720851648706
 31
0.0
1001
REVIT
1002
{
1070
     1
1000
568758
1002
}
1002
{
1070
     5
1000
567159
1002
}
1002
{
1070
     2
1000
-2000196
1002
}
1002
{
1070
     3
1000
476753
1002
}
  0
LINE
  5
2E78
330
6C
100
AcDbEntity
  8
Layer1
100
AcDbLine
 10
-604.4025095545446
 20
2303.720851648706
 30
0.0
 11
-604.4026408402418
 21
2303.72044503257
 31
0.0
1001
REVIT
1002
{
1070
     1
1000
568758
1002
}
1002
{
1070
     5
1000
567159
1002
}
1002
{
1070
     2
1000
-2000196
1002
}
1002
{
1070
     3
1000
476753
1002
}
  0
LINE
  5
2E79
330
6C
100
AcDbEntity
  8
Layer1
100
AcDbLine
 10
-604.3657127596378
 20
2303.715150853869
 30
0.0
 11
-604.3652882298522
 21
2303.714945257032
 31
0.0
1001
REVIT
1002
{
1070
     1
1000
568758
1002
}
1002
{
1070
     5
1000
567159
1002
}
1002
{
1070
     2
1000
-2000196
1002
}
1002
{
1070
     3
1000
476753
1002
}
  0
LINE
  5
2E7A
330
6C
100
AcDbEntity
  8
Layer1
100
AcDbLine
 10
-604.3652882298522
 20
2303.714945257032
 30
0.0
 11
-604.3656006808616
 21
2303.714728165054
 31
0.0
1001
REVIT
1002
{
1070
     1
1000
568758
1002
}
1002
{
1070
     5
1000
567159
1002
}
1002
{
1070
     2
1000
-2000196
1002
}
1002
{
1070
     3
1000
476753
1002
}
  0
LINE
  5
2E7B
330
6C
100
AcDbEntity
  8
Layer1
100
AcDbLine
 10
-604.3693762405466
 20
2303.715518529777
 30
0.0
 11
-604.368510470713
 21
2303.715619123771
 31
0.0
1001
REVIT
1002
{
1070
     1
1000
568758
1002
}
1002
{
1070
     5
1000
567159
1002
}
1002
{
1070
     2
1000
-2000196
1002
}
1002
{
1070
     3
1000
476753
1002
}
  0
LINE
  5
2E7C
330
6C
100
AcDbEntity
  8
Layer1
100
AcDbLine
 10
-604.368510470713
 20
2303.715619123771
 30
0.0
 11
-604.3676002058382
 21
2303.715545413397
 31
0.0
1001
REVIT
1002
{
1070
     1
1000
568758
1002
}
1002
{
1070
     5
1000
567159
1002
}
1002
{
1070
     2
1000
-2000196
1002
}
1002
{
1070
     3
1000
476753
1002
}
  0
LINE
  5
2E7D
330
6C
100
AcDbEntity
  8
Layer1
100
AcDbLine
 10
-604.3889359096748
 20
2303.720005516811
 30
0.0
 11
-604.3885350962542
 21
2303.719806870645
 31
0.0
1001
REVIT
1002
{
1070
     1
1000
568758
1002
}
1002
{
1070
     5
1000
567159
1002
}
1002
{
1070
     2
1000
-2000196
1002
}
1002
{
1070
     3
1000
476753
1002
}
  0
LINE
  5
2E7E
330
6C
100
AcDbEntity
  8
Layer1
100
AcDbLine
 10
-604.3885350962542
 20
2303.719806870645
 30
0.0
 11
-604.3888596165904
 21
2303.719597123259
 31
0.0
1001
REVIT
1002
{
1070
     1
1000
568758
1002
}
1002
{
1070
     5
1000
567159
1002
}
1002
{
1070
     2
1000
-2000196
1002
}
1002
{
1070
     3
1000
476753
1002
}
  0
LINE
  5
2E7F
330
6C
100
AcDbEntity
  8
Layer1
100
AcDbLine
 10
-604.392507567755
 20
2303.720360774787
 30
0.0
 11
-604.3916484891566
 21
2303.720457974026
 31
0.0
1001
REVIT
1002
{
1070
     1
1000
568758
1002
}
1002
{
1070
     5
1000
567159
1002
}
1002
{
1070
     2
1000
-2000196
1002
}
1002
{
1070
     3
1000
476753
1002
}
  0
LINE
  5
2E80
330
6C
100
AcDbEntity
  8
Layer1
100
AcDbLine
 10
-604.3916484891566
 20
2303.720457974026
 30
0.0
 11
-604.3907596119448
 21
2303.720386751045
 31
0.0
1001
REVIT
1002
{
1070
     1
1000
568758
1002
}
1002
{
1070
     5
1000
567159
1002
}
1002
{
1070
     2
1000
-2000196
1002
}
1002
{
1070
     3
1000
476753
1002
}
  0
LINE
  5
2E81
330
6C
100
AcDbEntity
  8
Layer1
100
AcDbLine
 10
-604.3607510139722
 20
2303.728141084388
 30
0.0
 11
-604.3611612960764
 21
2303.728344585244
 31
0.0
1001
REVIT
1002
{
1070
     1
1000
568758
1002
}
1002
{
1070
     5
1000
567159
1002
}
1002
{
1070
     2
1000
-2000196
1002
}
1002
{
1070
     3
1000
476753
1002
}
  0
LINE
  5
2E83
330
6C
100
AcDbEntity
  8
Layer1
100
AcDbLine
 10
-604.3572396315298
 20
2303.727805331723
 30
0.0
 11
-604.3580644731511
 21
2303.727713175662
 31
0.0
1001
REVIT
1002
{
1070
     1
1000
568758
1002
}
1002
{
1070
     5
1000
567159
1002
}
1002
{
1070
     2
1000
-2000196
1002
}
1002
{
1070
     3
1000
476753
1002
}
  0
LINE
  5
2E84
330
6C
100
AcDbEntity
  8
Layer1
100
AcDbLine
 10
-604.3580644731511
 20
2303.727713175662
 30
0.0
 11
-604.3589381757199
 21
2303.727780715624
 31
0.0
1001
REVIT
1002
{
1070
     1
1000
568758
1002
}
1002
{
1070
     5
1000
567159
1002
}
1002
{
1070
     2
1000
-2000196
1002
}
1002
{
1070
     3
1000
476753
1002
}
  0
LINE
  5
2E85
330
6C
100
AcDbEntity
  8
Layer1
100
AcDbLine
 10
-604.3377397501163
 20
2303.723566743177
 30
0.0
 11
-604.3381745086874
 21
2303.723783196911
 31
0.0
1001
REVIT
1002
{
1070
     1
1000
568758
1002
}
1002
{
1070
     5
1000
567159
1002
}
1002
{
1070
     2
1000
-2000196
1002
}
1002
{
1070
     3
1000
476753
1002
}
  0
LINE
  5
2E87
330
6C
100
AcDbEntity
  8
Layer1
100
AcDbLine
 10
-604.3341403121107
 20
2303.723219589381
 30
0.0
 11
-604.3349711023974
 21
2303.72312430146
 31
0.0
1001
REVIT
1002
{
1070
     1
1000
568758
1002
}
1002
{
1070
     5
1000
567159
1002
}
1002
{
1070
     2
1000
-2000196
1002
}
1002
{
1070
     3
1000
476753
1002
}
  0
LINE
  5
2E88
330
6C
100
AcDbEntity
  8
Layer1
100
AcDbLine
 10
-604.3349711023974
 20
2303.72312430146
 30
0.0
 11
-604.335865350598
 21
2303.723194136827
 31
0.0
1001
REVIT
1002
{
1070
     1
1000
568758
1002
}
1002
{
1070
     5
1000
567159
1002
}
1002
{
1070
     2
1000
-2000196
1002
}
1002
{
1070
     3
1000
476753
1002
}
  0
LINE
  5
2E89
330
6C
100
AcDbEntity
  8
Layer1
100
AcDbLine
 10
-604.3226138081537
 20
2303.71988320709
 30
0.0
 11
-604.3228933204098
 21
2303.720810908777
 31
0.0
1001
REVIT
1002
{
1070
     1
1000
568758
1002
}
1002
{
1070
     5
1000
567159
1002
}
1002
{
1070
     2
1000
-2000196
1002
}
1002
{
1070
     3
1000
476753
1002
}
  0
LINE
  5
2E8A
330
6C
100
AcDbEntity
  8
Layer1
100
AcDbLine
 10
-604.3228933204098
 20
2303.720810908777
 30
0.0
 11
-604.3235676648017
 21
2303.721305888394
 31
0.0
1001
REVIT
1002
{
1070
     1
1000
568758
1002
}
1002
{
1070
     5
1000
567159
1002
}
1002
{
1070
     2
1000
-2000196
1002
}
1002
{
1070
     3
1000
476753
1002
}
  0
LINE
  5
2E8D
330
6C
100
AcDbEntity
  8
Layer1
100
AcDbLine
 10
-604.3907596119448
 20
2303.719150078103
 30
0.0
 11
-604.3916484891566
 21
2303.719221616088
 31
0.0
1001
REVIT
1002
{
1070
     1
1000
568758
1002
}
1002
{
1070
     5
1000
567159
1002
}
1002
{
1070
     2
1000
-2000196
1002
}
1002
{
1070
     3
1000
476753
1002
}
  0
LINE
  5
2E8E
330
6C
100
AcDbEntity
  8
Layer1
100
AcDbLine
 10
-604.3916484891566
 20
2303.719221616088
 30
0.0
 11
-604.392507567755
 21
2303.719123986957
 31
0.0
1001
REVIT
1002
{
1070
     1
1000
568758
1002
}
1002
{
1070
     5
1000
567159
1002
}
1002
{
1070
     2
1000
-2000196
1002
}
1002
{
1070
     3
1000
476753
1002
}
  0
LINE
  5
2E8F
330
6C
100
AcDbEntity
  8
Layer1
100
AcDbLine
 10
-604.3676002058382
 20
2303.714287328196
 30
0.0
 11
-604.368510470713
 21
2303.714361364576
 31
0.0
1001
REVIT
1002
{
1070
     1
1000
568758
1002
}
1002
{
1070
     5
1000
567159
1002
}
1002
{
1070
     2
1000
-2000196
1002
}
1002
{
1070
     3
1000
476753
1002
}
  0
LINE
  5
2E90
330
6C
100
AcDbEntity
  8
Layer1
100
AcDbLine
 10
-604.368510470713
 20
2303.714361364576
 30
0.0
 11
-604.3693762405466
 21
2303.714260325675
 31
0.0
1001
REVIT
1002
{
1070
     1
1000
568758
1002
}
1002
{
1070
     5
1000
567159
1002
}
1002
{
1070
     2
1000
-2000196
1002
}
1002
{
1070
     3
1000
476753
1002
}
  0
LINE
  5
2E95
330
6C
100
AcDbEntity
  8
Layer1
100
AcDbLine
 10
-604.5829359765711
 20
2303.53144244198
 30
0.0
 11
-604.5801138522147
 21
2303.534589574584
 31
0.0
1001
REVIT
1002
{
1070
     2
1000
-2000151
1002
}
  0
LINE
  5
2E96
330
6C
100
AcDbEntity
  8
Layer1
100
AcDbLine
 10
-604.5801132811683
 20
2303.534589044058
 30
0.0
 11
-604.57899134947
 21
2303.539174440259
 31
0.0
1001
REVIT
1002
{
1070
     2
1000
-2000151
1002
}
  0
LINE
  5
2E97
330
6C
100
AcDbEntity
  8
Layer1
100
AcDbLine
 10
-604.5714738943781
 20
2303.526753575354
 30
0.0
 11
-604.5647622507411
 21
2303.533291678446
 31
0.0
1001
REVIT
1002
{
1070
     2
1000
-2000151
1002
}
  0
LINE
  5
2E98
330
6C
100
AcDbEntity
  8
Layer1
100
AcDbLine
 10
-604.5647635836821
 20
2303.533292982133
 30
0.0
 11
-604.5638325458646
 21
2303.535940735624
 31
0.0
1001
REVIT
1002
{
1070
     2
1000
-2000151
1002
}
  0
LINE
  5
2EA5
330
6C
100
AcDbEntity
  8
Layer1
100
AcDbLine
 10
-604.587000855986
 20
2303.436162339768
 30
0.0
 11
-604.5887694283586
 21
2303.4454805247
 31
0.0
1001
REVIT
1002
{
1070
     2
1000
-2000151
1002
}
  0
LINE
  5
2EA6
330
6C
100
AcDbEntity
  8
Layer1
100
AcDbLine
 10
-604.587000836683
 20
2303.459655634465
 30
0.0
 11
-604.5887694091152
 21
2303.4689374153
 31
0.0
1001
REVIT
1002
{
1070
     2
1000
-2000151
1002
}
  0
LINE
  5
2EA7
330
6C
100
AcDbEntity
  8
Layer1
100
AcDbLine
 10
-604.5870008173808
 20
2303.483148929961
 30
0.0
 11
-604.5887693898731
 21
2303.492394306692
 31
0.0
1001
REVIT
1002
{
1070
     2
1000
-2000151
1002
}
  0
LINE
  5
2EA8
330
6C
100
AcDbEntity
  8
Layer1
100
AcDbLine
 10
-604.5720464062545
 20
2303.428774578232
 30
0.0
 11
-604.573861591014
 21
2303.438226261031
 31
0.0
1001
REVIT
1002
{
1070
     2
1000
-2000151
1002
}
  0
LINE
  5
2EA9
330
6C
100
AcDbEntity
  8
Layer1
100
AcDbLine
 10
-604.5870007980779
 20
2303.506642226249
 30
0.0
 11
-604.5887693706305
 21
2303.515851198876
 31
0.0
1001
REVIT
1002
{
1070
     2
1000
-2000151
1002
}
  0
LINE
  5
2EAA
330
6C
100
AcDbEntity
  8
Layer1
100
AcDbLine
 10
-604.5720463864435
 20
2303.452575694897
 30
0.0
 11
-604.5738615712642
 21
2303.461990014125
 31
0.0
1001
REVIT
1002
{
1070
     2
1000
-2000151
1002
}
  0
LINE
  5
2EAB
330
6C
100
AcDbEntity
  8
Layer1
100
AcDbLine
 10
-604.5870007787753
 20
2303.530135523334
 30
0.0
 11
-604.587622406693
 21
2303.53335954966
 31
0.0
1001
REVIT
1002
{
1070
     2
1000
-2000151
1002
}
  0
LINE
  5
2EAC
330
6C
100
AcDbEntity
  8
Layer1
100
AcDbLine
 10
-604.5720463666302
 20
2303.47637681237
 30
0.0
 11
-604.5738615515141
 21
2303.485753768031
 31
0.0
1001
REVIT
1002
{
1070
     2
1000
-2000151
1002
}
  0
LINE
  5
2EAD
330
6C
100
AcDbEntity
  8
Layer1
100
AcDbLine
 10
-604.5720463468191
 20
2303.50017793066
 30
0.0
 11
-604.5738615317645
 21
2303.509517522755
 31
0.0
1001
REVIT
1002
{
1070
     2
1000
-2000151
1002
}
  0
LINE
  5
2EAE
330
6C
100
AcDbEntity
  8
Layer1
100
AcDbLine
 10
-604.5720463270066
 20
2303.523979049763
 30
0.0
 11
-604.5726843575321
 21
2303.527248747191
 31
0.0
1001
REVIT
1002
{
1070
     2
1000
-2000151
1002
}
  0
LINE
  5
2EAF
330
6C
100
AcDbEntity
  8
Layer1
100
AcDbLine
 10
-604.5754284496344
 20
2303.417372272249
 30
0.0
 11
-604.5759583008609
 21
2303.41835560718
 31
0.0
1001
REVIT
1002
{
1070
     2
1000
-2000151
1002
}
  0
LINE
  5
2EB0
330
6C
100
AcDbEntity
  8
Layer1
100
AcDbLine
 10
-604.5887559313017
 20
2303.445457365127
 30
0.0
 11
-604.5900200340595
 21
2303.447799658176
 31
0.0
1001
REVIT
1002
{
1070
     2
1000
-2000151
1002
}
  0
LINE
  5
2EB1
330
6C
100
AcDbEntity
  8
Layer1
100
AcDbLine
 10
-604.5738479639242
 20
2303.438203109354
 30
0.0
 11
-604.5759585477123
 21
2303.442076634055
 31
0.0
1001
REVIT
1002
{
1070
     2
1000
-2000151
1002
}
  0
LINE
  5
2EB2
330
6C
100
AcDbEntity
  8
Layer1
100
AcDbLine
 10
-604.5887561726998
 20
2303.46891495535
 30
0.0
 11
-604.5900200340595
 21
2303.471230785836
 31
0.0
1001
REVIT
1002
{
1070
     2
1000
-2000151
1002
}
  0
LINE
  5
2EB3
330
6C
100
AcDbEntity
  8
Layer1
100
AcDbLine
 10
-604.5738482116802
 20
2303.461967571881
 30
0.0
 11
-604.5759587945627
 21
2303.465797650764
 31
0.0
1001
REVIT
1002
{
1070
     2
1000
-2000151
1002
}
  0
LINE
  5
2EB4
330
6C
100
AcDbEntity
  8
Layer1
100
AcDbLine
 10
-604.5887564140977
 20
2303.492372535643
 30
0.0
 11
-604.5900200340591
 21
2303.494661913497
 31
0.0
1001
REVIT
1002
{
1070
     2
1000
-2000151
1002
}
  0
LINE
  5
2EB5
330
6C
100
AcDbEntity
  8
Layer1
100
AcDbLine
 10
-604.5738484594368
 20
2303.485732024212
 30
0.0
 11
-604.5759590414129
 21
2303.489518657309
 31
0.0
1001
REVIT
1002
{
1070
     2
1000
-2000151
1002
}
  0
LINE
  5
2EB6
330
6C
100
AcDbEntity
  8
Layer1
100
AcDbLine
 10
-604.5887566554969
 20
2303.515830105991
 30
0.0
 11
-604.5900200340591
 21
2303.518093041155
 31
0.0
1001
REVIT
1002
{
1070
     2
1000
-2000151
1002
}
  0
LINE
  5
2EB7
330
6C
100
AcDbEntity
  8
Layer1
100
AcDbLine
 10
-604.5738487071912
 20
2303.509496466334
 30
0.0
 11
-604.575959288263
 21
2303.513239653692
 31
0.0
1001
REVIT
1002
{
1070
     2
1000
-2000151
1002
}
  0
LINE
  5
2EB8
330
6C
100
AcDbEntity
  8
Layer1
100
AcDbLine
 10
-604.575975325928
 20
2303.418387314243
 30
0.0
 11
-604.5807705146935
 21
2303.427893972704
 31
0.0
1001
REVIT
1002
{
1070
     2
1000
-2000151
1002
}
  0
LINE
  5
2EB9
330
6C
100
AcDbEntity
  8
Layer1
100
AcDbLine
 10
-604.5759752500904
 20
2303.442107401768
 30
0.0
 11
-604.5807704394853
 21
2303.451515357429
 31
0.0
1001
REVIT
1002
{
1070
     2
1000
-2000151
1002
}
  0
LINE
  5
2EBA
330
6C
100
AcDbEntity
  8
Layer1
100
AcDbLine
 10
-604.5759751742525
 20
2303.465827492418
 30
0.0
 11
-604.5807703642773
 21
2303.475136745253
 31
0.0
1001
REVIT
1002
{
1070
     2
1000
-2000151
1002
}
  0
LINE
  5
2EBB
330
6C
100
AcDbEntity
  8
Layer1
100
AcDbLine
 10
-604.5759750984147
 20
2303.489547586189
 30
0.0
 11
-604.5807702890704
 21
2303.498758136175
 31
0.0
1001
REVIT
1002
{
1070
     2
1000
-2000151
1002
}
  0
LINE
  5
2EBC
330
6C
100
AcDbEntity
  8
Layer1
100
AcDbLine
 10
-604.5759750225776
 20
2303.513267683082
 30
0.0
 11
-604.5807702138636
 21
2303.522379530197
 31
0.0
1001
REVIT
1002
{
1070
     2
1000
-2000151
1002
}
  0
LINE
  5
2EBD
330
6C
100
AcDbEntity
  8
Layer1
100
AcDbLine
 10
-604.580769475091
 20
2303.427890608129
 30
0.0
 11
-604.5819620459749
 21
2303.433676501057
 31
0.0
1001
REVIT
1002
{
1070
     2
1000
-2000151
1002
}
  0
LINE
  5
2EBE
330
6C
100
AcDbEntity
  8
Layer1
100
AcDbLine
 10
-604.5807694470677
 20
2303.451512136344
 30
0.0
 11
-604.5819620180095
 21
2303.457273481589
 31
0.0
1001
REVIT
1002
{
1070
     2
1000
-2000151
1002
}
  0
LINE
  5
2EBF
330
6C
100
AcDbEntity
  8
Layer1
100
AcDbLine
 10
-604.580769419043
 20
2303.475133665707
 30
0.0
 11
-604.5819619900437
 21
2303.480870463273
 31
0.0
1001
REVIT
1002
{
1070
     2
1000
-2000151
1002
}
  0
LINE
  5
2EC0
330
6C
100
AcDbEntity
  8
Layer1
100
AcDbLine
 10
-604.5807693910191
 20
2303.498755196228
 30
0.0
 11
-604.5819619620784
 21
2303.504467446107
 31
0.0
1001
REVIT
1002
{
1070
     2
1000
-2000151
1002
}
  0
LINE
  5
2EC1
330
6C
100
AcDbEntity
  8
Layer1
100
AcDbLine
 10
-604.580769362996
 20
2303.522376727904
 30
0.0
 11
-604.5819619341127
 21
2303.528064430096
 31
0.0
1001
REVIT
1002
{
1070
     2
1000
-2000151
1002
}
  0
LINE
  5
2EC2
330
6C
100
AcDbEntity
  8
Layer1
100
AcDbLine
 10
-604.5819589493433
 20
2303.433669520365
 30
0.0
 11
-604.5819589493433
 21
2303.438388941027
 31
0.0
1001
REVIT
1002
{
1070
     2
1000
-2000151
1002
}
  0
LINE
  5
2EC3
330
6C
100
AcDbEntity
  8
Layer1
100
AcDbLine
 10
-604.5819589493433
 20
2303.457266623683
 30
0.0
 11
-604.5819589493433
 21
2303.461986044345
 31
0.0
1001
REVIT
1002
{
1070
     2
1000
-2000151
1002
}
  0
LINE
  5
2EC4
330
6C
100
AcDbEntity
  8
Layer1
100
AcDbLine
 10
-604.581958949343
 20
2303.480863727001
 30
0.0
 11
-604.581958949343
 21
2303.485583147663
 31
0.0
1001
REVIT
1002
{
1070
     2
1000
-2000151
1002
}
  0
LINE
  5
2EC5
330
6C
100
AcDbEntity
  8
Layer1
100
AcDbLine
 10
-604.581958949343
 20
2303.504460830319
 30
0.0
 11
-604.581958949343
 21
2303.509180250981
 31
0.0
1001
REVIT
1002
{
1070
     2
1000
-2000151
1002
}
  0
LINE
  5
2EC6
330
6C
100
AcDbEntity
  8
Layer1
100
AcDbLine
 10
-604.581958949343
 20
2303.528057933638
 30
0.0
 11
-604.581958949343
 21
2303.53104276326
 31
0.0
1001
REVIT
1002
{
1070
     2
1000
-2000151
1002
}
  0
LINE
  5
2EC7
330
6C
100
AcDbEntity
  8
Layer1
100
AcDbLine
 10
-604.5839625625147
 20
2303.421685016042
 30
0.0
 11
-604.5858105111586
 21
2303.428034296223
 31
0.0
1001
REVIT
1002
{
1070
     2
1000
-2000151
1002
}
  0
LINE
  5
2EC8
330
6C
100
AcDbEntity
  8
Layer1
100
AcDbLine
 10
-604.5819517268632
 20
2303.438373246561
 30
0.0
 11
-604.5858105902036
 21
2303.451552303774
 31
0.0
1001
REVIT
1002
{
1070
     2
1000
-2000151
1002
}
  0
LINE
  5
2EC9
330
6C
100
AcDbEntity
  8
Layer1
100
AcDbLine
 10
-604.5689279531962
 20
2303.414087223635
 30
0.0
 11
-604.5708248275882
 21
2303.420532522193
 31
0.0
1001
REVIT
1002
{
1070
     2
1000
-2000151
1002
}
  0
LINE
  5
2ECA
330
6C
100
AcDbEntity
  8
Layer1
100
AcDbLine
 10
-604.5819518064426
 20
2303.461970683239
 30
0.0
 11
-604.5858106692503
 21
2303.475070308077
 31
0.0
1001
REVIT
1002
{
1070
     2
1000
-2000151
1002
}
  0
LINE
  5
2ECB
330
6C
100
AcDbEntity
  8
Layer1
100
AcDbLine
 10
-604.5670351014835
 20
2303.43155980282
 30
0.0
 11
-604.5708249087227
 21
2303.444358998017
 31
0.0
1001
REVIT
1002
{
1070
     2
1000
-2000151
1002
}
  0
LINE
  5
2ECC
330
6C
100
AcDbEntity
  8
Layer1
100
AcDbLine
 10
-604.5819518860238
 20
2303.485568116643
 30
0.0
 11
-604.5858107482956
 21
2303.498588309127
 31
0.0
1001
REVIT
1002
{
1070
     2
1000
-2000151
1002
}
  0
LINE
  5
2ECD
330
6C
100
AcDbEntity
  8
Layer1
100
AcDbLine
 10
-604.5670351014835
 20
2303.455464012081
 30
0.0
 11
-604.5708249898551
 21
2303.468185470498
 31
0.0
1001
REVIT
1002
{
1070
     2
1000
-2000151
1002
}
  0
LINE
  5
2ECE
330
6C
100
AcDbEntity
  8
Layer1
100
AcDbLine
 10
-604.5819519656048
 20
2303.509165546773
 30
0.0
 11
-604.5858108273407
 21
2303.522106306918
 31
0.0
1001
REVIT
1002
{
1070
     2
1000
-2000151
1002
}
  0
LINE
  5
2ECF
330
6C
100
AcDbEntity
  8
Layer1
100
AcDbLine
 10
-604.5670351014827
 20
2303.479368221337
 30
0.0
 11
-604.5708250709873
 21
2303.492011939643
 31
0.0
1001
REVIT
1002
{
1070
     2
1000
-2000151
1002
}
  0
LINE
  5
2ED0
330
6C
100
AcDbEntity
  8
Layer1
100
AcDbLine
 10
-604.5670351014835
 20
2303.503272430604
 30
0.0
 11
-604.57082515212
 21
2303.515838405441
 31
0.0
1001
REVIT
1002
{
1070
     2
1000
-2000151
1002
}
  0
LINE
  5
2ED1
330
6C
100
AcDbEntity
  8
Layer1
100
AcDbLine
 10
-604.5858189746017
 20
2303.522124949115
 30
0.0
 11
-604.5855230646166
 21
2303.5267059404
 31
0.0
1001
REVIT
1002
{
1070
     2
1000
-2000151
1002
}
  0
LINE
  5
2ED2
330
6C
100
AcDbEntity
  8
Layer1
100
AcDbLine
 10
-604.5858189725755
 20
2303.498607288561
 30
0.0
 11
-604.5855230625898
 21
2303.503182188836
 31
0.0
1001
REVIT
1002
{
1070
     2
1000
-2000151
1002
}
  0
LINE
  5
2ED3
330
6C
100
AcDbEntity
  8
Layer1
100
AcDbLine
 10
-604.5858189705491
 20
2303.475089627916
 30
0.0
 11
-604.5855230605607
 21
2303.479658437188
 31
0.0
1001
REVIT
1002
{
1070
     2
1000
-2000151
1002
}
  0
LINE
  5
2ED4
330
6C
100
AcDbEntity
  8
Layer1
100
AcDbLine
 10
-604.5858189685211
 20
2303.451571967188
 30
0.0
 11
-604.5855230585331
 21
2303.456134685454
 31
0.0
1001
REVIT
1002
{
1070
     2
1000
-2000151
1002
}
  0
LINE
  5
2ED5
330
6C
100
AcDbEntity
  8
Layer1
100
AcDbLine
 10
-604.5858189664943
 20
2303.428054306382
 30
0.0
 11
-604.5855230565043
 21
2303.43261093364
 31
0.0
1001
REVIT
1002
{
1070
     2
1000
-2000151
1002
}
  0
LINE
  5
2ED6
330
6C
100
AcDbEntity
  8
Layer1
100
AcDbLine
 10
-604.5708333114657
 20
2303.515856872071
 30
0.0
 11
-604.5705295870436
 21
2303.520496320143
 31
0.0
1001
REVIT
1002
{
1070
     2
1000
-2000151
1002
}
  0
LINE
  5
2ED7
330
6C
100
AcDbEntity
  8
Layer1
100
AcDbLine
 10
-604.570833309385
 20
2303.492030746429
 30
0.0
 11
-604.5705295849598
 21
2303.496663942634
 31
0.0
1001
REVIT
1002
{
1070
     2
1000
-2000151
1002
}
  0
LINE
  5
2ED8
330
6C
100
AcDbEntity
  8
Layer1
100
AcDbLine
 10
-604.5708333073043
 20
2303.468204620693
 30
0.0
 11
-604.5705295828793
 21
2303.472831565041
 31
0.0
1001
REVIT
1002
{
1070
     2
1000
-2000151
1002
}
  0
LINE
  5
2ED9
330
6C
100
AcDbEntity
  8
Layer1
100
AcDbLine
 10
-604.5708333052242
 20
2303.444378494879
 30
0.0
 11
-604.5705295807968
 21
2303.448999187368
 31
0.0
1001
REVIT
1002
{
1070
     2
1000
-2000151
1002
}
  0
LINE
  5
2EDA
330
6C
100
AcDbEntity
  8
Layer1
100
AcDbLine
 10
-604.5708333031427
 20
2303.420552368974
 30
0.0
 11
-604.5705295787151
 21
2303.425166809602
 31
0.0
1001
REVIT
1002
{
1070
     2
1000
-2000151
1002
}
  0
LINE
  5
2EDB
330
6C
100
AcDbEntity
  8
Layer1
100
AcDbLine
 10
-604.5855281933394
 20
2303.432620873625
 30
0.0
 11
-604.587006194487
 21
2303.436173850459
 31
0.0
1001
REVIT
1002
{
1070
     2
1000
-2000151
1002
}
  0
LINE
  5
2EDC
330
6C
100
AcDbEntity
  8
Layer1
100
AcDbLine
 10
-604.5855281007179
 20
2303.456144290054
 30
0.0
 11
-604.5870061021046
 21
2303.45966684428
 31
0.0
1001
REVIT
1002
{
1070
     2
1000
-2000151
1002
}
  0
LINE
  5
2EDD
330
6C
100
AcDbEntity
  8
Layer1
100
AcDbLine
 10
-604.5705347650816
 20
2303.425176785587
 30
0.0
 11
-604.5720517769762
 21
2303.428786069201
 31
0.0
1001
REVIT
1002
{
1070
     2
1000
-2000151
1002
}
  0
LINE
  5
2EDE
330
6C
100
AcDbEntity
  8
Layer1
100
AcDbLine
 10
-604.5855280080965
 20
2303.479667710303
 30
0.0
 11
-604.5870060097237
 21
2303.483159841906
 31
0.0
1001
REVIT
1002
{
1070
     2
1000
-2000151
1002
}
  0
LINE
  5
2EDF
330
6C
100
AcDbEntity
  8
Layer1
100
AcDbLine
 10
-604.5705346700153
 20
2303.449008823337
 30
0.0
 11
-604.5720516821578
 21
2303.452586881357
 31
0.0
1001
REVIT
1002
{
1070
     2
1000
-2000151
1002
}
  0
LINE
  5
2EE0
330
6C
100
AcDbEntity
  8
Layer1
100
AcDbLine
 10
-604.5855279154766
 20
2303.50319113436
 30
0.0
 11
-604.5870059173421
 21
2303.506652843333
 31
0.0
1001
REVIT
1002
{
1070
     2
1000
-2000151
1002
}
  0
LINE
  5
2EE1
330
6C
100
AcDbEntity
  8
Layer1
100
AcDbLine
 10
-604.5705345749468
 20
2303.472840864998
 30
0.0
 11
-604.5720515873393
 21
2303.476387697421
 31
0.0
1001
REVIT
1002
{
1070
     2
1000
-2000151
1002
}
  0
LINE
  5
2EE2
330
6C
100
AcDbEntity
  8
Layer1
100
AcDbLine
 10
-604.5855278228551
 20
2303.526714562234
 30
0.0
 11
-604.5870058249601
 21
2303.530145848562
 31
0.0
1001
REVIT
1002
{
1070
     2
1000
-2000151
1002
}
  0
LINE
  5
2EE3
330
6C
100
AcDbEntity
  8
Layer1
100
AcDbLine
 10
-604.5705344798805
 20
2303.496672910575
 30
0.0
 11
-604.572051492522
 21
2303.500188517382
 31
0.0
1001
REVIT
1002
{
1070
     2
1000
-2000151
1002
}
  0
LINE
  5
2EE4
330
6C
100
AcDbEntity
  8
Layer1
100
AcDbLine
 10
-604.5705343848128
 20
2303.520504960061
 30
0.0
 11
-604.5720513977029
 21
2303.523989341249
 31
0.0
1001
REVIT
1002
{
1070
     2
1000
-2000151
1002
}
  0
LINE
  5
2EE5
330
6C
100
AcDbEntity
  8
Layer1
100
AcDbLine
 10
-604.5884175700392
 20
2303.560947838677
 30
0.0
 11
-604.5887693321447
 21
2303.562764985622
 31
0.0
1001
REVIT
1002
{
1070
     2
1000
-2000151
1002
}
  0
LINE
  5
2EE6
330
6C
100
AcDbEntity
  8
Layer1
100
AcDbLine
 10
-604.5870007401707
 20
2303.577122119882
 30
0.0
 11
-604.5887693129017
 21
2303.586221880181
 31
0.0
1001
REVIT
1002
{
1070
     2
1000
-2000151
1002
}
  0
LINE
  5
2EE7
330
6C
100
AcDbEntity
  8
Layer1
100
AcDbLine
 10
-604.5870007208677
 20
2303.60061541935
 30
0.0
 11
-604.5887692936584
 21
2303.609678775532
 31
0.0
1001
REVIT
1002
{
1070
     2
1000
-2000151
1002
}
  0
LINE
  5
2EE8
330
6C
100
AcDbEntity
  8
Layer1
100
AcDbLine
 10
-604.573500475614
 20
2303.555202373758
 30
0.0
 11
-604.5738614922652
 21
2303.557045034633
 31
0.0
1001
REVIT
1002
{
1070
     2
1000
-2000151
1002
}
  0
LINE
  5
2EE9
330
6C
100
AcDbEntity
  8
Layer1
100
AcDbLine
 10
-604.5870007015659
 20
2303.624108719613
 30
0.0
 11
-604.5887692744165
 21
2303.633135671677
 31
0.0
1001
REVIT
1002
{
1070
     2
1000
-2000151
1002
}
  0
LINE
  5
2EEA
330
6C
100
AcDbEntity
  8
Layer1
100
AcDbLine
 10
-604.5720462873851
 20
2303.571581290425
 30
0.0
 11
-604.5738614725163
 21
2303.580808791793
 31
0.0
1001
REVIT
1002
{
1070
     2
1000
-2000151
1002
}
  0
LINE
  5
2EEB
330
6C
100
AcDbEntity
  8
Layer1
100
AcDbLine
 10
-604.5870006822626
 20
2303.647602020669
 30
0.0
 11
-604.5887692551737
 21
2303.656592568614
 31
0.0
1001
REVIT
1002
{
1070
     2
1000
-2000151
1002
}
  0
LINE
  5
2EEC
330
6C
100
AcDbEntity
  8
Layer1
100
AcDbLine
 10
-604.5720462675724
 20
2303.595382411978
 30
0.0
 11
-604.5738614527664
 21
2303.60457254977
 31
0.0
1001
REVIT
1002
{
1070
     2
1000
-2000151
1002
}
  0
LINE
  5
2EED
330
6C
100
AcDbEntity
  8
Layer1
100
AcDbLine
 10
-604.5720462477613
 20
2303.619183534345
 30
0.0
 11
-604.5738614330169
 21
2303.628336308557
 31
0.0
1001
REVIT
1002
{
1070
     2
1000
-2000151
1002
}
  0
LINE
  5
2EEE
330
6C
100
AcDbEntity
  8
Layer1
100
AcDbLine
 10
-604.5720462279497
 20
2303.642984657529
 30
0.0
 11
-604.5738614132678
 21
2303.652100068158
 31
0.0
1001
REVIT
1002
{
1070
     2
1000
-2000151
1002
}
  0
LINE
  5
2EEF
330
6C
100
AcDbEntity
  8
Layer1
100
AcDbLine
 10
-604.5887571382933
 20
2303.562745216879
 30
0.0
 11
-604.5900200340595
 21
2303.56495529647
 31
0.0
1001
REVIT
1002
{
1070
     2
1000
-2000151
1002
}
  0
LINE
  5
2EF0
330
6C
100
AcDbEntity
  8
Layer1
100
AcDbLine
 10
-604.573849202702
 20
2303.557025319991
 30
0.0
 11
-604.5759597819639
 21
2303.560681615973
 31
0.0
1001
REVIT
1002
{
1070
     2
1000
-2000151
1002
}
  0
LINE
  5
2EF1
330
6C
100
AcDbEntity
  8
Layer1
100
AcDbLine
 10
-604.5887573796902
 20
2303.586202757411
 30
0.0
 11
-604.5900200340595
 21
2303.588386424129
 31
0.0
1001
REVIT
1002
{
1070
     2
1000
-2000151
1002
}
  0
LINE
  5
2EF2
330
6C
100
AcDbEntity
  8
Layer1
100
AcDbLine
 10
-604.5738494504566
 20
2303.580789731519
 30
0.0
 11
-604.5759600288152
 21
2303.584402581874
 31
0.0
1001
REVIT
1002
{
1070
     2
1000
-2000151
1002
}
  0
LINE
  5
2EF3
330
6C
100
AcDbEntity
  8
Layer1
100
AcDbLine
 10
-604.5887576210879
 20
2303.609660288009
 30
0.0
 11
-604.5900200340595
 21
2303.611817551788
 31
0.0
1001
REVIT
1002
{
1070
     2
1000
-2000151
1002
}
  0
LINE
  5
2EF4
330
6C
100
AcDbEntity
  8
Layer1
100
AcDbLine
 10
-604.5738496982124
 20
2303.604554132846
 30
0.0
 11
-604.5759602756644
 21
2303.608123537603
 31
0.0
1001
REVIT
1002
{
1070
     2
1000
-2000151
1002
}
  0
LINE
  5
2EF5
330
6C
100
AcDbEntity
  8
Layer1
100
AcDbLine
 10
-604.5887578624865
 20
2303.633117808671
 30
0.0
 11
-604.5900200340595
 21
2303.635248679447
 31
0.0
1001
REVIT
1002
{
1070
     2
1000
-2000151
1002
}
  0
LINE
  5
2EF6
330
6C
100
AcDbEntity
  8
Layer1
100
AcDbLine
 10
-604.5738499459669
 20
2303.628318523977
 30
0.0
 11
-604.5759605225147
 21
2303.631844483179
 31
0.0
1001
REVIT
1002
{
1070
     2
1000
-2000151
1002
}
  0
LINE
  5
2EF7
330
6C
100
AcDbEntity
  8
Layer1
100
AcDbLine
 10
-604.5887581038841
 20
2303.656575319396
 30
0.0
 11
-604.5900200340595
 21
2303.658679807106
 31
0.0
1001
REVIT
1002
{
1070
     2
1000
-2000151
1002
}
  0
LINE
  5
2EF8
330
6C
100
AcDbEntity
  8
Layer1
100
AcDbLine
 10
-604.5738501937228
 20
2303.652082904902
 30
0.0
 11
-604.5759607693634
 21
2303.655565418585
 31
0.0
1001
REVIT
1002
{
1070
     2
1000
-2000151
1002
}
  0
LINE
  5
2EF9
330
6C
100
AcDbEntity
  8
Layer1
100
AcDbLine
 10
-604.5759748709027
 20
2303.560707886233
 30
0.0
 11
-604.5807700634465
 21
2303.569622327515
 31
0.0
1001
REVIT
1002
{
1070
     2
1000
-2000151
1002
}
  0
LINE
  5
2EFA
330
6C
100
AcDbEntity
  8
Layer1
100
AcDbLine
 10
-604.575974795066
 20
2303.584427992491
 30
0.0
 11
-604.5807699882403
 21
2303.59324373082
 31
0.0
1001
REVIT
1002
{
1070
     2
1000
-2000151
1002
}
  0
LINE
  5
2EFB
330
6C
100
AcDbEntity
  8
Layer1
100
AcDbLine
 10
-604.5759747192277
 20
2303.608148101868
 30
0.0
 11
-604.5807699130326
 21
2303.616865137223
 31
0.0
1001
REVIT
1002
{
1070
     2
1000
-2000151
1002
}
  0
LINE
  5
2EFC
330
6C
100
AcDbEntity
  8
Layer1
100
AcDbLine
 10
-604.5759746433913
 20
2303.631868214373
 30
0.0
 11
-604.5807698378244
 21
2303.64048654672
 31
0.0
1001
REVIT
1002
{
1070
     2
1000
-2000151
1002
}
  0
LINE
  5
2EFD
330
6C
100
AcDbEntity
  8
Layer1
100
AcDbLine
 10
-604.5759745675534
 20
2303.655588329998
 30
0.0
 11
-604.5759768499265
 21
2303.655592385094
 31
0.0
1001
REVIT
1002
{
1070
     2
1000
-2000151
1002
}
  0
LINE
  5
2EFE
330
6C
100
AcDbEntity
  8
Layer1
100
AcDbLine
 10
-604.5807693069487
 20
2303.569619794711
 30
0.0
 11
-604.5819618781832
 21
2303.575258401525
 31
0.0
1001
REVIT
1002
{
1070
     2
1000
-2000151
1002
}
  0
LINE
  5
2EFF
330
6C
100
AcDbEntity
  8
Layer1
100
AcDbLine
 10
-604.5807692789256
 20
2303.593241329847
 30
0.0
 11
-604.5819618502173
 21
2303.598855388964
 31
0.0
1001
REVIT
1002
{
1070
     2
1000
-2000151
1002
}
  0
LINE
  5
2F00
330
6C
100
AcDbEntity
  8
Layer1
100
AcDbLine
 10
-604.5807692509015
 20
2303.616862866134
 30
0.0
 11
-604.5819618222507
 21
2303.622452377558
 31
0.0
1001
REVIT
1002
{
1070
     2
1000
-2000151
1002
}
  0
LINE
  5
2F01
330
6C
100
AcDbEntity
  8
Layer1
100
AcDbLine
 10
-604.5807692228787
 20
2303.640484403581
 30
0.0
 11
-604.5819617942864
 21
2303.646049367304
 31
0.0
1001
REVIT
1002
{
1070
     2
1000
-2000151
1002
}
  0
LINE
  5
2F02
330
6C
100
AcDbEntity
  8
Layer1
100
AcDbLine
 10
-604.5819589493428
 20
2303.575252140274
 30
0.0
 11
-604.5819589493428
 21
2303.579971560935
 31
0.0
1001
REVIT
1002
{
1070
     2
1000
-2000151
1002
}
  0
LINE
  5
2F03
330
6C
100
AcDbEntity
  8
Layer1
100
AcDbLine
 10
-604.5819589493428
 20
2303.598849243592
 30
0.0
 11
-604.5819589493428
 21
2303.603568664254
 31
0.0
1001
REVIT
1002
{
1070
     2
1000
-2000151
1002
}
  0
LINE
  5
2F04
330
6C
100
AcDbEntity
  8
Layer1
100
AcDbLine
 10
-604.5819589493428
 20
2303.62244634691
 30
0.0
 11
-604.5819589493428
 21
2303.627165767572
 31
0.0
1001
REVIT
1002
{
1070
     2
1000
-2000151
1002
}
  0
LINE
  5
2F05
330
6C
100
AcDbEntity
  8
Layer1
100
AcDbLine
 10
-604.5819589493428
 20
2303.646043450228
 30
0.0
 11
-604.5819589493428
 21
2303.65076287089
 31
0.0
1001
REVIT
1002
{
1070
     2
1000
-2000151
1002
}
  0
LINE
  5
2F06
330
6C
100
AcDbEntity
  8
Layer1
100
AcDbLine
 10
-604.5826685839277
 20
2303.558733560405
 30
0.0
 11
-604.585810985433
 21
2303.569142292742
 31
0.0
1001
REVIT
1002
{
1070
     2
1000
-2000151
1002
}
  0
LINE
  5
2F07
330
6C
100
AcDbEntity
  8
Layer1
100
AcDbLine
 10
-604.5819522043461
 20
2303.579957817492
 30
0.0
 11
-604.5858110644789
 21
2303.592660280773
 31
0.0
1001
REVIT
1002
{
1070
     2
1000
-2000151
1002
}
  0
LINE
  5
2F08
330
6C
100
AcDbEntity
  8
Layer1
100
AcDbLine
 10
-604.5675997314455
 20
2303.552929644386
 30
0.0
 11
-604.5708253143865
 21
2303.563491327025
 31
0.0
1001
REVIT
1002
{
1070
     2
1000
-2000151
1002
}
  0
LINE
  5
2F09
330
6C
100
AcDbEntity
  8
Layer1
100
AcDbLine
 10
-604.581952283926
 20
2303.603555234513
 30
0.0
 11
-604.5858111435246
 21
2303.616178265545
 31
0.0
1001
REVIT
1002
{
1070
     2
1000
-2000151
1002
}
  0
LINE
  5
2F0A
330
6C
100
AcDbEntity
  8
Layer1
100
AcDbLine
 10
-604.5670351014835
 20
2303.574985058387
 30
0.0
 11
-604.57082539552
 21
2303.587317782805
 31
0.0
1001
REVIT
1002
{
1070
     2
1000
-2000151
1002
}
  0
LINE
  5
2F0B
330
6C
100
AcDbEntity
  8
Layer1
100
AcDbLine
 10
-604.581952363508
 20
2303.627152648263
 30
0.0
 11
-604.5858112225696
 21
2303.639696247064
 31
0.0
1001
REVIT
1002
{
1070
     2
1000
-2000151
1002
}
  0
LINE
  5
2F0C
330
6C
100
AcDbEntity
  8
Layer1
100
AcDbLine
 10
-604.5670351014835
 20
2303.598889267649
 30
0.0
 11
-604.5708254766516
 21
2303.611144235247
 31
0.0
1001
REVIT
1002
{
1070
     2
1000
-2000151
1002
}
  0
LINE
  5
2F0D
330
6C
100
AcDbEntity
  8
Layer1
100
AcDbLine
 10
-604.5819524430882
 20
2303.650750058731
 30
0.0
 11
-604.5842137645482
 21
2303.658054158434
 31
0.0
1001
REVIT
1002
{
1070
     2
1000
-2000151
1002
}
  0
LINE
  5
2F0E
330
6C
100
AcDbEntity
  8
Layer1
100
AcDbLine
 10
-604.5670351014835
 20
2303.62279347691
 30
0.0
 11
-604.5708255577851
 21
2303.634970684351
 31
0.0
1001
REVIT
1002
{
1070
     2
1000
-2000151
1002
}
  0
LINE
  5
2F0F
330
6C
100
AcDbEntity
  8
Layer1
100
AcDbLine
 10
-604.5670351014835
 20
2303.646697686171
 30
0.0
 11
-604.5691857983338
 21
2303.653562738002
 31
0.0
1001
REVIT
1002
{
1070
     2
1000
-2000151
1002
}
  0
LINE
  5
2F10
330
6C
100
AcDbEntity
  8
Layer1
100
AcDbLine
 10
-604.585818984739
 20
2303.639713250655
 30
0.0
 11
-604.5855230747591
 21
2303.644324696975
 31
0.0
1001
REVIT
1002
{
1070
     2
1000
-2000151
1002
}
  0
LINE
  5
2F11
330
6C
100
AcDbEntity
  8
Layer1
100
AcDbLine
 10
-604.5858189827115
 20
2303.616195590516
 30
0.0
 11
-604.5855230727299
 21
2303.620800945827
 31
0.0
1001
REVIT
1002
{
1070
     2
1000
-2000151
1002
}
  0
LINE
  5
2F12
330
6C
100
AcDbEntity
  8
Layer1
100
AcDbLine
 10
-604.5858189806843
 20
2303.59267793029
 30
0.0
 11
-604.585523070702
 21
2303.597277194595
 31
0.0
1001
REVIT
1002
{
1070
     2
1000
-2000151
1002
}
  0
LINE
  5
2F13
330
6C
100
AcDbEntity
  8
Layer1
100
AcDbLine
 10
-604.585818978657
 20
2303.56916026998
 30
0.0
 11
-604.5855230686743
 21
2303.573753443282
 31
0.0
1001
REVIT
1002
{
1070
     2
1000
-2000151
1002
}
  0
LINE
  5
2F14
330
6C
100
AcDbEntity
  8
Layer1
100
AcDbLine
 10
-604.5708333218684
 20
2303.634987499018
 30
0.0
 11
-604.570529597452
 21
2303.639658206383
 31
0.0
1001
REVIT
1002
{
1070
     2
1000
-2000151
1002
}
  0
LINE
  5
2F15
330
6C
100
AcDbEntity
  8
Layer1
100
AcDbLine
 10
-604.5708333197889
 20
2303.611161373801
 30
0.0
 11
-604.5705295953698
 21
2303.6158258293
 31
0.0
1001
REVIT
1002
{
1070
     2
1000
-2000151
1002
}
  0
LINE
  5
2F16
330
6C
100
AcDbEntity
  8
Layer1
100
AcDbLine
 10
-604.5708333177077
 20
2303.587335248497
 30
0.0
 11
-604.5705295932885
 21
2303.591993452139
 31
0.0
1001
REVIT
1002
{
1070
     2
1000
-2000151
1002
}
  0
LINE
  5
2F17
330
6C
100
AcDbEntity
  8
Layer1
100
AcDbLine
 10
-604.5708333156266
 20
2303.563509123108
 30
0.0
 11
-604.5705295912068
 21
2303.568161074895
 31
0.0
1001
REVIT
1002
{
1070
     2
1000
-2000151
1002
}
  0
LINE
  5
2F18
330
6C
100
AcDbEntity
  8
Layer1
100
AcDbLine
 10
-604.5855276376141
 20
2303.573761429417
 30
0.0
 11
-604.5870056401988
 21
2303.577131870437
 31
0.0
1001
REVIT
1002
{
1070
     2
1000
-2000151
1002
}
  0
LINE
  5
2F19
330
6C
100
AcDbEntity
  8
Layer1
100
AcDbLine
 10
-604.5855275449932
 20
2303.597284868728
 30
0.0
 11
-604.5870055478168
 21
2303.600624887076
 31
0.0
1001
REVIT
1002
{
1070
     2
1000
-2000151
1002
}
  0
LINE
  5
2F1A
330
6C
100
AcDbEntity
  8
Layer1
100
AcDbLine
 10
-604.5705341946797
 20
2303.568169070784
 30
0.0
 11
-604.5720512080688
 21
2303.571591000695
 31
0.0
1001
REVIT
1002
{
1070
     2
1000
-2000151
1002
}
  0
LINE
  5
2F1B
330
6C
100
AcDbEntity
  8
Layer1
100
AcDbLine
 10
-604.5855274523717
 20
2303.620808311851
 30
0.0
 11
-604.5870054554348
 21
2303.624117907516
 31
0.0
1001
REVIT
1002
{
1070
     2
1000
-2000151
1002
}
  0
LINE
  5
2F1C
330
6C
100
AcDbEntity
  8
Layer1
100
AcDbLine
 10
-604.5705340996126
 20
2303.592001132015
 30
0.0
 11
-604.5720511132498
 21
2303.595391836267
 31
0.0
1001
REVIT
1002
{
1070
     2
1000
-2000151
1002
}
  0
LINE
  5
2F1D
330
6C
100
AcDbEntity
  8
Layer1
100
AcDbLine
 10
-604.5855273597517
 20
2303.644331758789
 30
0.0
 11
-604.5870053630539
 21
2303.647610931761
 31
0.0
1001
REVIT
1002
{
1070
     2
1000
-2000151
1002
}
  0
LINE
  5
2F1E
330
6C
100
AcDbEntity
  8
Layer1
100
AcDbLine
 10
-604.5705340045437
 20
2303.615833197158
 30
0.0
 11
-604.5720510184318
 21
2303.619192675748
 31
0.0
1001
REVIT
1002
{
1070
     2
1000
-2000151
1002
}
  0
LINE
  5
2F1F
330
6C
100
AcDbEntity
  8
Layer1
100
AcDbLine
 10
-604.5705339094779
 20
2303.639665266217
 30
0.0
 11
-604.5720509236133
 21
2303.642993519132
 31
0.0
1001
REVIT
1002
{
1070
     2
1000
-2000151
1002
}
  0
LINE
  5
2F22
330
6C
100
AcDbEntity
  8
Layer1
100
AcDbLine
 10
-604.5961259218491
 20
2303.536838136514
 30
0.0
 11
-604.5942841939908
 21
2303.538205061664
 31
0.0
1001
REVIT
1002
{
1070
     2
1000
-2000151
1002
}
  0
LINE
  5
2F23
330
6C
100
AcDbEntity
  8
Layer1
100
AcDbLine
 10
-604.5942857104692
 20
2303.538206558707
 30
0.0
 11
-604.5919134696321
 21
2303.544355500736
 31
0.0
1001
REVIT
1002
{
1070
     2
1000
-2000151
1002
}
  0
LINE
  5
2F2A
330
6C
100
AcDbEntity
  8
Layer1
100
AcDbLine
 10
-604.6147676076263
 20
2303.553518754879
 30
0.0
 11
-604.6135912863396
 21
2303.557885666511
 31
0.0
1001
REVIT
1002
{
1070
     2
1000
-2000151
1002
}
  0
LINE
  5
2F2C
330
6C
100
AcDbEntity
  8
Layer1
100
AcDbLine
 10
-604.6135903449071
 20
2303.557884750384
 30
0.0
 11
-604.6127006734687
 21
2303.561467716206
 31
0.0
1001
REVIT
1002
{
1070
     2
1000
-2000151
1002
}
  0
LINE
  5
2F2D
330
6C
100
AcDbEntity
  8
Layer1
100
AcDbLine
 10
-604.6126989988874
 20
2303.561466958983
 30
0.0
 11
-604.6077904711104
 21
2303.568477063144
 31
0.0
1001
REVIT
1002
{
1070
     2
1000
-2000151
1002
}
  0
LINE
  5
2F31
330
6C
100
AcDbEntity
  8
Layer1
100
AcDbLine
 10
-604.6000016742088
 20
2303.429790437248
 30
0.0
 11
-604.6013819029068
 21
2303.437154116354
 31
0.0
1001
REVIT
1002
{
1070
     2
1000
-2000151
1002
}
  0
LINE
  5
2F32
330
6C
100
AcDbEntity
  8
Layer1
100
AcDbLine
 10
-604.599606581747
 20
2303.451529291552
 30
0.0
 11
-604.6013818835905
 21
2303.460963224654
 31
0.0
1001
REVIT
1002
{
1070
     2
1000
-2000151
1002
}
  0
LINE
  5
2F33
330
6C
100
AcDbEntity
  8
Layer1
100
AcDbLine
 10
-604.5996065623711
 20
2303.475375907107
 30
0.0
 11
-604.6013818642745
 21
2303.484772333767
 31
0.0
1001
REVIT
1002
{
1070
     2
1000
-2000151
1002
}
  0
LINE
  5
2F34
330
6C
100
AcDbEntity
  8
Layer1
100
AcDbLine
 10
-604.5996065429941
 20
2303.499222523476
 30
0.0
 11
-604.6013818449591
 21
2303.508581443701
 31
0.0
1001
REVIT
1002
{
1070
     2
1000
-2000151
1002
}
  0
LINE
  5
2F35
330
6C
100
AcDbEntity
  8
Layer1
100
AcDbLine
 10
-604.5996065236177
 20
2303.523069140666
 30
0.0
 11
-604.6013818256442
 21
2303.532390554447
 31
0.0
1001
REVIT
1002
{
1070
     2
1000
-2000151
1002
}
  0
LINE
  5
2F36
330
6C
100
AcDbEntity
  8
Layer1
100
AcDbLine
 10
-604.6013683548066
 20
2303.437130508922
 30
0.0
 11
-604.6034325526563
 21
2303.4410133785
 31
0.0
1001
REVIT
1002
{
1070
     2
1000
-2000151
1002
}
  0
LINE
  5
2F37
330
6C
100
AcDbEntity
  8
Layer1
100
AcDbLine
 10
-604.6013685971173
 20
2303.460940333439
 30
0.0
 11
-604.6034327940808
 21
2303.464779591328
 31
0.0
1001
REVIT
1002
{
1070
     2
1000
-2000151
1002
}
  0
LINE
  5
2F38
330
6C
100
AcDbEntity
  8
Layer1
100
AcDbLine
 10
-604.6013688394297
 20
2303.484750147721
 30
0.0
 11
-604.6034330355045
 21
2303.488545793965
 31
0.0
1001
REVIT
1002
{
1070
     2
1000
-2000151
1002
}
  0
LINE
  5
2F39
330
6C
100
AcDbEntity
  8
Layer1
100
AcDbLine
 10
-604.6013690817401
 20
2303.508559951761
 30
0.0
 11
-604.6034332769291
 21
2303.512311986395
 31
0.0
1001
REVIT
1002
{
1070
     2
1000
-2000151
1002
}
  0
LINE
  5
2F3A
330
6C
100
AcDbEntity
  8
Layer1
100
AcDbLine
 10
-604.601369324052
 20
2303.53236974556
 30
0.0
 11
-604.6034335183547
 21
2303.536078168627
 31
0.0
1001
REVIT
1002
{
1070
     2
1000
-2000151
1002
}
  0
LINE
  5
2F3B
330
6C
100
AcDbEntity
  8
Layer1
100
AcDbLine
 10
-604.6034491595896
 20
2303.441044735913
 30
0.0
 11
-604.6081389053202
 21
2303.45047496972
 31
0.0
1001
REVIT
1002
{
1070
     2
1000
-2000151
1002
}
  0
LINE
  5
2F3C
330
6C
100
AcDbEntity
  8
Layer1
100
AcDbLine
 10
-604.5900200340595
 20
2303.436587253792
 30
0.0
 11
-604.5933518186679
 21
2303.443220881597
 31
0.0
1001
REVIT
1002
{
1070
     2
1000
-2000151
1002
}
  0
LINE
  5
2F3D
330
6C
100
AcDbEntity
  8
Layer1
100
AcDbLine
 10
-604.6034490854195
 20
2303.464810014238
 30
0.0
 11
-604.608138831767
 21
2303.474141169585
 31
0.0
1001
REVIT
1002
{
1070
     2
1000
-2000151
1002
}
  0
LINE
  5
2F3E
330
6C
100
AcDbEntity
  8
Layer1
100
AcDbLine
 10
-604.5900200340595
 20
2303.460636395202
 30
0.0
 11
-604.5933517431604
 21
2303.467199484059
 31
0.0
1001
REVIT
1002
{
1070
     2
1000
-2000151
1002
}
  0
LINE
  5
2F3F
330
6C
100
AcDbEntity
  8
Layer1
100
AcDbLine
 10
-604.6034490112482
 20
2303.488575295697
 30
0.0
 11
-604.608138758213
 21
2303.49780737256
 31
0.0
1001
REVIT
1002
{
1070
     2
1000
-2000151
1002
}
  0
LINE
  5
2F40
330
6C
100
AcDbEntity
  8
Layer1
100
AcDbLine
 10
-604.5900200340591
 20
2303.484685536613
 30
0.0
 11
-604.5933516676515
 21
2303.491178089709
 31
0.0
1001
REVIT
1002
{
1070
     2
1000
-2000151
1002
}
  0
LINE
  5
2F41
330
6C
100
AcDbEntity
  8
Layer1
100
AcDbLine
 10
-604.6034489370785
 20
2303.512340580292
 30
0.0
 11
-604.6081386846601
 21
2303.521473578638
 31
0.0
1001
REVIT
1002
{
1070
     2
1000
-2000151
1002
}
  0
LINE
  5
2F42
330
6C
100
AcDbEntity
  8
Layer1
100
AcDbLine
 10
-604.5900200340591
 20
2303.508734678023
 30
0.0
 11
-604.5933515921436
 21
2303.515156698543
 31
0.0
1001
REVIT
1002
{
1070
     2
1000
-2000151
1002
}
  0
LINE
  5
2F43
330
6C
100
AcDbEntity
  8
Layer1
100
AcDbLine
 10
-604.6034488629081
 20
2303.53610586802
 30
0.0
 11
-604.6059059034923
 21
2303.540838895605
 31
0.0
1001
REVIT
1002
{
1070
     2
1000
-2000151
1002
}
  0
LINE
  5
2F44
330
6C
100
AcDbEntity
  8
Layer1
100
AcDbLine
 10
-604.5900200340591
 20
2303.532783819432
 30
0.0
 11
-604.5910595105789
 21
2303.534765587538
 31
0.0
1001
REVIT
1002
{
1070
     2
1000
-2000151
1002
}
  0
LINE
  5
2F45
330
6C
100
AcDbEntity
  8
Layer1
100
AcDbLine
 10
-604.6081379387695
 20
2303.450471732645
 30
0.0
 11
-604.6093042741624
 21
2303.456245079587
 31
0.0
1001
REVIT
1002
{
1070
     2
1000
-2000151
1002
}
  0
LINE
  5
2F46
330
6C
100
AcDbEntity
  8
Layer1
100
AcDbLine
 10
-604.6081379113628
 20
2303.474138074312
 30
0.0
 11
-604.6093042468125
 21
2303.479886780397
 31
0.0
1001
REVIT
1002
{
1070
     2
1000
-2000151
1002
}
  0
LINE
  5
2F47
330
6C
100
AcDbEntity
  8
Layer1
100
AcDbLine
 10
-604.6081378839557
 20
2303.497804417139
 30
0.0
 11
-604.6093042194625
 21
2303.503528482364
 31
0.0
1001
REVIT
1002
{
1070
     2
1000
-2000151
1002
}
  0
LINE
  5
2F48
330
6C
100
AcDbEntity
  8
Layer1
100
AcDbLine
 10
-604.5933508222863
 20
2303.443217604519
 30
0.0
 11
-604.5945481366568
 21
2303.44907473406
 31
0.0
1001
REVIT
1002
{
1070
     2
1000
-2000151
1002
}
  0
LINE
  5
2F49
330
6C
100
AcDbEntity
  8
Layer1
100
AcDbLine
 10
-604.6081378565482
 20
2303.52147076112
 30
0.0
 11
-604.6093041921123
 21
2303.527170185483
 31
0.0
1001
REVIT
1002
{
1070
     2
1000
-2000151
1002
}
  0
LINE
  5
2F4A
330
6C
100
AcDbEntity
  8
Layer1
100
AcDbLine
 10
-604.5933507941507
 20
2303.467196351305
 30
0.0
 11
-604.5945481085798
 21
2303.473028185502
 31
0.0
1001
REVIT
1002
{
1070
     2
1000
-2000151
1002
}
  0
LINE
  5
2F4B
330
6C
100
AcDbEntity
  8
Layer1
100
AcDbLine
 10
-604.5933507660151
 20
2303.491175099281
 30
0.0
 11
-604.5945480805039
 21
2303.496981638128
 31
0.0
1001
REVIT
1002
{
1070
     2
1000
-2000151
1002
}
  0
LINE
  5
2F4C
330
6C
100
AcDbEntity
  8
Layer1
100
AcDbLine
 10
-604.59335073788
 20
2303.515153848445
 30
0.0
 11
-604.5945480524268
 21
2303.520935091939
 31
0.0
1001
REVIT
1002
{
1070
     2
1000
-2000151
1002
}
  0
LINE
  5
2F4D
330
6C
100
AcDbEntity
  8
Layer1
100
AcDbLine
 10
-604.6093012019452
 20
2303.434489986116
 30
0.0
 11
-604.6093012019452
 21
2303.437324581219
 31
0.0
1001
REVIT
1002
{
1070
     2
1000
-2000151
1002
}
  0
LINE
  5
2F4E
330
6C
100
AcDbEntity
  8
Layer1
100
AcDbLine
 10
-604.6093012019452
 20
2303.456238040677
 30
0.0
 11
-604.6093012019452
 21
2303.460966405538
 31
0.0
1001
REVIT
1002
{
1070
     2
1000
-2000151
1002
}
  0
LINE
  5
2F4F
330
6C
100
AcDbEntity
  8
Layer1
100
AcDbLine
 10
-604.6093012019452
 20
2303.479879864993
 30
0.0
 11
-604.609301201946
 21
2303.484608229858
 31
0.0
1001
REVIT
1002
{
1070
     2
1000
-2000151
1002
}
  0
LINE
  5
2F50
330
6C
100
AcDbEntity
  8
Layer1
100
AcDbLine
 10
-604.6093012019454
 20
2303.503521689314
 30
0.0
 11
-604.6093012019454
 21
2303.508250054179
 31
0.0
1001
REVIT
1002
{
1070
     2
1000
-2000151
1002
}
  0
LINE
  5
2F51
330
6C
100
AcDbEntity
  8
Layer1
100
AcDbLine
 10
-604.6093012019454
 20
2303.527163513632
 30
0.0
 11
-604.6093012019454
 21
2303.531891878497
 31
0.0
1001
REVIT
1002
{
1070
     2
1000
-2000151
1002
}
  0
LINE
  5
2F52
330
6C
100
AcDbEntity
  8
Layer1
100
AcDbLine
 10
-604.5945450558319
 20
2303.42703291606
 30
0.0
 11
-604.5945450558319
 21
2303.429904889415
 31
0.0
1001
REVIT
1002
{
1070
     2
1000
-2000151
1002
}
  0
LINE
  5
2F53
330
6C
100
AcDbEntity
  8
Layer1
100
AcDbLine
 10
-604.5945450558319
 20
2303.449067750275
 30
0.0
 11
-604.5945450558319
 21
2303.453858465488
 31
0.0
1001
REVIT
1002
{
1070
     2
1000
-2000151
1002
}
  0
LINE
  5
2F54
330
6C
100
AcDbEntity
  8
Layer1
100
AcDbLine
 10
-604.5945450558319
 20
2303.473021326348
 30
0.0
 11
-604.5945450558319
 21
2303.477812041564
 31
0.0
1001
REVIT
1002
{
1070
     2
1000
-2000151
1002
}
  0
LINE
  5
2F55
330
6C
100
AcDbEntity
  8
Layer1
100
AcDbLine
 10
-604.5945450558324
 20
2303.496974902426
 30
0.0
 11
-604.5945450558324
 21
2303.501765617642
 31
0.0
1001
REVIT
1002
{
1070
     2
1000
-2000151
1002
}
  0
LINE
  5
2F56
330
6C
100
AcDbEntity
  8
Layer1
100
AcDbLine
 10
-604.5945450558324
 20
2303.520928478501
 30
0.0
 11
-604.5945450558324
 21
2303.525719193718
 31
0.0
1001
REVIT
1002
{
1070
     2
1000
-2000151
1002
}
  0
LINE
  5
2F57
330
6C
100
AcDbEntity
  8
Layer1
100
AcDbLine
 10
-604.6092939809201
 20
2303.437308509418
 30
0.0
 11
-604.6121127741147
 21
2303.447173349277
 31
0.0
1001
REVIT
1002
{
1070
     2
1000
-2000151
1002
}
  0
LINE
  5
2F58
330
6C
100
AcDbEntity
  8
Layer1
100
AcDbLine
 10
-604.6092940587505
 20
2303.460950671406
 30
0.0
 11
-604.6121127741147
 21
2303.470755688364
 31
0.0
1001
REVIT
1002
{
1070
     2
1000
-2000151
1002
}
  0
LINE
  5
2F59
330
6C
100
AcDbEntity
  8
Layer1
100
AcDbLine
 10
-604.5945378047372
 20
2303.429888903596
 30
0.0
 11
-604.5984117598019
 21
2303.443295362161
 31
0.0
1001
REVIT
1002
{
1070
     2
1000
-2000151
1002
}
  0
LINE
  5
2F5A
330
6C
100
AcDbEntity
  8
Layer1
100
AcDbLine
 10
-604.6092941365814
 20
2303.484592830113
 30
0.0
 11
-604.6121127741156
 21
2303.494338027453
 31
0.0
1001
REVIT
1002
{
1070
     2
1000
-2000151
1002
}
  0
LINE
  5
2F5B
330
6C
100
AcDbEntity
  8
Layer1
100
AcDbLine
 10
-604.594537884633
 20
2303.453842820919
 30
0.0
 11
-604.5984118391523
 21
2303.467167433207
 31
0.0
1001
REVIT
1002
{
1070
     2
1000
-2000151
1002
}
  0
LINE
  5
2F5C
330
6C
100
AcDbEntity
  8
Layer1
100
AcDbLine
 10
-604.6092942144102
 20
2303.508234985525
 30
0.0
 11
-604.6121127741156
 21
2303.517920366537
 31
0.0
1001
REVIT
1002
{
1070
     2
1000
-2000151
1002
}
  0
LINE
  5
2F5D
330
6C
100
AcDbEntity
  8
Layer1
100
AcDbLine
 10
-604.5945379645291
 20
2303.477796734869
 30
0.0
 11
-604.5984119185038
 21
2303.491039500905
 31
0.0
1001
REVIT
1002
{
1070
     2
1000
-2000151
1002
}
  0
LINE
  5
2F5E
330
6C
100
AcDbEntity
  8
Layer1
100
AcDbLine
 10
-604.6092942922395
 20
2303.53187713765
 30
0.0
 11
-604.6121127741156
 21
2303.541502705622
 31
0.0
1001
REVIT
1002
{
1070
     2
1000
-2000151
1002
}
  0
LINE
  5
2F5F
330
6C
100
AcDbEntity
  8
Layer1
100
AcDbLine
 10
-604.594538044425
 20
2303.501750645444
 30
0.0
 11
-604.5984119978544
 21
2303.514911565251
 31
0.0
1001
REVIT
1002
{
1070
     2
1000
-2000151
1002
}
  0
LINE
  5
2F60
330
6C
100
AcDbEntity
  8
Layer1
100
AcDbLine
 10
-604.5945381243201
 20
2303.525704552641
 30
0.0
 11
-604.5980715817016
 21
2303.537634059923
 31
0.0
1001
REVIT
1002
{
1070
     2
1000
-2000151
1002
}
  0
LINE
  5
2F61
330
6C
100
AcDbEntity
  8
Layer1
100
AcDbLine
 10
-604.5984201765625
 20
2303.514930540185
 30
0.0
 11
-604.598123123308
 21
2303.519578625031
 31
0.0
1001
REVIT
1002
{
1070
     2
1000
-2000151
1002
}
  0
LINE
  5
2F62
330
6C
100
AcDbEntity
  8
Layer1
100
AcDbLine
 10
-604.5984201745263
 20
2303.491058821232
 30
0.0
 11
-604.5981231212717
 21
2303.495700630265
 31
0.0
1001
REVIT
1002
{
1070
     2
1000
-2000151
1002
}
  0
LINE
  5
2F63
330
6C
100
AcDbEntity
  8
Layer1
100
AcDbLine
 10
-604.598420172492
 20
2303.46718710219
 30
0.0
 11
-604.5981231192358
 21
2303.471822635413
 31
0.0
1001
REVIT
1002
{
1070
     2
1000
-2000151
1002
}
  0
LINE
  5
2F64
330
6C
100
AcDbEntity
  8
Layer1
100
AcDbLine
 10
-604.5984201704571
 20
2303.443315383066
 30
0.0
 11
-604.5981231171997
 21
2303.447944640476
 31
0.0
1001
REVIT
1002
{
1070
     2
1000
-2000151
1002
}
  0
LINE
  5
2F65
330
6C
100
AcDbEntity
  8
Layer1
100
AcDbLine
 10
-604.5981281788854
 20
2303.44795442639
 30
0.0
 11
-604.5996118673262
 21
2303.451540708006
 31
0.0
1001
REVIT
1002
{
1070
     2
1000
-2000151
1002
}
  0
LINE
  5
2F66
330
6C
100
AcDbEntity
  8
Layer1
100
AcDbLine
 10
-604.5981280859061
 20
2303.471832082602
 30
0.0
 11
-604.5996117745913
 21
2303.475387019051
 31
0.0
1001
REVIT
1002
{
1070
     2
1000
-2000151
1002
}
  0
LINE
  5
2F67
330
6C
100
AcDbEntity
  8
Layer1
100
AcDbLine
 10
-604.5981279929271
 20
2303.495709742749
 30
0.0
 11
-604.5996116818558
 21
2303.499233334016
 31
0.0
1001
REVIT
1002
{
1070
     2
1000
-2000151
1002
}
  0
LINE
  5
2F68
330
6C
100
AcDbEntity
  8
Layer1
100
AcDbLine
 10
-604.5981278999486
 20
2303.519587406821
 30
0.0
 11
-604.599611589121
 21
2303.523079652893
 31
0.0
1001
REVIT
1002
{
1070
     2
1000
-2000151
1002
}
  0
LINE
  5
2F69
330
6C
100
AcDbEntity
  8
Layer1
100
AcDbLine
 10
-604.5996064848654
 20
2303.570762377509
 30
0.0
 11
-604.6013817870131
 21
2303.580008778389
 31
0.0
1001
REVIT
1002
{
1070
     2
1000
-2000151
1002
}
  0
LINE
  5
2F6A
330
6C
100
AcDbEntity
  8
Layer1
100
AcDbLine
 10
-604.5996064654879
 20
2303.594608997153
 30
0.0
 11
-604.6013817676973
 21
2303.603817891583
 31
0.0
1001
REVIT
1002
{
1070
     2
1000
-2000151
1002
}
  0
LINE
  5
2F6B
330
6C
100
AcDbEntity
  8
Layer1
100
AcDbLine
 10
-604.5996064461116
 20
2303.618455617619
 30
0.0
 11
-604.6013817483814
 21
2303.627627005598
 31
0.0
1001
REVIT
1002
{
1070
     2
1000
-2000151
1002
}
  0
LINE
  5
2F6C
330
6C
100
AcDbEntity
  8
Layer1
100
AcDbLine
 10
-604.5996064267348
 20
2303.642302238901
 30
0.0
 11
-604.6013817290661
 21
2303.651436120425
 31
0.0
1001
REVIT
1002
{
1070
     2
1000
-2000151
1002
}
  0
LINE
  5
2F6D
330
6C
100
AcDbEntity
  8
Layer1
100
AcDbLine
 10
-604.6013698086737
 20
2303.579989302446
 30
0.0
 11
-604.6034340012028
 21
2303.583610502479
 31
0.0
1001
REVIT
1002
{
1070
     2
1000
-2000151
1002
}
  0
LINE
  5
2F6E
330
6C
100
AcDbEntity
  8
Layer1
100
AcDbLine
 10
-604.6013700509843
 20
2303.603799065528
 30
0.0
 11
-604.603434242627
 21
2303.607376654106
 31
0.0
1001
REVIT
1002
{
1070
     2
1000
-2000151
1002
}
  0
LINE
  5
2F6F
330
6C
100
AcDbEntity
  8
Layer1
100
AcDbLine
 10
-604.6013702932949
 20
2303.627608818377
 30
0.0
 11
-604.6034344840505
 21
2303.631142795532
 31
0.0
1001
REVIT
1002
{
1070
     2
1000
-2000151
1002
}
  0
LINE
  5
2F70
330
6C
100
AcDbEntity
  8
Layer1
100
AcDbLine
 10
-604.6013705356053
 20
2303.651418560979
 30
0.0
 11
-604.6034347254744
 21
2303.654908926754
 31
0.0
1001
REVIT
1002
{
1070
     2
1000
-2000151
1002
}
  0
LINE
  5
2F71
330
6C
100
AcDbEntity
  8
Layer1
100
AcDbLine
 10
-604.6079658840324
 20
2303.568477063144
 30
0.0
 11
-604.6081385375538
 21
2303.56880600012
 31
0.0
1001
REVIT
1002
{
1070
     2
1000
-2000151
1002
}
  0
LINE
  5
2F72
330
6C
100
AcDbEntity
  8
Layer1
100
AcDbLine
 10
-604.5931742947649
 20
2303.562779937763
 30
0.0
 11
-604.5933514411281
 21
2303.563113925797
 31
0.0
1001
REVIT
1002
{
1070
     2
1000
-2000151
1002
}
  0
LINE
  5
2F73
330
6C
100
AcDbEntity
  8
Layer1
100
AcDbLine
 10
-604.6034487145675
 20
2303.583636452877
 30
0.0
 11
-604.6081384640005
 21
2303.592472215525
 31
0.0
1001
REVIT
1002
{
1070
     2
1000
-2000151
1002
}
  0
LINE
  5
2F74
330
6C
100
AcDbEntity
  8
Layer1
100
AcDbLine
 10
-604.5900200340595
 20
2303.58088210225
 30
0.0
 11
-604.5933513656203
 21
2303.587092544207
 31
0.0
1001
REVIT
1002
{
1070
     2
1000
-2000151
1002
}
  0
LINE
  5
2F75
330
6C
100
AcDbEntity
  8
Layer1
100
AcDbLine
 10
-604.6034486403965
 20
2303.607401750008
 30
0.0
 11
-604.6081383904475
 21
2303.616138434034
 31
0.0
1001
REVIT
1002
{
1070
     2
1000
-2000151
1002
}
  0
LINE
  5
2F76
330
6C
100
AcDbEntity
  8
Layer1
100
AcDbLine
 10
-604.5900200340595
 20
2303.604931243663
 30
0.0
 11
-604.5933512901121
 21
2303.611071165809
 31
0.0
1001
REVIT
1002
{
1070
     2
1000
-2000151
1002
}
  0
LINE
  5
2F77
330
6C
100
AcDbEntity
  8
Layer1
100
AcDbLine
 10
-604.6034485662257
 20
2303.631167050273
 30
0.0
 11
-604.6081383168939
 21
2303.639804655654
 31
0.0
1001
REVIT
1002
{
1070
     2
1000
-2000151
1002
}
  0
LINE
  5
2F78
330
6C
100
AcDbEntity
  8
Layer1
100
AcDbLine
 10
-604.5900200340595
 20
2303.628980385073
 30
0.0
 11
-604.5933512146041
 21
2303.6350497906
 31
0.0
1001
REVIT
1002
{
1070
     2
1000
-2000151
1002
}
  0
LINE
  5
2F79
330
6C
100
AcDbEntity
  8
Layer1
100
AcDbLine
 10
-604.6034484920554
 20
2303.654932353668
 30
0.0
 11
-604.6081382433406
 21
2303.663470880382
 31
0.0
1001
REVIT
1002
{
1070
     2
1000
-2000151
1002
}
  0
LINE
  5
2F7A
330
6C
100
AcDbEntity
  8
Layer1
100
AcDbLine
 10
-604.5900200340593
 20
2303.653029526481
 30
0.0
 11
-604.5933511390964
 21
2303.659028418583
 31
0.0
1001
REVIT
1002
{
1070
     2
1000
-2000151
1002
}
  0
LINE
  5
2F7B
330
6C
100
AcDbEntity
  8
Layer1
100
AcDbLine
 10
-604.6081378017336
 20
2303.56880345257
 30
0.0
 11
-604.6093041374119
 21
2303.57445359519
 31
0.0
1001
REVIT
1002
{
1070
     2
1000
-2000151
1002
}
  0
LINE
  5
2F7C
330
6C
100
AcDbEntity
  8
Layer1
100
AcDbLine
 10
-604.6081377743267
 20
2303.592469800032
 30
0.0
 11
-604.6093041100617
 21
2303.598095301775
 31
0.0
1001
REVIT
1002
{
1070
     2
1000
-2000151
1002
}
  0
LINE
  5
2F7D
330
6C
100
AcDbEntity
  8
Layer1
100
AcDbLine
 10
-604.6081377469193
 20
2303.616136148643
 30
0.0
 11
-604.6093040827109
 21
2303.621737009521
 31
0.0
1001
REVIT
1002
{
1070
     2
1000
-2000151
1002
}
  0
LINE
  5
2F7E
330
6C
100
AcDbEntity
  8
Layer1
100
AcDbLine
 10
-604.5933506816091
 20
2303.563111350336
 30
0.0
 11
-604.5945479962747
 21
2303.56884200313
 31
0.0
1001
REVIT
1002
{
1070
     2
1000
-2000151
1002
}
  0
LINE
  5
2F7F
330
6C
100
AcDbEntity
  8
Layer1
100
AcDbLine
 10
-604.6081377195122
 20
2303.639802498421
 30
0.0
 11
-604.609304055361
 21
2303.645378718419
 31
0.0
1001
REVIT
1002
{
1070
     2
1000
-2000151
1002
}
  0
LINE
  5
2F80
330
6C
100
AcDbEntity
  8
Layer1
100
AcDbLine
 10
-604.593350653474
 20
2303.587090103068
 30
0.0
 11
-604.5945479681994
 21
2303.592795460502
 31
0.0
1001
REVIT
1002
{
1070
     2
1000
-2000151
1002
}
  0
LINE
  5
2F81
330
6C
100
AcDbEntity
  8
Layer1
100
AcDbLine
 10
-604.6081376921051
 20
2303.663468849356
 30
0.0
 11
-604.6085267264901
 21
2303.665320593057
 31
0.0
1001
REVIT
1002
{
1070
     2
1000
-2000151
1002
}
  0
LINE
  5
2F82
330
6C
100
AcDbEntity
  8
Layer1
100
AcDbLine
 10
-604.5933506253379
 20
2303.611068856987
 30
0.0
 11
-604.5945479401226
 21
2303.616748919059
 31
0.0
1001
REVIT
1002
{
1070
     2
1000
-2000151
1002
}
  0
LINE
  5
2F83
330
6C
100
AcDbEntity
  8
Layer1
100
AcDbLine
 10
-604.5933505972018
 20
2303.635047612092
 30
0.0
 11
-604.5945479120449
 21
2303.640702378807
 31
0.0
1001
REVIT
1002
{
1070
     2
1000
-2000151
1002
}
  0
LINE
  5
2F84
330
6C
100
AcDbEntity
  8
Layer1
100
AcDbLine
 10
-604.5933505690669
 20
2303.659026368389
 30
0.0
 11
-604.5937499703374
 21
2303.660904251984
 31
0.0
1001
REVIT
1002
{
1070
     2
1000
-2000151
1002
}
  0
LINE
  5
2F85
330
6C
100
AcDbEntity
  8
Layer1
100
AcDbLine
 10
-604.6093012019455
 20
2303.57444716227
 30
0.0
 11
-604.6093012019455
 21
2303.579175527133
 31
0.0
1001
REVIT
1002
{
1070
     2
1000
-2000151
1002
}
  0
LINE
  5
2F86
330
6C
100
AcDbEntity
  8
Layer1
100
AcDbLine
 10
-604.6093012019455
 20
2303.598088986587
 30
0.0
 11
-604.6093012019455
 21
2303.602817351452
 31
0.0
1001
REVIT
1002
{
1070
     2
1000
-2000151
1002
}
  0
LINE
  5
2F87
330
6C
100
AcDbEntity
  8
Layer1
100
AcDbLine
 10
-604.6093012019455
 20
2303.621730810906
 30
0.0
 11
-604.6093012019455
 21
2303.626459175772
 31
0.0
1001
REVIT
1002
{
1070
     2
1000
-2000151
1002
}
  0
LINE
  5
2F88
330
6C
100
AcDbEntity
  8
Layer1
100
AcDbLine
 10
-604.6093012019455
 20
2303.645372635226
 30
0.0
 11
-604.6093012019455
 21
2303.650101000088
 31
0.0
1001
REVIT
1002
{
1070
     2
1000
-2000151
1002
}
  0
LINE
  5
2F89
330
6C
100
AcDbEntity
  8
Layer1
100
AcDbLine
 10
-604.594545055832
 20
2303.568835630649
 30
0.0
 11
-604.594545055832
 21
2303.573626345863
 31
0.0
1001
REVIT
1002
{
1070
     2
1000
-2000151
1002
}
  0
LINE
  5
2F8A
330
6C
100
AcDbEntity
  8
Layer1
100
AcDbLine
 10
-604.594545055832
 20
2303.592789206722
 30
0.0
 11
-604.594545055832
 21
2303.597579921939
 31
0.0
1001
REVIT
1002
{
1070
     2
1000
-2000151
1002
}
  0
LINE
  5
2F8B
330
6C
100
AcDbEntity
  8
Layer1
100
AcDbLine
 10
-604.594545055832
 20
2303.616742782798
 30
0.0
 11
-604.594545055832
 21
2303.621533498014
 31
0.0
1001
REVIT
1002
{
1070
     2
1000
-2000151
1002
}
  0
LINE
  5
2F8C
330
6C
100
AcDbEntity
  8
Layer1
100
AcDbLine
 10
-604.594545055832
 20
2303.640696358874
 30
0.0
 11
-604.594545055832
 21
2303.645487074087
 31
0.0
1001
REVIT
1002
{
1070
     2
1000
-2000151
1002
}
  0
LINE
  5
2F8D
330
6C
100
AcDbEntity
  8
Layer1
100
AcDbLine
 10
-604.6092944479002
 20
2303.579161432036
 30
0.0
 11
-604.6121127741147
 21
2303.588667383789
 31
0.0
1001
REVIT
1002
{
1070
     2
1000
-2000151
1002
}
  0
LINE
  5
2F8E
330
6C
100
AcDbEntity
  8
Layer1
100
AcDbLine
 10
-604.609294525729
 20
2303.602803574292
 30
0.0
 11
-604.6121127741147
 21
2303.612249722874
 31
0.0
1001
REVIT
1002
{
1070
     2
1000
-2000151
1002
}
  0
LINE
  5
2F8F
330
6C
100
AcDbEntity
  8
Layer1
100
AcDbLine
 10
-604.5945382841124
 20
2303.573612356904
 30
0.0
 11
-604.5984122359064
 21
2303.586527738168
 31
0.0
1001
REVIT
1002
{
1070
     2
1000
-2000151
1002
}
  0
LINE
  5
2F90
330
6C
100
AcDbEntity
  8
Layer1
100
AcDbLine
 10
-604.6092946035578
 20
2303.626445713263
 30
0.0
 11
-604.6121127741147
 21
2303.635832061958
 31
0.0
1001
REVIT
1002
{
1070
     2
1000
-2000151
1002
}
  0
LINE
  5
2F91
330
6C
100
AcDbEntity
  8
Layer1
100
AcDbLine
 10
-604.5945383640092
 20
2303.597566253977
 30
0.0
 11
-604.5984123152582
 21
2303.610399789096
 31
0.0
1001
REVIT
1002
{
1070
     2
1000
-2000151
1002
}
  0
LINE
  5
2F92
330
6C
100
AcDbEntity
  8
Layer1
100
AcDbLine
 10
-604.609294681388
 20
2303.650087848945
 30
0.0
 11
-604.6121127741147
 21
2303.659414401043
 31
0.0
1001
REVIT
1002
{
1070
     2
1000
-2000151
1002
}
  0
LINE
  5
2F93
330
6C
100
AcDbEntity
  8
Layer1
100
AcDbLine
 10
-604.5945384439049
 20
2303.621520147671
 30
0.0
 11
-604.5984123946087
 21
2303.63427183668
 31
0.0
1001
REVIT
1002
{
1070
     2
1000
-2000151
1002
}
  0
LINE
  5
2F94
330
6C
100
AcDbEntity
  8
Layer1
100
AcDbLine
 10
-604.5945385237999
 20
2303.645474037985
 30
0.0
 11
-604.5984124739596
 21
2303.658143880907
 31
0.0
1001
REVIT
1002
{
1070
     2
1000
-2000151
1002
}
  0
LINE
  5
2F95
330
6C
100
AcDbEntity
  8
Layer1
100
AcDbLine
 10
-604.5984201887719
 20
2303.6581608521
 30
0.0
 11
-604.5981626633427
 21
2303.662223077111
 31
0.0
1001
REVIT
1002
{
1070
     2
1000
-2000151
1002
}
  0
LINE
  5
2F96
330
6C
100
AcDbEntity
  8
Layer1
100
AcDbLine
 10
-604.598420186737
 20
2303.634289133664
 30
0.0
 11
-604.5981231334881
 21
2303.638968597569
 31
0.0
1001
REVIT
1002
{
1070
     2
1000
-2000151
1002
}
  0
LINE
  5
2F97
330
6C
100
AcDbEntity
  8
Layer1
100
AcDbLine
 10
-604.5984201847024
 20
2303.61041741514
 30
0.0
 11
-604.5981231314518
 21
2303.615090603234
 31
0.0
1001
REVIT
1002
{
1070
     2
1000
-2000151
1002
}
  0
LINE
  5
2F98
330
6C
100
AcDbEntity
  8
Layer1
100
AcDbLine
 10
-604.598420182667
 20
2303.586545696531
 30
0.0
 11
-604.5981231294169
 21
2303.591212608813
 31
0.0
1001
REVIT
1002
{
1070
     2
1000
-2000151
1002
}
  0
LINE
  5
2F99
330
6C
100
AcDbEntity
  8
Layer1
100
AcDbLine
 10
-604.5982878944396
 20
2303.564749490728
 30
0.0
 11
-604.5981231273795
 21
2303.567334614301
 31
0.0
1001
REVIT
1002
{
1070
     2
1000
-2000151
1002
}
  0
LINE
  5
2F9A
330
6C
100
AcDbEntity
  8
Layer1
100
AcDbLine
 10
-604.5981277139904
 20
2303.56734274675
 30
0.0
 11
-604.5996114036512
 21
2303.570772302413
 31
0.0
1001
REVIT
1002
{
1070
     2
1000
-2000151
1002
}
  0
LINE
  5
2F9B
330
6C
100
AcDbEntity
  8
Layer1
100
AcDbLine
 10
-604.5981276210113
 20
2303.591220422609
 30
0.0
 11
-604.5996113109159
 21
2303.594618633047
 31
0.0
1001
REVIT
1002
{
1070
     2
1000
-2000151
1002
}
  0
LINE
  5
2F9C
330
6C
100
AcDbEntity
  8
Layer1
100
AcDbLine
 10
-604.5981275280324
 20
2303.615098102397
 30
0.0
 11
-604.5996112181811
 21
2303.618464967605
 31
0.0
1001
REVIT
1002
{
1070
     2
1000
-2000151
1002
}
  0
LINE
  5
2F9D
330
6C
100
AcDbEntity
  8
Layer1
100
AcDbLine
 10
-604.5981274350532
 20
2303.638975786113
 30
0.0
 11
-604.5996111254459
 21
2303.642311306074
 31
0.0
1001
REVIT
1002
{
1070
     2
1000
-2000151
1002
}
  0
LINE
  5
2F9E
330
6C
100
AcDbEntity
  8
Layer1
100
AcDbLine
 10
-604.3326080744394
 20
2303.858381722958
 30
0.0
 11
-604.3327138590965
 21
2303.858341014097
 31
0.0
1001
REVIT
1002
{
1070
     2
1000
-2000151
1002
}
  0
LINE
  5
2F9F
330
6C
100
AcDbEntity
  8
Layer1
100
AcDbLine
 10
-604.3103778098281
 20
2303.860520199064
 30
0.0
 11
-604.3109880075747
 21
2303.860274055002
 31
0.0
1001
REVIT
1002
{
1070
     2
1000
-2000151
1002
}
  0
LINE
  5
2FA0
330
6C
100
AcDbEntity
  8
Layer1
100
AcDbLine
 10
-604.3109719910549
 20
2303.86027544031
 30
0.0
 11
-604.3143536346811
 21
2303.859924497453
 31
0.0
1001
REVIT
1002
{
1070
     2
1000
-2000151
1002
}
  0
LINE
  5
2FA1
330
6C
100
AcDbEntity
  8
Layer1
100
AcDbLine
 10
-604.3143731062701
 20
2303.859922488339
 30
0.0
 11
-604.3221439649746
 21
2303.859037345251
 31
0.0
1001
REVIT
1002
{
1070
     2
1000
-2000151
1002
}
  0
LINE
  5
2FA2
330
6C
100
AcDbEntity
  8
Layer1
100
AcDbLine
 10
-604.323423623054
 20
2303.861803468707
 30
0.0
 11
-604.3248167467172
 21
2303.861316291689
 31
0.0
1001
REVIT
1002
{
1070
     2
1000
-2000151
1002
}
  0
LINE
  5
2FA3
330
6C
100
AcDbEntity
  8
Layer1
100
AcDbLine
 10
-604.3221409938996
 20
2303.859037831421
 30
0.0
 11
-604.3239747877243
 21
2303.858381588072
 31
0.0
1001
REVIT
1002
{
1070
     2
1000
-2000151
1002
}
  0
LINE
  5
2FA4
330
6C
100
AcDbEntity
  8
Layer1
100
AcDbLine
 10
-604.3248150601972
 20
2303.861316498964
 30
0.0
 11
-604.3246494739159
 21
2303.860739329695
 31
0.0
1001
REVIT
1002
{
1070
     2
1000
-2000151
1002
}
  0
LINE
  5
2FA5
330
6C
100
AcDbEntity
  8
Layer1
100
AcDbLine
 10
-604.3239731128178
 20
2303.858381798395
 30
0.0
 11
-604.3238004291928
 21
2303.857779890549
 31
0.0
1001
REVIT
1002
{
1070
     2
1000
-2000151
1002
}
  0
LINE
  5
2FA6
330
6C
100
AcDbEntity
  8
Layer1
100
AcDbLine
 10
-604.3246447329721
 20
2303.860740003305
 30
0.0
 11
-604.3307994322112
 21
2303.859335011269
 31
0.0
1001
REVIT
1002
{
1070
     2
1000
-2000151
1002
}
  0
LINE
  5
2FA7
330
6C
100
AcDbEntity
  8
Layer1
100
AcDbLine
 10
-604.323795722552
 20
2303.857780574218
 30
0.0
 11
-604.3248250162132
 21
2303.857540279786
 31
0.0
1001
REVIT
1002
{
1070
     2
1000
-2000151
1002
}
  0
LINE
  5
2FA8
330
6C
100
AcDbEntity
  8
Layer1
100
AcDbLine
 10
-604.3308040716376
 20
2303.859334393985
 30
0.0
 11
-604.3301548084951
 21
2303.85874057186
 31
0.0
1001
REVIT
1002
{
1070
     2
1000
-2000151
1002
}
  0
LINE
  5
2FA9
330
6C
100
AcDbEntity
  8
Layer1
100
AcDbLine
 10
-604.3301607649709
 20
2303.858739671508
 30
0.0
 11
-604.3326126581455
 21
2303.85838096207
 31
0.0
1001
REVIT
1002
{
1070
     2
1000
-2000151
1002
}
  0
LINE
  5
2FAA
330
6C
100
AcDbEntity
  8
Layer1
100
AcDbLine
 10
-604.3456798351812
 20
2303.855011389304
 30
0.0
 11
-604.3457066722945
 21
2303.855135143115
 31
0.0
1001
REVIT
1002
{
1070
     2
1000
-2000151
1002
}
  0
LINE
  5
2FAB
330
6C
100
AcDbEntity
  8
Layer1
100
AcDbLine
 10
-604.3457145215467
 20
2303.855145550691
 30
0.0
 11
-604.3480637036383
 21
2303.858443625283
 31
0.0
1001
REVIT
1002
{
1070
     2
1000
-2000151
1002
}
  0
LINE
  5
2FAC
330
6C
100
AcDbEntity
  8
Layer1
100
AcDbLine
 10
-604.3480540605839
 20
2303.858430004259
 30
0.0
 11
-604.3507446039884
 21
2303.862533729475
 31
0.0
1001
REVIT
1002
{
1070
     2
1000
-2000151
1002
}
  0
LINE
  5
2FAD
330
6C
100
AcDbEntity
  8
Layer1
100
AcDbLine
 10
-604.3340012586915
 20
2303.860461622508
 30
0.0
 11
-604.3368221362984
 21
2303.864808930839
 31
0.0
1001
REVIT
1002
{
1070
     2
1000
-2000151
1002
}
  0
LINE
  5
2FAE
330
6C
100
AcDbEntity
  8
Layer1
100
AcDbLine
 10
-604.3368221152264
 20
2303.864809481295
 30
0.0
 11
-604.3381593445817
 21
2303.87049238823
 31
0.0
1001
REVIT
1002
{
1070
     2
1000
-2000151
1002
}
  0
LINE
  5
2FAF
330
6C
100
AcDbEntity
  8
Layer1
100
AcDbLine
 10
-604.3381617465812
 20
2303.870496795272
 30
0.0
 11
-604.3381674102004
 21
2303.871732731829
 31
0.0
1001
REVIT
1002
{
1070
     2
1000
-2000151
1002
}
  0
LINE
  5
2FB0
330
6C
100
AcDbEntity
  8
Layer1
100
AcDbLine
 10
-604.3412315561295
 20
2303.859477633804
 30
0.0
 11
-604.3424177891324
 21
2303.862917881954
 31
0.0
1001
REVIT
1002
{
1070
     2
1000
-2000151
1002
}
  0
LINE
  5
2FB1
330
6C
100
AcDbEntity
  8
Layer1
100
AcDbLine
 10
-604.3424111515827
 20
2303.862905140884
 30
0.0
 11
-604.3420998366841
 21
2303.867925068947
 31
0.0
1001
REVIT
1002
{
1070
     2
1000
-2000151
1002
}
  0
LINE
  5
2FB2
330
6C
100
AcDbEntity
  8
Layer1
100
AcDbLine
 10
-604.3420968958595
 20
2303.867921696848
 30
0.0
 11
-604.3437106878801
 21
2303.871042075997
 31
0.0
1001
REVIT
1002
{
1070
     2
1000
-2000151
1002
}
  0
LINE
  5
2FB3
330
6C
100
AcDbEntity
  8
Layer1
100
AcDbLine
 10
-604.3581006010515
 20
2303.864724297019
 30
0.0
 11
-604.3610755893789
 21
2303.863701560711
 31
0.0
1001
REVIT
1002
{
1070
     2
1000
-2000151
1002
}
  0
LINE
  5
2FB4
330
6C
100
AcDbEntity
  8
Layer1
100
AcDbLine
 10
-604.3599474090308
 20
2303.861147400179
 30
0.0
 11
-604.3600404527158
 21
2303.861114721389
 31
0.0
1001
REVIT
1002
{
1070
     2
1000
-2000151
1002
}
  0
LINE
  5
2FB5
330
6C
100
AcDbEntity
  8
Layer1
100
AcDbLine
 10
-604.3610582287815
 20
2303.86370298941
 30
0.0
 11
-604.3645863342698
 21
2303.863358638841
 31
0.0
1001
REVIT
1002
{
1070
     2
1000
-2000151
1002
}
  0
LINE
  5
2FB6
330
6C
100
AcDbEntity
  8
Layer1
100
AcDbLine
 10
-604.3646075781578
 20
2303.863356575289
 30
0.0
 11
-604.3727438211739
 21
2303.862488012713
 31
0.0
1001
REVIT
1002
{
1070
     2
1000
-2000151
1002
}
  0
LINE
  5
2FB7
330
6C
100
AcDbEntity
  8
Layer1
100
AcDbLine
 10
-604.3727406708439
 20
2303.862488492492
 30
0.0
 11
-604.3729467540239
 21
2303.862424738383
 31
0.0
1001
REVIT
1002
{
1070
     2
1000
-2000151
1002
}
  0
LINE
  5
2FB8
330
6C
100
AcDbEntity
  8
Layer1
100
AcDbLine
 10
-604.3563577597999
 20
2303.86496152542
 30
0.0
 11
-604.3581055522066
 21
2303.864723544356
 31
0.0
1001
REVIT
1002
{
1070
     2
1000
-2000151
1002
}
  0
LINE
  5
2FB9
330
6C
100
AcDbEntity
  8
Layer1
100
AcDbLine
 10
-604.3081646505076
 20
2303.863804293189
 30
0.0
 11
-604.3107580068902
 21
2303.862776225431
 31
0.0
1001
REVIT
1002
{
1070
     2
1000
-2000151
1002
}
  0
LINE
  5
2FBA
330
6C
100
AcDbEntity
  8
Layer1
100
AcDbLine
 10
-604.306965135385
 20
2303.860909705935
 30
0.0
 11
-604.3084022160305
 21
2303.86032586702
 31
0.0
1001
REVIT
1002
{
1070
     2
1000
-2000151
1002
}
  0
LINE
  5
2FBB
330
6C
100
AcDbEntity
  8
Layer1
100
AcDbLine
 10
-604.3107419239518
 20
2303.862777591766
 30
0.0
 11
-604.3141375305935
 21
2303.862431451237
 31
0.0
1001
REVIT
1002
{
1070
     2
1000
-2000151
1002
}
  0
LINE
  5
2FBC
330
6C
100
AcDbEntity
  8
Layer1
100
AcDbLine
 10
-604.2878067435561
 20
2303.86254634991
 30
0.0
 11
-604.2889131000334
 21
2303.862431422252
 31
0.0
1001
REVIT
1002
{
1070
     2
1000
-2000151
1002
}
  0
LINE
  5
2FBD
330
6C
100
AcDbEntity
  8
Layer1
100
AcDbLine
 10
-604.3141570828118
 20
2303.862429469596
 30
0.0
 11
-604.3214697855411
 21
2303.861611276753
 31
0.0
1001
REVIT
1002
{
1070
     2
1000
-2000151
1002
}
  0
LINE
  5
2FBE
330
6C
100
AcDbEntity
  8
Layer1
100
AcDbLine
 10
-604.2889318486893
 20
2303.862429486926
 30
0.0
 11
-604.296574881077
 21
2303.861556423187
 31
0.0
1001
REVIT
1002
{
1070
     2
1000
-2000151
1002
}
  0
LINE
  5
2FBF
330
6C
100
AcDbEntity
  8
Layer1
100
AcDbLine
 10
-604.2965719780228
 20
2303.861556901381
 30
0.0
 11
-604.2980652365869
 21
2303.860995639252
 31
0.0
1001
REVIT
1002
{
1070
     2
1000
-2000151
1002
}
  0
LINE
  5
2FC0
330
6C
100
AcDbEntity
  8
Layer1
100
AcDbLine
 10
-604.2996098051372
 20
2303.86367258163
 30
0.0
 11
-604.2994012506775
 21
2303.863235121804
 31
0.0
1001
REVIT
1002
{
1070
     2
1000
-2000151
1002
}
  0
LINE
  5
2FC1
330
6C
100
AcDbEntity
  8
Layer1
100
AcDbLine
 10
-604.2993968681228
 20
2303.863235754533
 30
0.0
 11
-604.3053223245349
 21
2303.861849982559
 31
0.0
1001
REVIT
1002
{
1070
     2
1000
-2000151
1002
}
  0
LINE
  5
2FC2
330
6C
100
AcDbEntity
  8
Layer1
100
AcDbLine
 10
-604.3053265529232
 20
2303.861849420263
 30
0.0
 11
-604.3045664536484
 21
2303.861263685954
 31
0.0
1001
REVIT
1002
{
1070
     2
1000
-2000151
1002
}
  0
LINE
  5
2FC3
330
6C
100
AcDbEntity
  8
Layer1
100
AcDbLine
 10
-604.3059847916575
 20
2303.864274451416
 30
0.0
 11
-604.3058127390838
 21
2303.864143714595
 31
0.0
1001
REVIT
1002
{
1070
     2
1000
-2000151
1002
}
  0
LINE
  5
2FC4
330
6C
100
AcDbEntity
  8
Layer1
100
AcDbLine
 10
-604.3058184574753
 20
2303.86414285097
 30
0.0
 11
-604.3081689735007
 21
2303.863803572768
 31
0.0
1001
REVIT
1002
{
1070
     2
1000
-2000151
1002
}
  0
LINE
  5
2FC5
330
6C
100
AcDbEntity
  8
Layer1
100
AcDbLine
 10
-604.304572132465
 20
2303.861262808409
 30
0.0
 11
-604.3069694256658
 21
2303.860908974256
 31
0.0
1001
REVIT
1002
{
1070
     2
1000
-2000151
1002
}
  0
LINE
  5
2FC6
330
6C
100
AcDbEntity
  8
Layer1
100
AcDbLine
 10
-604.3167374550611
 20
2303.869637318118
 30
0.0
 11
-604.3177396540991
 21
2303.874277895467
 31
0.0
1001
REVIT
1002
{
1070
     2
1000
-2000151
1002
}
  0
LINE
  5
2FC7
330
6C
100
AcDbEntity
  8
Layer1
100
AcDbLine
 10
-604.3239775592049
 20
2303.861825772067
 30
0.0
 11
-604.3261214014624
 21
2303.865154243972
 31
0.0
1001
REVIT
1002
{
1070
     2
1000
-2000151
1002
}
  0
LINE
  5
2FC8
330
6C
100
AcDbEntity
  8
Layer1
100
AcDbLine
 10
-604.3261213814172
 20
2303.865154800888
 30
0.0
 11
-604.3274715968098
 21
2303.870904926299
 31
0.0
1001
REVIT
1002
{
1070
     2
1000
-2000151
1002
}
  0
LINE
  5
2FC9
330
6C
100
AcDbEntity
  8
Layer1
100
AcDbLine
 10
-604.3274740109989
 20
2303.870909386023
 30
0.0
 11
-604.3274878720786
 21
2303.873063331822
 31
0.0
1001
REVIT
1002
{
1070
     2
1000
-2000151
1002
}
  0
LINE
  5
2FCA
330
6C
100
AcDbEntity
  8
Layer1
100
AcDbLine
 10
-604.3309121654682
 20
2303.860882024691
 30
0.0
 11
-604.3317223584487
 21
2303.863242709244
 31
0.0
1001
REVIT
1002
{
1070
     2
1000
-2000151
1002
}
  0
LINE
  5
2FCB
330
6C
100
AcDbEntity
  8
Layer1
100
AcDbLine
 10
-604.3317156855071
 20
2303.863229815533
 30
0.0
 11
-604.3314134580194
 21
2303.868308903918
 31
0.0
1001
REVIT
1002
{
1070
     2
1000
-2000151
1002
}
  0
LINE
  5
2FCC
330
6C
100
AcDbEntity
  8
Layer1
100
AcDbLine
 10
-604.3152932283519
 20
2303.863007643704
 30
0.0
 11
-604.3151030641555
 21
2303.866425542891
 31
0.0
1001
REVIT
1002
{
1070
     2
1000
-2000151
1002
}
  0
LINE
  5
2FCD
330
6C
100
AcDbEntity
  8
Layer1
100
AcDbLine
 10
-604.3314105059105
 20
2303.868305490969
 30
0.0
 11
-604.3328166832424
 21
2303.871042393542
 31
0.0
1001
REVIT
1002
{
1070
     2
1000
-2000151
1002
}
  0
LINE
  5
2FCE
330
6C
100
AcDbEntity
  8
Layer1
100
AcDbLine
 10
-604.315100100639
 20
2303.866422085157
 30
0.0
 11
-604.3167338123193
 21
2303.869631750961
 31
0.0
1001
REVIT
1002
{
1070
     2
1000
-2000151
1002
}
  0
LWPOLYLINE
  5
2FD0
330
6C
100
AcDbEntity
  8
Layer1
 62
     7
100
AcDbPolyline
 90
        4
 70
     1
 43
0.0
 10
-604.5389560664672
 20
2303.818700955583
 10
-604.4448147288418
 20
2303.818700955583
 10
-604.4448147288418
 20
2303.775012633213
 10
-604.5389560664672
 20
2303.775012633213
1001
REVIT
1002
{
1070
     1
1000
332279
1002
}
1002
{
1070
     5
1000
332286
1002
}
1002
{
1070
     2
1000
-2000300
1002
}
  0
MTEXT
  5
2FD1
330
6C
100
AcDbEntity
  8
Layer1
 62
     7
100
AcDbMText
 10
-604.4911744721336
 20
2303.81155818894
 30
0.0
 40
0.0252698077617087
 41
0.0522908366533865
 71
     2
 72
     1
  1
{\fArial|b1|i0|c163|p34;D\fArial|b1|i0|c0|p34;117}
 73
     2
 44
0.9385317878468564
1001
REVIT
1002
{
1070
     1
1000
332279
1002
}
1002
{
1070
     5
1000
332286
1002
}
1002
{
1070
     2
1000
-2000300
1002
}
1001
ACAD
1000
MTEXTBEGIN
1070
    73
1070
     2
1070
    44
1040
0.9385317878468564
1070
    74
1070
     0
1000
MTEXTEND
  0
MTEXT
  5
3060
102
{ACAD_XDICTIONARY
360
33F9
102
}
330
6C
100
AcDbEntity
  8
Layer1
 62
     7
100
AcDbMText
 10
-604.1426213785797
 20
2303.679314066313
 30
0.0
 40
0.015625
 41
0.2414839773703932
 71
     2
 72
     1
  1
\A1;{\fArial|b1|i0|c0|p34;Inverted^I\PHUC210-2^I\Pfor Increased^I\PUplift^ICapacity}
 73
     2
 44
0.9385317878468564
1001
ACAD
1000
ACAD_MTEXT_COLUMN_INFO_BEGIN
1070
    75
1070
     2
1070
    79
1070
     0
1070
    76
1070
     1
1070
    78
1070
     0
1070
    48
1040
0.2414839773703932
1070
    49
1040
1.0
1070
    50
1070
     1
1040
0.0
1000
ACAD_MTEXT_COLUMN_INFO_END
1000
MTEXTBEGIN
1070
    73
1070
     2
1070
    44
1040
0.9385317878468564
1070
    74
1070
     0
1000
MTEXTEND
  0
ARC
  5
32AC
330
6C
100
AcDbEntity
  8
0
100
AcDbCircle
 10
-604.3567099880475
 20
2303.710463173953
 30
0.0
 40
0.0009567741181319
100
AcDbArc
 50
5.72854506160302
 51
60.46063391987356
  0
ARC
  5
32AD
330
6C
100
AcDbEntity
  8
0
100
AcDbCircle
 10
-604.3562741268
 20
2303.711078872992
 30
0.0
 40
0.0014802553729515
100
AcDbArc
 50
356.6432585489882
 51
69.59343116157523
  0
LINE
  5
3395
330
6C
100
AcDbEntity
  8
Layer1
100
AcDbLine
 10
-604.6080062816217
 20
2303.550914563992
 30
0.0
 11
-604.6068299603349
 21
2303.555281475623
 31
0.0
1001
REVIT
1002
{
1070
     2
1000
-2000151
1002
}
  0
LINE
  5
3396
330
6C
100
AcDbEntity
  8
Layer1
100
AcDbLine
 10
-604.6068290189025
 20
2303.555280559495
 30
0.0
 11
-604.6059393474641
 21
2303.558863525318
 31
0.0
1001
REVIT
1002
{
1070
     2
1000
-2000151
1002
}
  0
LINE
  5
3397
330
6C
100
AcDbEntity
  8
Layer1
100
AcDbLine
 10
-604.6059376728829
 20
2303.558862768094
 30
0.0
 11
-604.6010291451058
 21
2303.565872872256
 31
0.0
1001
REVIT
1002
{
1070
     2
1000
-2000151
1002
}
  0
LINE
  5
3398
330
6C
100
AcDbEntity
  8
Layer1
100
AcDbLine
 10
-604.6012974724638
 20
2303.54895143335
 30
0.0
 11
-604.6002726660008
 21
2303.55275586953
 31
0.0
1001
REVIT
1002
{
1070
     2
1000
-2000151
1002
}
  0
LINE
  5
3399
330
6C
100
AcDbEntity
  8
Layer1
100
AcDbLine
 10
-604.6002717245684
 20
2303.552754953403
 30
0.0
 11
-604.59938205313
 21
2303.556337919225
 31
0.0
1001
REVIT
1002
{
1070
     2
1000
-2000151
1002
}
  0
LINE
  5
339A
330
6C
100
AcDbEntity
  8
Layer1
100
AcDbLine
 10
-604.5993803785487
 20
2303.556337162002
 30
0.0
 11
-604.5944718507716
 21
2303.563347266163
 31
0.0
1001
REVIT
1002
{
1070
     2
1000
-2000151
1002
}
  0
LINE
  5
339B
330
6C
100
AcDbEntity
  8
Layer1
100
AcDbLine
 10
-604.5927065561472
 20
2303.54467348487
 30
0.0
 11
-604.5915302348604
 21
2303.549040396501
 31
0.0
1001
REVIT
1002
{
1070
     2
1000
-2000151
1002
}
  0
LINE
  5
339C
330
6C
100
AcDbEntity
  8
Layer1
100
AcDbLine
 10
-604.591529293428
 20
2303.549039480373
 30
0.0
 11
-604.5906396219897
 21
2303.552622446196
 31
0.0
1001
REVIT
1002
{
1070
     2
1000
-2000151
1002
}
  0
LINE
  5
339D
330
6C
100
AcDbEntity
  8
Layer1
100
AcDbLine
 10
-604.5906379474083
 20
2303.552621688973
 30
0.0
 11
-604.5855746317309
 21
2303.559852853165
 31
0.0
1001
REVIT
1002
{
1070
     2
1000
-2000151
1002
}
  0
LINE
  5
339E
330
6C
100
AcDbEntity
  8
Layer1
100
AcDbLine
 10
-604.5859711776118
 20
2303.541972967998
 30
0.0
 11
-604.5847689088558
 21
2303.546436205613
 31
0.0
1001
REVIT
1002
{
1070
     2
1000
-2000151
1002
}
  0
LINE
  5
339F
330
6C
100
AcDbEntity
  8
Layer1
100
AcDbLine
 10
-604.5847679674234
 20
2303.546435289485
 30
0.0
 11
-604.583878295985
 21
2303.550018255308
 31
0.0
1001
REVIT
1002
{
1070
     2
1000
-2000151
1002
}
  0
LINE
  5
33A0
330
6C
100
AcDbEntity
  8
Layer1
100
AcDbLine
 10
-604.5838766214037
 20
2303.550017498084
 30
0.0
 11
-604.5788133057262
 21
2303.557248662277
 31
0.0
1001
REVIT
1002
{
1070
     2
1000
-2000151
1002
}
  0
LINE
  5
33A1
330
6C
100
AcDbEntity
  8
Layer1
100
AcDbLine
 10
-604.5794390477492
 20
2303.53935394268
 30
0.0
 11
-604.5782116145216
 21
2303.54391059952
 31
0.0
1001
REVIT
1002
{
1070
     2
1000
-2000151
1002
}
  0
LINE
  5
33A2
330
6C
100
AcDbEntity
  8
Layer1
100
AcDbLine
 10
-604.5782106730893
 20
2303.543909683392
 30
0.0
 11
-604.5773210016509
 21
2303.547492649215
 31
0.0
1001
REVIT
1002
{
1070
     2
1000
-2000151
1002
}
  0
LINE
  5
33A3
330
6C
100
AcDbEntity
  8
Layer1
100
AcDbLine
 10
-604.5773193270696
 20
2303.547491891992
 30
0.0
 11
-604.5722560113927
 21
2303.554723056183
 31
0.0
1001
REVIT
1002
{
1070
     2
1000
-2000151
1002
}
  0
LINE
  5
33A4
330
6C
100
AcDbEntity
  8
Layer1
100
AcDbLine
 10
-604.5773774253282
 20
2303.529168570185
 30
0.0
 11
-604.5706657816912
 21
2303.535706673277
 31
0.0
1001
REVIT
1002
{
1070
     2
1000
-2000151
1002
}
  0
LINE
  5
33A5
330
6C
100
AcDbEntity
  8
Layer1
100
AcDbLine
 10
-604.570667114632
 20
2303.535707976963
 30
0.0
 11
-604.5701167921882
 21
2303.537273024208
 31
0.0
1001
REVIT
1002
{
1070
     2
1000
-2000151
1002
}
  0
LINE
  5
33A6
330
6C
100
AcDbEntity
  8
Layer1
100
AcDbLine
 10
-604.6014634210132
 20
2303.538978180533
 30
0.0
 11
-604.5996216931549
 21
2303.540345105683
 31
0.0
1001
REVIT
1002
{
1070
     2
1000
-2000151
1002
}
  0
LINE
  5
33A7
330
6C
100
AcDbEntity
  8
Layer1
100
AcDbLine
 10
-604.5996232096333
 20
2303.540346602725
 30
0.0
 11
-604.5972509687962
 21
2303.546495544755
 31
0.0
1001
REVIT
1002
{
1070
     2
1000
-2000151
1002
}
  0
LINE
  5
33A8
330
6C
100
AcDbEntity
  8
Layer1
100
AcDbLine
 10
-604.6068355289389
 20
2303.541219183382
 30
0.0
 11
-604.6050699793684
 21
2303.542529569224
 31
0.0
1001
REVIT
1002
{
1070
     2
1000
-2000151
1002
}
  0
LINE
  5
33A9
330
6C
100
AcDbEntity
  8
Layer1
100
AcDbLine
 10
-604.6050714958468
 20
2303.542531066266
 30
0.0
 11
-604.6026992550097
 21
2303.548680008296
 31
0.0
1001
REVIT
1002
{
1070
     2
1000
-2000151
1002
}
  0
ENDSEC
  0
SECTION
  2
OBJECTS
  0
DICTIONARY
  5
C
330
0
100
AcDbDictionary
281
     1
  3
ACAD_CIP_PREVIOUS_PRODUCT_INFO
350
75
  3
ACAD_COLOR
350
63
  3
ACAD_GROUP
350
D
  3
ACAD_IMAGE_VARS
350
76
  3
ACAD_LAYOUT
350
62
  3
ACAD_MATERIAL
350
10
  3
ACAD_MLEADERSTYLE
350
66
  3
ACAD_MLINESTYLE
350
5F
  3
ACAD_PLOTSETTINGS
350
61
  3
ACAD_PLOTSTYLENAME
350
E
  3
ACAD_SCALELIST
350
42
  3
ACAD_TABLESTYLE
350
64
  3
ACAD_VISUALSTYLE
350
29
  3
ACDB_RECOMPOSE_DATA
350
33FB
  3
AcDbVariableDictionary
350
485
  3
DWGPROPS
350
33FC
  3
REVIT_DICTIONARY
350
47B
  0
DICTIONARY
  5
3103
330
8
100
AcDbDictionary
280
     1
281
     1
  0
DICTIONARY
  5
49C
330
2
100
AcDbDictionary
280
     1
281
     1
  3
ACAD_LAYERSTATES
360
49D
  0
DICTIONARY
  5
480
330
6C
100
AcDbDictionary
280
     1
281
     1
  3
ACAD_SORTENTS
360
481
  0
DICTIONARY
  5
33F9
330
3060
100
AcDbDictionary
280
     1
281
     1
  3
ACAD_MTEXT_2008_RT
360
33FA
  0
XRECORD
  5
75
102
{ACAD_REACTORS
330
C
102
}
330
C
100
AcDbXrecord
280
     1
300
ACD
300
2012
300
85792REVSU_2012_0F
  0
DICTIONARY
  5
63
102
{ACAD_REACTORS
330
C
102
}
330
C
100
AcDbDictionary
281
     1
  0
DICTIONARY
  5
D
102
{ACAD_REACTORS
330
C
102
}
330
C
100
AcDbDictionary
281
     1
  0
RASTERVARIABLES
  5
76
102
{ACAD_REACTORS
330
C
102
}
330
C
100
AcDbRasterVariables
 90
        0
 70
     0
 71
     1
 72
     5
  0
DICTIONARY
  5
62
102
{ACAD_REACTORS
330
C
102
}
330
C
100
AcDbDictionary
281
     1
  3
Layout1
350
6B
  3
Layout2
350
73
  3
Model
350
6F
  0
DICTIONARY
  5
10
102
{ACAD_REACTORS
330
C
102
}
330
C
100
AcDbDictionary
281
     1
  3
ByBlock
350
19
  3
ByLayer
350
11
  3
Global
350
21
  0
DICTIONARY
  5
66
102
{ACAD_REACTORS
330
C
102
}
330
C
100
AcDbDictionary
281
     1
  3
Standard
350
67
  0
DICTIONARY
  5
5F
102
{ACAD_REACTORS
330
C
102
}
330
C
100
AcDbDictionary
281
     1
  3
Standard
350
60
  0
DICTIONARY
  5
61
102
{ACAD_REACTORS
330
C
102
}
330
C
100
AcDbDictionary
281
     1
  0
ACDBDICTIONARYWDFLT
  5
E
102
{ACAD_REACTORS
330
C
102
}
330
C
100
AcDbDictionary
281
     1
  3
Normal
350
F
100
AcDbDictionaryWithDefault
340
F
  0
DICTIONARY
  5
42
102
{ACAD_REACTORS
330
C
102
}
330
C
100
AcDbDictionary
281
     1
  3
A0
350
43
  3
A1
350
44
  3
A2
350
45
  3
A3
350
46
  3
A4
350
47
  3
A5
350
48
  3
A6
350
49
  3
A7
350
4A
  3
A8
350
4B
  3
A9
350
4C
  3
B0
350
4D
  3
B1
350
4E
  3
B2
350
4F
  3
B3
350
50
  3
B4
350
51
  3
B5
350
52
  3
B6
350
53
  0
DICTIONARY
  5
64
102
{ACAD_REACTORS
330
C
102
}
330
C
100
AcDbDictionary
281
     1
  3
Standard
350
65
  0
DICTIONARY
  5
29
102
{ACAD_REACTORS
330
C
102
}
330
C
100
AcDbDictionary
281
     1
  3
2dWireframe
350
2F
  3
Basic
350
2E
  3
Brighten
350
35
  3
ColorChange
350
39
  3
Conceptual
350
32
  3
Dim
350
34
  3
EdgeColorOff
350
41
  3
Facepattern
350
38
  3
Flat
350
2A
  3
FlatWithEdges
350
2B
  3
Gouraud
350
2C
  3
GouraudWithEdges
350
2D
  3
Hidden
350
31
  3
JitterOff
350
3F
  3
Linepattern
350
37
  3
OverhangOff
350
40
  3
Realistic
350
33
  3
Shaded
350
3E
  3
Shaded with edges
350
3D
  3
Shades of Gray
350
3A
  3
Sketchy
350
3B
  3
Thicken
350
36
  3
Wireframe
350
30
  3
X-Ray
350
3C
  0
XRECORD
  5
33FB
102
{ACAD_REACTORS
330
C
102
}
330
C
100
AcDbXrecord
280
     1
 90
        1
330
65
330
3060
  0
DICTIONARY
  5
485
102
{ACAD_REACTORS
330
C
102
}
330
C
100
AcDbDictionary
281
     1
  3
CANNOSCALE
350
488
  3
CMLEADERSTYLE
350
487
  3
CTABLESTYLE
350
486
  3
DIMASSOC
350
3146
  3
HIDETEXT
350
3145
  3
INDEXCTL
350
3144
  3
LATITUDE
350
33F2
  3
LAYEREVAL
350
3141
  3
LAYERNOTIFY
350
3142
  3
LIGHTINGUNITS
350
3140
  3
LONGITUDE
350
33F3
  3
MSLTSCALE
350
313F
  3
SORTENTS
350
3143
  3
TIMEZONE
350
33F4
  3
XCLIPFRAME
350
33F5
  0
XRECORD
  5
33FC
102
{ACAD_REACTORS
330
C
102
}
330
C
100
AcDbXrecord
280
     1
  1
DWGPROPS COOKIE
  2

  3

  4

  6

  7

  8
dunguyen
  9

300
=
301
=
302
=
303
=
304
=
305
=
306
=
307
=
308
=
309
=
 40
0.0581050810185185
 41
2456177.384685417
 42
2456199.442426297
  1

 90
        0
  0
DICTIONARY
  5
47B
102
{ACAD_REACTORS
330
C
102
}
330
C
100
AcDbDictionary
281
     1
  3
DRAWING_TOOL
350
47F
  3
REVIT_CATEGORY_MAPPING
350
47D
  3
REVIT_SUB_CATEGORY_MAPPING
350
47E
  3
REVIT_TYPE_MAPPING
350
47C
  0
DICTIONARY
  5
49D
102
{ACAD_REACTORS
330
49C
102
}
330
49C
100
AcDbDictionary
281
     1
  0
SORTENTSTABLE
  5
481
102
{ACAD_REACTORS
330
480
102
}
330
480
100
AcDbSortentsTable
330
6C
331
16F
  5
2E3
331
16B
  5
2DA
331
37F
  5
1A8E
331
305
  5
1A3B
331
37B
  5
1A8A
331
2DED
  5
1B11
331
167
  5
2CC
331
2DAE
  5
1B41
331
2DE9
  5
1B0D
331
2F57
  5
193D
331
2EDD
  5
19E2
331
2E63
  5
1A99
331
33C
  5
1A5D
331
2DAA
  5
1B4B
331
373
  5
1A82
331
2E24
  5
1AD2
331
2DE5
  5
1B09
331
2E5F
  5
1A95
331
2F53
  5
1939
331
2FCD
  5
136
331
2ED9
  5
19DE
331
338
  5
1A59
331
2E20
  5
1ACE
331
2DE1
  5
1B20
331
2F14
  5
199E
331
2F8E
  5
34D
331
2F4F
  5
1935
331
2FC9
  5
132
331
2ED5
  5
19DA
331
2E5B
  5
1A91
331
2F10
  5
199A
331
2F8A
  5
33F
331
2F4B
  5
1931
331
2FC5
  5
16B
331
2ED1
  5
19D6
331
2FC1
  5
167
331
2BE
  5
1A0D
331
334
  5
1A55
331
36F
  5
1A7E
331
2F5
  5
1A31
331
2BA
  5
1A09
331
2E1C
  5
1AE2
331
2DDD
  5
1B1C
331
2E96
  5
19FB
331
2E57
  5
1AA5
331
137
  5
203
331
2B6
  5
1A05
331
133
  5
171
331
2E18
  5
1ADE
331
2DD9
  5
1B18
331
2F0C
  5
1996
331
2F86
  5
33B
331
2F47
  5
192D
331
2ECD
  5
19D2
331
2E53
  5
1AA1
331
2ED
  5
1A2C
331
2B2
  5
1A01
331
2E14
  5
1ADA
331
2E8E
  5
1A1A
331
2E4F
  5
1A9D
331
2F08
  5
1992
331
2F82
  5
337
331
2F43
  5
1929
331
2FBD
  5
163
331
2EC9
  5
19CE
331
328
  5
1A4F
331
2E10
  5
1AEE
331
2DD1
  5
1B2C
331
2E8A
  5
1A21
331
2F04
  5
198E
331
2F7E
  5
333
331
2F3F
  5
37F
331
2FB9
  5
138
331
2EC5
  5
19CA
331
2E4B
  5
1AB1
331
2F00
  5
198A
331
2F7A
  5
31B
331
2F3B
  5
37B
331
2FB5
  5
208
331
2EC1
  5
19C6
331
2FB1
  5
2B2
331
12F
  5
16D
331
35F
  5
1A74
331
2E5
  5
1A27
331
2E0C
  5
1AEA
331
2DCD
  5
1B28
331
2E47
  5
1AAD
331
2E1
  5
1A23
331
20E
  5
196D
331
357
  5
1A6F
331
2E08
  5
1AE6
331
2EFC
  5
1986
331
2F76
  5
30D
331
2F37
  5
377
331
2EBD
  5
19C2
331
2E43
  5
1AA9
331
20A
  5
1969
331
2E04
  5
1AFA
331
2DC5
  5
1B3C
331
2E7E
  5
1A42
331
2E3F
  5
1ABD
331
2EF8
  5
1982
331
2F72
  5
304
331
2F33
  5
373
331
2FAD
  5
20F
331
2EB9
  5
19BE
331
2E00
  5
1AF6
331
2DC1
  5
1B38
331
2E7A
  5
1A4A
331
2EF4
  5
197E
331
2F6E
  5
2F6
331
2FA9
  5
2BF
331
2EB5
  5
19BA
331
2E3B
  5
1AB9
331
2EF0
  5
197A
331
2F6A
  5
2ED
331
2FA5
  5
2BB
331
2EB1
  5
19B6
331
2FA1
  5
2B7
331
107
  5
107
331
206
  5
1965
331
103
  5
103
331
34F
  5
1A6A
331
314
  5
1A44
331
202
  5
1961
331
2DFC
  5
1AF2
331
2DBD
  5
1B34
331
2E76
  5
1A51
331
2E37
  5
1AB5
331
FF
  5
FF
331
172
  5
2E6
331
347
  5
1A65
331
2DF8
  5
1B06
331
2E72
  5
1A63
331
2EEC
  5
1976
331
2F66
  5
194C
331
2EAD
  5
19B2
331
2E33
  5
1AC9
331
2CD
  5
1A18
331
2DB5
  5
1B48
331
2DF4
  5
1B02
331
2E2F
  5
1AC5
331
2EE8
  5
1972
331
2F62
  5
1948
331
2F23
  5
195F
331
2F9D
  5
370
331
2EA9
  5
19AE
331
2E6E
  5
1A6E
331
2DB1
  5
1B44
331
2DF0
  5
1AFE
331
2E2B
  5
1AC1
331
2F1F
  5
19A9
331
2F99
  5
362
331
2F5E
  5
1944
331
2EA5
  5
19AA
331
2EE4
  5
19E9
331
2E6A
  5
1A79
331
2F1B
  5
19A5
331
2F95
  5
35E
331
2F5A
  5
1940
331
2EE0
  5
19E5
331
2F91
  5
350
331
16E
  5
2E2
331
16A
  5
2D4
331
304
  5
1A3A
331
37E
  5
1A8D
331
166
  5
2CB
331
2C5
  5
1A13
331
37A
  5
1A89
331
2E66
  5
1A9C
331
2DEC
  5
1B10
331
162
  5
2C1
331
2FC
  5
1A35
331
2C1
  5
1A10
331
2DAD
  5
1B40
331
376
  5
1A85
331
2E27
  5
1AD5
331
2EDC
  5
19E1
331
2E62
  5
1A98
331
2DE8
  5
1B0C
331
2F56
  5
193C
331
372
  5
1A81
331
2F17
  5
19A1
331
2ED8
  5
19DD
331
2E5E
  5
1A94
331
2E23
  5
1AD1
331
2F52
  5
1938
331
2FCC
  5
135
331
2F13
  5
199D
331
2ED4
  5
19D9
331
2E5A
  5
1AA8
331
2DE0
  5
1B1F
331
2F8D
  5
347
331
2F4E
  5
1934
331
2FC8
  5
131
331
2ED0
  5
19D5
331
2F89
  5
33E
331
2F4A
  5
1930
331
2FC4
  5
16A
331
2FC0
  5
166
331
2BD
  5
1A0C
331
333
  5
1A54
331
2F4
  5
1A30
331
2B9
  5
1A08
331
36E
  5
1A7D
331
2E1F
  5
1ACD
331
136
  5
202
331
2E1B
  5
1AE1
331
2E95
  5
19FA
331
2F0F
  5
1999
331
2E56
  5
1AA4
331
2DDC
  5
1B1B
331
132
  5
170
331
2B1
  5
1A00
331
2E17
  5
1ADD
331
2F0B
  5
1995
331
2ECC
  5
19D1
331
2E52
  5
1AA0
331
2DD8
  5
1B17
331
2F85
  5
33A
331
2F46
  5
192C
331
362
  5
1A77
331
2E13
  5
1AD9
331
2E8D
  5
1A19
331
2F07
  5
1991
331
2EC8
  5
19CD
331
2E4E
  5
1AB4
331
2DD4
  5
1B21
331
2F81
  5
336
331
2F42
  5
1928
331
2FBC
  5
162
331
2E89
  5
1A20
331
2F03
  5
198D
331
2EC4
  5
19C9
331
2E4A
  5
1AB0
331
2DD0
  5
1B2B
331
2F7D
  5
328
331
2F3E
  5
37E
331
2FB8
  5
20B
331
2EC0
  5
19C5
331
2F79
  5
315
331
2F3A
  5
37A
331
2FB4
  5
207
331
2FB0
  5
2B1
331
12E
  5
16C
331
2E4
  5
1A26
331
35E
  5
1A73
331
2E0F
  5
1AED
331
20D
  5
196C
331
2E0B
  5
1AE9
331
2E85
  5
1A2D
331
2EFF
  5
1989
331
2E46
  5
1AAC
331
2DCC
  5
1B27
331
209
  5
1968
331
31B
  5
1A48
331
10A
  5
10A
331
2E81
  5
1A36
331
2EFB
  5
1985
331
2EBC
  5
19C1
331
2E42
  5
1AC0
331
2E07
  5
1AE5
331
2F75
  5
307
331
2F36
  5
376
331
2E03
  5
1AF9
331
2E7D
  5
1A41
331
2EF7
  5
1981
331
2EB8
  5
19BD
331
2E3E
  5
1ABC
331
2DC4
  5
1B3B
331
2F71
  5
303
331
2F32
  5
372
331
2FAC
  5
20E
331
2E79
  5
1A49
331
2EF3
  5
197D
331
2EB4
  5
19B9
331
2E3A
  5
1AB8
331
2DC0
  5
1B37
331
2F6D
  5
2F5
331
2FA8
  5
2BE
331
2EB0
  5
19B5
331
2F69
  5
2E7
331
2F2A
  5
1955
331
2FA4
  5
2BA
331
2FA0
  5
2B6
331
205
  5
1964
331
106
  5
106
331
201
  5
1960
331
313
  5
1A43
331
2D4
  5
1A1C
331
102
  5
102
331
34E
  5
1A69
331
2DFF
  5
1AF5
331
2DFB
  5
1AF1
331
2EEF
  5
1979
331
2E36
  5
1ACC
331
2DBC
  5
1B33
331
171
  5
2E5
331
2CC
  5
1A17
331
346
  5
1A64
331
2DF7
  5
1B05
331
2E71
  5
1A62
331
2EEB
  5
1975
331
2EAC
  5
19B1
331
2E32
  5
1AC8
331
2DB8
  5
1B3D
331
2F65
  5
194B
331
381
  5
1A90
331
2E2E
  5
1AC4
331
2EE7
  5
1971
331
2EA8
  5
19AD
331
2E6D
  5
1A6D
331
2DB4
  5
1B47
331
2DF3
  5
1B01
331
2F61
  5
1947
331
2F22
  5
195E
331
2F9C
  5
36F
331
2E2A
  5
1AD8
331
2EE3
  5
19E8
331
2E69
  5
1A78
331
2DB0
  5
1B43
331
2F1E
  5
19A8
331
2F98
  5
361
331
2F5D
  5
1943
331
2F1A
  5
19A4
331
2F94
  5
358
331
2F59
  5
193F
331
2F90
  5
34F
331
16D
  5
2E1
331
307
  5
1A3D
331
169
  5
2D3
331
303
  5
1A39
331
37D
  5
1A8C
331
2DEF
  5
1AFD
331
2C4
  5
1A12
331
165
  5
2C5
331
379
  5
1A88
331
2E65
  5
1A9B
331
2EDF
  5
19E4
331
2DEB
  5
1B0F
331
2C0
  5
1A0F
331
161
  5
2C0
331
375
  5
1A84
331
2E26
  5
1AD4
331
2E61
  5
1A97
331
2EDB
  5
19E0
331
2DE7
  5
1B0B
331
2F55
  5
193B
331
371
  5
1A80
331
2E5D
  5
1A93
331
2F16
  5
19A0
331
2ED7
  5
19DC
331
2E22
  5
1AD0
331
2F51
  5
1937
331
2FCB
  5
134
331
2E98
  5
19FD
331
2E59
  5
1AA7
331
2F12
  5
199C
331
2ED3
  5
19D8
331
2F8C
  5
346
331
2F4D
  5
1933
331
2FC7
  5
130
331
2F88
  5
33D
331
2F49
  5
192F
331
2FC3
  5
169
331
336
  5
1A57
331
2BC
  5
1A0B
331
2B8
  5
1A07
331
2F3
  5
1A2F
331
139
  5
205
331
2E1E
  5
1AE4
331
2DDF
  5
1B1E
331
2B4
  5
1A03
331
135
  5
201
331
2E1A
  5
1AE0
331
2E55
  5
1AA3
331
2F0E
  5
1998
331
2ECF
  5
19D4
331
2DDB
  5
1B1A
331
2B0
  5
19FF
331
131
  5
16F
331
2E16
  5
1ADC
331
2E90
  5
1A15
331
2E51
  5
1A9F
331
2F0A
  5
1994
331
2ECB
  5
19D0
331
2DD7
  5
1B16
331
2F84
  5
339
331
2F45
  5
192B
331
2FBF
  5
165
331
361
  5
1A76
331
2E12
  5
1AF0
331
2E4D
  5
1AB3
331
2F06
  5
1990
331
2EC7
  5
19CC
331
2DD3
  5
1B2E
331
2F80
  5
335
331
2F41
  5
381
331
2FBB
  5
161
331
2E88
  5
1A2B
331
2E49
  5
1AAF
331
2F02
  5
198C
331
2EC3
  5
19C8
331
2F7C
  5
327
331
2F3D
  5
37D
331
2FB7
  5
20A
331
2F78
  5
314
331
2F39
  5
379
331
2FB3
  5
206
331
2E7
  5
1A29
331
2E3
  5
1A25
331
2E0E
  5
1AEC
331
2DCF
  5
1B2A
331
20C
  5
196B
331
2E0A
  5
1AE8
331
2E84
  5
1A34
331
2E45
  5
1AAB
331
2EFE
  5
1988
331
2EBF
  5
19C4
331
2DCB
  5
1B26
331
208
  5
1967
331
109
  5
109
331
2E80
  5
1A3F
331
2E41
  5
1ABF
331
2EFA
  5
1984
331
2EBB
  5
19C0
331
2E06
  5
1AFC
331
2F74
  5
306
331
2F35
  5
375
331
2FAF
  5
2B0
331
351
  5
1A6C
331
2E02
  5
1AF8
331
2E7C
  5
1A47
331
2E3D
  5
1ABB
331
2EF6
  5
1980
331
2EB7
  5
19BC
331
2DC3
  5
1B3A
331
2F70
  5
302
331
2F31
  5
371
331
2FAB
  5
20D
331
2E78
  5
1A4D
331
2E39
  5
1AB7
331
2EF2
  5
197C
331
2EB3
  5
19B8
331
2F6C
  5
2F4
331
2F2D
  5
1958
331
2FA7
  5
2BD
331
2F68
  5
194E
331
2FA3
  5
2B9
331
204
  5
1963
331
105
  5
105
331
2D3
  5
1A1B
331
101
  5
101
331
34D
  5
1A68
331
2DFE
  5
1AF4
331
2DBF
  5
1B36
331
FD
  5
FD
331
2DFA
  5
1B08
331
2E74
  5
1A53
331
2E35
  5
1ACB
331
2EEE
  5
1978
331
2EAF
  5
19B4
331
2DBB
  5
1B32
331
170
  5
2E4
331
2CB
  5
1A16
331
2E70
  5
1A67
331
2E31
  5
1AC7
331
2EEA
  5
1974
331
2EAB
  5
19B0
331
2DB7
  5
1B4A
331
2DF6
  5
1B04
331
2F64
  5
194A
331
2F9F
  5
2B5
331
380
  5
1A8F
331
2E2D
  5
1AC3
331
2EA7
  5
19AC
331
2EE6
  5
1970
331
2E6C
  5
1A72
331
2DB3
  5
1B46
331
2DF2
  5
1B00
331
2F60
  5
1946
331
2F9B
  5
36E
331
2E29
  5
1AD7
331
2EE2
  5
19E7
331
2F1D
  5
19A7
331
2F97
  5
360
331
2F5C
  5
1942
331
2F19
  5
19A3
331
2F93
  5
357
331
2F58
  5
193E
331
16C
  5
2E0
331
306
  5
1A3C
331
168
  5
2CD
331
302
  5
1A38
331
37C
  5
1A8B
331
2DEE
  5
1B12
331
164
  5
2C4
331
33D
  5
1A5E
331
2DAF
  5
1B42
331
378
  5
1A87
331
2E64
  5
1A9A
331
2EDE
  5
19E3
331
2DEA
  5
1B0E
331
374
  5
1A83
331
2E25
  5
1AD3
331
2E60
  5
1A96
331
2EDA
  5
19DF
331
2DE6
  5
1B0A
331
2F54
  5
193A
331
2FCE
  5
137
331
370
  5
1A7F
331
2E21
  5
1ACF
331
2E5C
  5
1A92
331
2F15
  5
199F
331
2ED6
  5
19DB
331
2DE2
  5
1B13
331
2F8F
  5
34E
331
2F50
  5
1936
331
2FCA
  5
133
331
2E58
  5
1AA6
331
2F11
  5
199B
331
2ED2
  5
19D7
331
2F8B
  5
340
331
2F4C
  5
1932
331
2FC6
  5
12F
331
2F48
  5
192E
331
2FC2
  5
168
331
2BF
  5
1A0E
331
2F6
  5
1A32
331
2BB
  5
1A0A
331
138
  5
204
331
2B7
  5
1A06
331
2E1D
  5
1AE3
331
2E97
  5
19FC
331
2DDE
  5
1B1D
331
134
  5
172
331
2B3
  5
1A02
331
2E19
  5
1ADF
331
2E54
  5
1AA2
331
2F0D
  5
1997
331
2ECE
  5
19D3
331
2DDA
  5
1B19
331
2F87
  5
33C
331
130
  5
16E
331
2E8F
  5
1A14
331
2E50
  5
1A9E
331
2F09
  5
1993
331
2ECA
  5
19CF
331
2E15
  5
1ADB
331
2F83
  5
338
331
2F44
  5
192A
331
2FBE
  5
164
331
360
  5
1A75
331
2E11
  5
1AEF
331
2E4C
  5
1AB2
331
2F05
  5
198F
331
2EC6
  5
19CB
331
2DD2
  5
1B2D
331
2F7F
  5
334
331
2F40
  5
380
331
2FBA
  5
139
331
2E48
  5
1AAE
331
2F01
  5
198B
331
2EC2
  5
19C7
331
2F7B
  5
321
331
2F3C
  5
37C
331
2FB6
  5
209
331
2F38
  5
378
331
2FB2
  5
2B3
331
2AF
  5
19FE
331
2E6
  5
1A28
331
20F
  5
196E
331
321
  5
1A4B
331
2E2
  5
1A24
331
2E0D
  5
1AEB
331
2E87
  5
1A2A
331
2DCE
  5
1B29
331
20B
  5
196A
331
358
  5
1A70
331
2E09
  5
1AE7
331
2E83
  5
1A33
331
2E44
  5
1AAA
331
2EFD
  5
1987
331
2EBE
  5
19C3
331
2DCA
  5
1B25
331
2F77
  5
313
331
2DA
  5
1A1F
331
2E05
  5
1AFB
331
2E7F
  5
1A3E
331
2E40
  5
1ABE
331
2EF9
  5
1983
331
2EBA
  5
19BF
331
2DC6
  5
1B2F
331
2F73
  5
305
331
2F34
  5
374
331
2FAE
  5
2AF
331
350
  5
1A6B
331
2E01
  5
1AF7
331
2E7B
  5
1A46
331
2E3C
  5
1ABA
331
2EF5
  5
197F
331
2EB6
  5
19BB
331
2DC2
  5
1B39
331
2F6F
  5
2FC
331
2FAA
  5
20C
331
2E38
  5
1AB6
331
2EF1
  5
197B
331
2EB2
  5
19B7
331
2F6B
  5
2F3
331
2F2C
  5
1957
331
2FA6
  5
2BC
331
2FA2
  5
2B8
331
207
  5
1966
331
203
  5
1962
331
104
  5
104
331
315
  5
1A45
331
100
  5
100
331
2DFD
  5
1AF3
331
2E77
  5
1A4C
331
2DBE
  5
1B35
331
FC
  5
FC
331
30D
  5
1A40
331
2E73
  5
1A52
331
2E34
  5
1ACA
331
2EED
  5
1977
331
2EAE
  5
19B3
331
2DF9
  5
1B07
331
2F67
  5
194D
331
2E6F
  5
1A66
331
2E30
  5
1AC6
331
2EE9
  5
1973
331
2EAA
  5
19AF
331
2DB6
  5
1B49
331
2DF5
  5
1B03
331
2F63
  5
1949
331
2F9E
  5
2B4
331
2E2C
  5
1AC2
331
2EA6
  5
19AB
331
2EE5
  5
196F
331
2E6B
  5
1A71
331
2DB2
  5
1B45
331
2DF1
  5
1AFF
331
2F5F
  5
1945
331
2F9A
  5
368
331
2E28
  5
1AD6
331
2EE1
  5
19E6
331
2F1C
  5
19A6
331
2F96
  5
35F
331
2F5B
  5
1941
331
2F18
  5
19A2
331
2F92
  5
351
  0
XRECORD
  5
33FA
102
{ACAD_REACTORS
330
33F9
102
}
330
33F9
100
AcDbXrecord
280
     1
 40
286523.0
  1
\A1;\pxql;{\fArial|b1|i0|c0|p34;Inverted^I\PHUC210-2^I\Pfor Increased^I\PUplift^ICapacity}
  0
LAYOUT
  5
6B
102
{ACAD_XDICTIONARY
360
3431
102
}
102
{ACAD_REACTORS
330
62
102
}
330
62
100
AcDbPlotSettings
  1

  2

  4

  6

 40
0.0
 41
0.0
 42
0.0
 43
0.0
 44
0.0
 45
0.0
 46
0.0
 47
0.0
 48
0.0
 49
0.0
140
0.0
141
0.0
142
1.0
143
1.0
 70
   688
 72
     0
 73
     0
 74
     5
  7

 75
    16
147
1.0
148
0.0
149
0.0
100
AcDbLayout
  1
Layout1
 70
     1
 71
     1
 10
0.0
 20
0.0
 11
12.0
 21
9.0
 12
0.0
 22
0.0
 32
0.0
 14
1.000000000000000E+20
 24
1.000000000000000E+20
 34
1.000000000000000E+20
 15
-1.000000000000000E+20
 25
-1.000000000000000E+20
 35
-1.000000000000000E+20
146
0.0
 13
0.0
 23
0.0
 33
0.0
 16
1.0
 26
0.0
 36
0.0
 17
0.0
 27
1.0
 37
0.0
 76
     0
330
68
  0
LAYOUT
  5
73
102
{ACAD_XDICTIONARY
360
3434
102
}
102
{ACAD_REACTORS
330
62
102
}
330
62
100
AcDbPlotSettings
  1

  2

  4

  6

 40
0.0
 41
0.0
 42
0.0
 43
0.0
 44
0.0
 45
0.0
 46
0.0
 47
0.0
 48
0.0
 49
0.0
140
0.0
141
0.0
142
1.0
143
1.0
 70
   688
 72
     0
 73
     0
 74
     5
  7

 75
    16
147
1.0
148
0.0
149
0.0
100
AcDbLayout
  1
Layout2
 70
     1
 71
     2
 10
0.0
 20
0.0
 11
12.0
 21
9.0
 12
0.0
 22
0.0
 32
0.0
 14
0.0
 24
0.0
 34
0.0
 15
0.0
 25
0.0
 35
0.0
146
0.0
 13
0.0
 23
0.0
 33
0.0
 16
1.0
 26
0.0
 36
0.0
 17
0.0
 27
1.0
 37
0.0
 76
     0
330
70
  0
LAYOUT
  5
6F
102
{ACAD_XDICTIONARY
360
2FDB
102
}
102
{ACAD_REACTORS
330
62
102
}
330
62
100
AcDbPlotSettings
  1

  2

  4

  6

 40
0.0
 41
0.0
 42
0.0
 43
0.0
 44
0.0
 45
0.0
 46
0.0
 47
0.0
 48
0.0
 49
0.0
140
0.0
141
0.0
142
1.0
143
1.0
 70
  1712
 72
     0
 73
     0
 74
     0
  7

 75
     0
147
1.0
148
0.0
149
0.0
100
AcDbLayout
  1
Model
 70
     1
 71
     0
 10
0.0
 20
0.0
 11
12.0
 21
9.0
 12
0.0
 22
0.0
 32
0.0
 14
0.0
 24
0.0
 34
0.0
 15
0.0
 25
0.0
 35
0.0
146
0.0
 13
0.0
 23
0.0
 33
0.0
 16
1.0
 26
0.0
 36
0.0
 17
0.0
 27
1.0
 37
0.0
 76
     0
330
6C
331
57
  0
MATERIAL
  5
19
102
{ACAD_XDICTIONARY
360
1A
102
}
102
{ACAD_REACTORS
330
10
102
}
330
10
100
AcDbMaterial
  1
ByBlock
 72
     0
 43
0.0208333333333333
 43
0.0
 43
0.0
 43
0.0
 43
0.0
 43
0.0208333333333333
 43
0.0
 43
0.0
 43
0.0
 43
0.0
 43
1.0
 43
0.0
 43
0.0
 43
0.0
 43
0.0
 43
1.0
 77
     0
 47
0.0208333333333333
 47
0.0
 47
0.0
 47
0.0
 47
0.0
 47
0.0208333333333333
 47
0.0
 47
0.0
 47
0.0
 47
0.0
 47
1.0
 47
0.0
 47
0.0
 47
0.0
 47
0.0
 47
1.0
171
     0
 49
0.0208333333333333
 49
0.0
 49
0.0
 49
0.0
 49
0.0
 49
0.0208333333333333
 49
0.0
 49
0.0
 49
0.0
 49
0.0
 49
1.0
 49
0.0
 49
0.0
 49
0.0
 49
0.0
 49
1.0
175
     0
142
0.0208333333333333
142
0.0
142
0.0
142
0.0
142
0.0
142
0.0208333333333333
142
0.0
142
0.0
142
0.0
142
0.0
142
1.0
142
0.0
142
0.0
142
0.0
142
0.0
142
1.0
179
     0
144
0.0208333333333333
144
0.0
144
0.0
144
0.0
144
0.0
144
0.0208333333333333
144
0.0
144
0.0
144
0.0
144
0.0
144
1.0
144
0.0
144
0.0
144
0.0
144
0.0
144
1.0
147
0.0208333333333333
147
0.0
147
0.0
147
0.0
147
0.0
147
0.0208333333333333
147
0.0
147
0.0
147
0.0
147
0.0
147
1.0
147
0.0
147
0.0
147
0.0
147
0.0
147
1.0
  0
MATERIAL
  5
11
102
{ACAD_XDICTIONARY
360
12
102
}
102
{ACAD_REACTORS
330
10
102
}
330
10
100
AcDbMaterial
  1
ByLayer
 72
     0
 43
0.0208333333333333
 43
0.0
 43
0.0
 43
0.0
 43
0.0
 43
0.0208333333333333
 43
0.0
 43
0.0
 43
0.0
 43
0.0
 43
1.0
 43
0.0
 43
0.0
 43
0.0
 43
0.0
 43
1.0
 77
     0
 47
0.0208333333333333
 47
0.0
 47
0.0
 47
0.0
 47
0.0
 47
0.0208333333333333
 47
0.0
 47
0.0
 47
0.0
 47
0.0
 47
1.0
 47
0.0
 47
0.0
 47
0.0
 47
0.0
 47
1.0
171
     0
 49
0.0208333333333333
 49
0.0
 49
0.0
 49
0.0
 49
0.0
 49
0.0208333333333333
 49
0.0
 49
0.0
 49
0.0
 49
0.0
 49
1.0
 49
0.0
 49
0.0
 49
0.0
 49
0.0
 49
1.0
175
     0
142
0.0208333333333333
142
0.0
142
0.0
142
0.0
142
0.0
142
0.0208333333333333
142
0.0
142
0.0
142
0.0
142
0.0
142
1.0
142
0.0
142
0.0
142
0.0
142
0.0
142
1.0
179
     0
144
0.0208333333333333
144
0.0
144
0.0
144
0.0
144
0.0
144
0.0208333333333333
144
0.0
144
0.0
144
0.0
144
0.0
144
1.0
144
0.0
144
0.0
144
0.0
144
0.0
144
1.0
147
0.0208333333333333
147
0.0
147
0.0
147
0.0
147
0.0
147
0.0208333333333333
147
0.0
147
0.0
147
0.0
147
0.0
147
1.0
147
0.0
147
0.0
147
0.0
147
0.0
147
1.0
  0
MATERIAL
  5
21
102
{ACAD_XDICTIONARY
360
22
102
}
102
{ACAD_REACTORS
330
10
102
}
330
10
100
AcDbMaterial
  1
Global
 72
     0
 43
0.0208333333333333
 43
0.0
 43
0.0
 43
0.0
 43
0.0
 43
0.0208333333333333
 43
0.0
 43
0.0
 43
0.0
 43
0.0
 43
1.0
 43
0.0
 43
0.0
 43
0.0
 43
0.0
 43
1.0
 77
     0
 47
0.0208333333333333
 47
0.0
 47
0.0
 47
0.0
 47
0.0
 47
0.0208333333333333
 47
0.0
 47
0.0
 47
0.0
 47
0.0
 47
1.0
 47
0.0
 47
0.0
 47
0.0
 47
0.0
 47
1.0
171
     0
 49
0.0208333333333333
 49
0.0
 49
0.0
 49
0.0
 49
0.0
 49
0.0208333333333333
 49
0.0
 49
0.0
 49
0.0
 49
0.0
 49
1.0
 49
0.0
 49
0.0
 49
0.0
 49
0.0
 49
1.0
175
     0
142
0.0208333333333333
142
0.0
142
0.0
142
0.0
142
0.0
142
0.0208333333333333
142
0.0
142
0.0
142
0.0
142
0.0
142
1.0
142
0.0
142
0.0
142
0.0
142
0.0
142
1.0
179
     0
144
0.0208333333333333
144
0.0
144
0.0
144
0.0
144
0.0
144
0.0208333333333333
144
0.0
144
0.0
144
0.0
144
0.0
144
1.0
144
0.0
144
0.0
144
0.0
144
0.0
144
1.0
147
0.0208333333333333
147
0.0
147
0.0
147
0.0
147
0.0
147
0.0208333333333333
147
0.0
147
0.0
147
0.0
147
0.0
147
1.0
147
0.0
147
0.0
147
0.0
147
0.0
147
1.0
  0
MLEADERSTYLE
  5
67
102
{ACAD_XDICTIONARY
360
33F7
102
}
102
{ACAD_REACTORS
330
66
102
}
330
66
100
AcDbMLeaderStyle
170
     2
171
     1
172
     0
 90
        2
 40
0.0
 41
0.0
173
     1
 91
-1056964608
340
5B
 92
       -2
290
     1
 42
0.09
291
     1
 43
0.36
  3
Standard
 44
0.18
300

342
55
174
     1
178
     6
175
     1
176
     0
 93
-1056964608
 45
0.18
292
     0
297
     0
 46
0.18
 94
-1056964608
 47
1.0
 49
1.0
140
1.0
293
     1
141
0.0
294
     1
177
     0
142
1.0
295
     0
296
     0
143
0.125
1001
ACAD_MLEADERVER
1070
     2
  0
MLINESTYLE
  5
60
102
{ACAD_REACTORS
330
5F
102
}
330
5F
100
AcDbMlineStyle
  2
STANDARD
 70
     0
  3

 62
   256
 51
90.0
 52
90.0
 71
     2
 49
0.5
 62
   256
  6
BYLAYER
 49
-0.5
 62
   256
  6
BYLAYER
  0
ACDBPLACEHOLDER
  5
F
102
{ACAD_REACTORS
330
E
102
}
330
E
  0
SCALE
  5
43
102
{ACAD_REACTORS
330
42
102
}
330
42
100
AcDbScale
 70
     0
300
1:1
140
1.0
141
1.0
290
     1
  0
SCALE
  5
44
102
{ACAD_REACTORS
330
42
102
}
330
42
100
AcDbScale
 70
     0
300
1/128" = 1'-0"
140
0.0078125
141
12.0
290
     0
  0
SCALE
  5
45
102
{ACAD_REACTORS
330
42
102
}
330
42
100
AcDbScale
 70
     0
300
1/64" = 1'-0"
140
0.015625
141
12.0
290
     0
  0
SCALE
  5
46
102
{ACAD_REACTORS
330
42
102
}
330
42
100
AcDbScale
 70
     0
300
1/32" = 1'-0"
140
0.03125
141
12.0
290
     0
  0
SCALE
  5
47
102
{ACAD_REACTORS
330
42
102
}
330
42
100
AcDbScale
 70
     0
300
1/16" = 1'-0"
140
0.0625
141
12.0
290
     0
  0
SCALE
  5
48
102
{ACAD_REACTORS
330
42
102
}
330
42
100
AcDbScale
 70
     0
300
3/32" = 1'-0"
140
0.09375
141
12.0
290
     0
  0
SCALE
  5
49
102
{ACAD_REACTORS
330
42
102
}
330
42
100
AcDbScale
 70
     0
300
1/8" = 1'-0"
140
0.125
141
12.0
290
     0
  0
SCALE
  5
4A
102
{ACAD_REACTORS
330
42
102
}
330
42
100
AcDbScale
 70
     0
300
3/16" = 1'-0"
140
0.1875
141
12.0
290
     0
  0
SCALE
  5
4B
102
{ACAD_REACTORS
330
42
102
}
330
42
100
AcDbScale
 70
     0
300
1/4" = 1'-0"
140
0.25
141
12.0
290
     0
  0
SCALE
  5
4C
102
{ACAD_REACTORS
330
42
102
}
330
42
100
AcDbScale
 70
     0
300
3/8" = 1'-0"
140
0.375
141
12.0
290
     0
  0
SCALE
  5
4D
102
{ACAD_REACTORS
330
42
102
}
330
42
100
AcDbScale
 70
     0
300
1/2" = 1'-0"
140
0.5
141
12.0
290
     0
  0
SCALE
  5
4E
102
{ACAD_REACTORS
330
42
102
}
330
42
100
AcDbScale
 70
     0
300
3/4" = 1'-0"
140
0.75
141
12.0
290
     0
  0
SCALE
  5
4F
102
{ACAD_REACTORS
330
42
102
}
330
42
100
AcDbScale
 70
     0
300
1" = 1'-0"
140
1.0
141
12.0
290
     0
  0
SCALE
  5
50
102
{ACAD_REACTORS
330
42
102
}
330
42
100
AcDbScale
 70
     0
300
1-1/2" = 1'-0"
140
1.5
141
12.0
290
     0
  0
SCALE
  5
51
102
{ACAD_REACTORS
330
42
102
}
330
42
100
AcDbScale
 70
     0
300
3" = 1'-0"
140
3.0
141
12.0
290
     0
  0
SCALE
  5
52
102
{ACAD_REACTORS
330
42
102
}
330
42
100
AcDbScale
 70
     0
300
6" = 1'-0"
140
6.0
141
12.0
290
     0
  0
SCALE
  5
53
102
{ACAD_REACTORS
330
42
102
}
330
42
100
AcDbScale
 70
     0
300
1'-0" = 1'-0"
140
12.0
141
12.0
290
     0
  0
TABLESTYLE
  5
65
102
{ACAD_XDICTIONARY
360
30FB
102
}
102
{ACAD_REACTORS
330
64
102
}
330
64
100
AcDbTableStyle
  3
Standard
 70
     0
 71
     0
 40
0.06
 41
0.06
280
     0
281
     0
  7
Standard
140
0.18
170
     2
 62
     0
 63
     7
283
     0
274
    -2
284
     1
 64
     0
275
    -2
285
     1
 65
     0
276
    -2
286
     1
 66
     0
277
    -2
287
     1
 67
     0
278
    -2
288
     1
 68
     0
279
    -2
289
     1
 69
     0
  7
Standard
140
0.25
170
     5
 62
     0
 63
     7
283
     0
274
    -2
284
     1
 64
     0
275
    -2
285
     1
 65
     0
276
    -2
286
     1
 66
     0
277
    -2
287
     1
 67
     0
278
    -2
288
     1
 68
     0
279
    -2
289
     1
 69
     0
  7
Standard
140
0.18
170
     5
 62
     0
 63
     7
283
     0
274
    -2
284
     1
 64
     0
275
    -2
285
     1
 65
     0
276
    -2
286
     1
 66
     0
277
    -2
287
     1
 67
     0
278
    -2
288
     1
 68
     0
279
    -2
289
     1
 69
     0
  0
VISUALSTYLE
  5
2F
102
{ACAD_XDICTIONARY
360
340A
102
}
102
{ACAD_REACTORS
330
29
102
}
330
29
100
AcDbVisualStyle
  2
2dWireframe
 70
     4
 71
     0
 72
     2
 73
     0
 90
        0
 40
-0.6
 41
-30.0
 62
     5
 63
     7
 74
     1
 91
        4
 64
     7
 65
   257
 75
     1
175
     1
 42
1.0
 92
        0
 66
   257
 43
1.0
 76
     1
 77
     6
 78
     2
 67
     7
 79
     5
170
     0
171
     0
290
     0
174
     0
 93
        1
 44
0.0
173
     0
291
     0
 45
0.0
1001
ACAD
1000
AcDbSavedByObjectVersion
1070
     0
  0
VISUALSTYLE
  5
2E
102
{ACAD_XDICTIONARY
360
3408
102
}
102
{ACAD_REACTORS
330
29
102
}
330
29
100
AcDbVisualStyle
  2
Basic
 70
     7
 71
     1
 72
     0
 73
     1
 90
        0
 40
-0.6
 41
-30.0
 62
     5
 63
     7
 74
     0
 91
        4
 64
     7
 65
   257
 75
     1
175
     1
 42
1.0
 92
        8
 66
     7
 43
1.0
 76
     1
 77
     6
 78
     2
 67
     7
 79
     5
170
     0
171
     0
290
     0
174
     0
 93
        1
 44
0.0
173
     0
291
     1
 45
0.0
1001
ACAD
1000
AcDbSavedByObjectVersion
1070
     0
  0
VISUALSTYLE
  5
35
102
{ACAD_XDICTIONARY
360
3416
102
}
102
{ACAD_REACTORS
330
29
102
}
330
29
100
AcDbVisualStyle
  2
Brighten
 70
    12
 71
     2
 72
     2
 73
     0
 90
        0
 40
-0.6
 41
-30.0
 62
     5
 63
     7
 74
     1
 91
        4
 64
     7
 65
   257
 75
     1
175
     1
 42
1.0
 92
        8
 66
     7
 43
1.0
 76
     1
 77
     6
 78
     2
 67
     7
 79
     5
170
     0
171
     0
290
     0
174
     0
 93
        1
 44
50.0
173
     0
291
     1
 45
0.0
1001
ACAD
1000
AcDbSavedByObjectVersion
1070
     0
  0
VISUALSTYLE
  5
39
102
{ACAD_XDICTIONARY
360
341E
102
}
102
{ACAD_REACTORS
330
29
102
}
330
29
100
AcDbVisualStyle
  2
ColorChange
 70
    16
 71
     2
 72
     2
 73
     3
 90
        0
 40
-0.6
 41
-30.0
 62
     5
 63
     8
 74
     1
 91
        4
 64
     7
 65
   257
 75
     1
175
     1
 42
1.0
 92
        8
 66
     8
 43
1.0
 76
     1
 77
     6
 78
     2
 67
     7
 79
     5
170
     0
171
     0
290
     0
174
     0
 93
        1
 44
0.0
173
     0
291
     1
 45
0.0
1001
ACAD
1000
AcDbSavedByObjectVersion
1070
     0
  0
VISUALSTYLE
  5
32
102
{ACAD_XDICTIONARY
360
3410
102
}
102
{ACAD_REACTORS
330
29
102
}
330
29
100
AcDbVisualStyle
  2
Conceptual
 70
     9
 71
     3
 72
     2
 73
     0
 90
        0
 40
-0.6
 41
-30.0
 62
     5
 63
     7
 74
     2
 91
        2
 64
     7
 65
   257
 75
     1
175
     1
 42
179.0
 92
        8
 66
     7
 43
1.0
 76
     1
 77
     6
 78
     2
 67
     7
 79
     3
170
     0
171
     0
290
     0
174
     0
 93
        1
 44
0.0
173
     0
291
     0
 45
0.0
1001
ACAD
1000
AcDbSavedByObjectVersion
1070
     0
  0
VISUALSTYLE
  5
34
102
{ACAD_XDICTIONARY
360
3414
102
}
102
{ACAD_REACTORS
330
29
102
}
330
29
100
AcDbVisualStyle
  2
Dim
 70
    11
 71
     2
 72
     2
 73
     0
 90
        0
 40
-0.6
 41
-30.0
 62
     5
 63
     7
 74
     1
 91
        4
 64
     7
 65
   257
 75
     1
175
     1
 42
1.0
 92
        8
 66
     7
 43
1.0
 76
     1
 77
     6
 78
     2
 67
     7
 79
     5
170
     0
171
     0
290
     0
174
     0
 93
        1
 44
-50.0
173
     0
291
     1
 45
0.0
1001
ACAD
1000
AcDbSavedByObjectVersion
1070
     0
  0
VISUALSTYLE
  5
41
102
{ACAD_XDICTIONARY
360
342E
102
}
102
{ACAD_REACTORS
330
29
102
}
330
29
100
AcDbVisualStyle
  2
EdgeColorOff
 70
    22
 71
     2
 72
     2
 73
     0
 90
        0
 40
-0.6
 41
-30.0
 62
     5
 63
     7
 74
     1
 91
        4
 64
     7
 65
   257
 75
     1
175
     1
 42
1.0
 92
        8
 66
     7
 43
1.0
 76
     1
 77
     6
 78
     2
 67
     7
 79
     5
170
     0
171
     0
290
     0
174
     0
 93
        1
 44
0.0
173
     0
291
     1
 45
0.0
1001
ACAD
1000
AcDbSavedByObjectVersion
1070
     0
  0
VISUALSTYLE
  5
38
102
{ACAD_XDICTIONARY
360
341C
102
}
102
{ACAD_REACTORS
330
29
102
}
330
29
100
AcDbVisualStyle
  2
Facepattern
 70
    15
 71
     2
 72
     2
 73
     0
 90
        0
 40
-0.6
 41
-30.0
 62
     5
 63
     7
 74
     1
 91
        4
 64
     7
 65
   257
 75
     1
175
     1
 42
1.0
 92
        8
 66
     7
 43
1.0
 76
     1
 77
     6
 78
     2
 67
     7
 79
     5
170
     0
171
     0
290
     0
174
     0
 93
        1
 44
0.0
173
     0
291
     1
 45
0.0
1001
ACAD
1000
AcDbSavedByObjectVersion
1070
     0
  0
VISUALSTYLE
  5
2A
102
{ACAD_XDICTIONARY
360
3400
102
}
102
{ACAD_REACTORS
330
29
102
}
330
29
100
AcDbVisualStyle
  2
Flat
 70
     0
 71
     2
 72
     1
 73
     1
 90
        2
 40
-0.6
 41
30.0
 62
     5
 63
     7
 74
     0
 91
        0
 64
     7
 65
   257
 75
     1
175
     1
 42
1.0
 92
        8
 66
     7
 43
1.0
 76
     1
 77
     6
 78
     2
 67
     7
 79
     5
170
     0
171
     0
290
     0
174
     0
 93
       13
 44
0.0
173
     0
291
     1
 45
0.0
1001
ACAD
1000
AcDbSavedByObjectVersion
1070
     0
  0
VISUALSTYLE
  5
2B
102
{ACAD_XDICTIONARY
360
3402
102
}
102
{ACAD_REACTORS
330
29
102
}
330
29
100
AcDbVisualStyle
  2
FlatWithEdges
 70
     1
 71
     2
 72
     1
 73
     1
 90
        2
 40
-0.6
 41
30.0
 62
     5
 63
     7
 74
     1
 91
        0
 64
     7
 65
   257
 75
     1
175
     1
 42
1.0
 92
        0
 66
   257
 43
1.0
 76
     1
 77
     6
 78
     2
 67
     7
 79
     5
170
     0
171
     0
290
     0
174
     0
 93
       13
 44
0.0
173
     0
291
     1
 45
0.0
1001
ACAD
1000
AcDbSavedByObjectVersion
1070
     0
  0
VISUALSTYLE
  5
2C
102
{ACAD_XDICTIONARY
360
3404
102
}
102
{ACAD_REACTORS
330
29
102
}
330
29
100
AcDbVisualStyle
  2
Gouraud
 70
     2
 71
     2
 72
     2
 73
     1
 90
        2
 40
-0.6
 41
30.0
 62
     5
 63
     7
 74
     0
 91
        0
 64
     7
 65
   257
 75
     1
175
     1
 42
1.0
 92
        0
 66
     7
 43
1.0
 76
     1
 77
     6
 78
     2
 67
     7
 79
     5
170
     0
171
     0
290
     0
174
     0
 93
       13
 44
0.0
173
     0
291
     1
 45
0.0
1001
ACAD
1000
AcDbSavedByObjectVersion
1070
     0
  0
VISUALSTYLE
  5
2D
102
{ACAD_XDICTIONARY
360
3406
102
}
102
{ACAD_REACTORS
330
29
102
}
330
29
100
AcDbVisualStyle
  2
GouraudWithEdges
 70
     3
 71
     2
 72
     2
 73
     1
 90
        2
 40
-0.6
 41
30.0
 62
     5
 63
     7
 74
     1
 91
        0
 64
     7
 65
   257
 75
     1
175
     1
 42
1.0
 92
        0
 66
   257
 43
1.0
 76
     1
 77
     6
 78
     2
 67
     7
 79
     5
170
     0
171
     0
290
     0
174
     0
 93
       13
 44
0.0
173
     0
291
     1
 45
0.0
1001
ACAD
1000
AcDbSavedByObjectVersion
1070
     0
  0
VISUALSTYLE
  5
31
102
{ACAD_XDICTIONARY
360
340E
102
}
102
{ACAD_REACTORS
330
29
102
}
330
29
100
AcDbVisualStyle
  2
Hidden
 70
     6
 71
     1
 72
     2
 73
     2
 90
        0
 40
-0.6
 41
-30.0
 62
     5
 63
     7
 74
     2
 91
        2
 64
     7
 65
   257
 75
     2
175
     1
 42
40.0
 92
        0
 66
   257
 43
1.0
 76
     1
 77
     6
 78
     2
 67
     7
 79
     3
170
     0
171
     0
290
     0
174
     0
 93
        1
 44
0.0
173
     0
291
     0
 45
0.0
1001
ACAD
1000
AcDbSavedByObjectVersion
1070
     0
  0
VISUALSTYLE
  5
3F
102
{ACAD_XDICTIONARY
360
342A
102
}
102
{ACAD_REACTORS
330
29
102
}
330
29
100
AcDbVisualStyle
  2
JitterOff
 70
    20
 71
     2
 72
     2
 73
     0
 90
        0
 40
-0.6
 41
-30.0
 62
     5
 63
     7
 74
     1
 91
        4
 64
     7
 65
   257
 75
     1
175
     1
 42
1.0
 92
       10
 66
     7
 43
1.0
 76
     1
 77
     6
 78
     2
 67
     7
 79
     5
170
     0
171
     0
290
     0
174
     0
 93
        1
 44
0.0
173
     0
291
     1
 45
0.0
1001
ACAD
1000
AcDbSavedByObjectVersion
1070
     0
  0
VISUALSTYLE
  5
37
102
{ACAD_XDICTIONARY
360
341A
102
}
102
{ACAD_REACTORS
330
29
102
}
330
29
100
AcDbVisualStyle
  2
Linepattern
 70
    14
 71
     2
 72
     2
 73
     0
 90
        0
 40
-0.6
 41
-30.0
 62
     5
 63
     7
 74
     1
 91
        4
 64
     7
 65
   257
 75
     7
175
     7
 42
1.0
 92
        8
 66
     7
 43
1.0
 76
     1
 77
     6
 78
     2
 67
     7
 79
     5
170
     0
171
     0
290
     0
174
     0
 93
        1
 44
0.0
173
     0
291
     1
 45
0.0
1001
ACAD
1000
AcDbSavedByObjectVersion
1070
     0
  0
VISUALSTYLE
  5
40
102
{ACAD_XDICTIONARY
360
342C
102
}
102
{ACAD_REACTORS
330
29
102
}
330
29
100
AcDbVisualStyle
  2
OverhangOff
 70
    21
 71
     2
 72
     2
 73
     0
 90
        0
 40
-0.6
 41
-30.0
 62
     5
 63
     7
 74
     1
 91
        4
 64
     7
 65
   257
 75
     1
175
     1
 42
1.0
 92
        9
 66
     7
 43
1.0
 76
     1
 77
     6
 78
     2
 67
     7
 79
     5
170
     0
171
     0
290
     0
174
     0
 93
        1
 44
0.0
173
     0
291
     1
 45
0.0
1001
ACAD
1000
AcDbSavedByObjectVersion
1070
     0
  0
VISUALSTYLE
  5
33
102
{ACAD_XDICTIONARY
360
3412
102
}
102
{ACAD_REACTORS
330
29
102
}
330
29
100
AcDbVisualStyle
  2
Realistic
 70
     8
 71
     2
 72
     2
 73
     0
 90
        2
 40
-0.6
 41
30.0
 62
     5
 63
     7
 74
     0
 91
        0
 64
     7
 65
   257
 75
     1
175
     1
 42
1.0
 92
        8
 66
   257
 43
1.0
 76
     1
 77
     6
 78
     2
 67
     7
 79
     3
170
     0
171
     0
290
     0
174
     0
 93
       13
 44
0.0
173
     0
291
     0
 45
0.0
1001
ACAD
1000
AcDbSavedByObjectVersion
1070
     0
  0
VISUALSTYLE
  5
3E
102
{ACAD_XDICTIONARY
360
3428
102
}
102
{ACAD_REACTORS
330
29
102
}
330
29
100
AcDbVisualStyle
  2
Shaded
 70
    27
 71
     2
 72
     2
 73
     1
 90
        2
 40
-0.6
 41
30.0
 62
     5
 63
     7
 74
     0
 91
        4
 64
     7
 65
   257
 75
     1
175
     1
 42
1.0
 92
        8
 66
   257
 43
1.0
 76
     1
 77
     6
 78
     2
 67
     8
 79
     3
170
     0
171
     0
290
     0
174
     0
 93
        5
 44
0.0
173
     0
291
     0
 45
0.0
1001
ACAD
1000
AcDbSavedByObjectVersion
1070
     0
  0
VISUALSTYLE
  5
3D
102
{ACAD_XDICTIONARY
360
3426
102
}
102
{ACAD_REACTORS
330
29
102
}
330
29
100
AcDbVisualStyle
  2
Shaded with edges
 70
    26
 71
     2
 72
     2
 73
     1
 90
        2
 40
-0.6
 41
30.0
 62
     5
 63
     7
 74
     1
 91
       10
 64
     7
 65
   257
 75
     2
175
     1
 42
1.0
 92
        8
 66
   257
 43
1.0
 76
     1
 77
     6
 78
     2
 67
     7
 79
     3
170
     0
171
     0
290
     0
174
     0
 93
        5
 44
0.0
173
     0
291
     0
 45
0.0
1001
ACAD
1000
AcDbSavedByObjectVersion
1070
     0
  0
VISUALSTYLE
  5
3A
102
{ACAD_XDICTIONARY
360
3420
102
}
102
{ACAD_REACTORS
330
29
102
}
330
29
100
AcDbVisualStyle
  2
Shades of Gray
 70
    23
 71
     2
 72
     2
 73
     3
 90
        0
 40
-0.6
 41
-30.0
 62
     5
 63
     7
 74
     2
 91
        2
 64
     7
 65
     7
 75
     1
175
     1
 42
40.0
 92
        8
 66
     7
 43
1.0
 76
     1
 77
     6
 78
     2
 67
     7
 79
     3
170
     0
171
     0
290
     0
174
     0
 93
        1
 44
0.0
173
     0
291
     0
 45
0.0
1001
ACAD
1000
AcDbSavedByObjectVersion
1070
     0
  0
VISUALSTYLE
  5
3B
102
{ACAD_XDICTIONARY
360
3422
102
}
102
{ACAD_REACTORS
330
29
102
}
330
29
100
AcDbVisualStyle
  2
Sketchy
 70
    24
 71
     1
 72
     2
 73
     2
 90
        0
 40
-0.6
 41
-30.0
 62
     5
 63
     7
 74
     2
 91
        2
 64
     7
 65
     7
 75
     1
175
     1
 42
40.0
 92
       11
 66
     7
 43
1.0
 76
     1
 77
     6
 78
     2
 67
     7
 79
     6
170
     0
171
     0
290
     0
174
     0
 93
        1
 44
0.0
173
     0
291
     0
 45
0.0
1001
ACAD
1000
AcDbSavedByObjectVersion
1070
     0
  0
VISUALSTYLE
  5
36
102
{ACAD_XDICTIONARY
360
3418
102
}
102
{ACAD_REACTORS
330
29
102
}
330
29
100
AcDbVisualStyle
  2
Thicken
 70
    13
 71
     2
 72
     2
 73
     0
 90
        0
 40
-0.6
 41
-30.0
 62
     5
 63
     7
 74
     1
 91
        4
 64
     7
 65
   257
 75
     1
175
     1
 42
1.0
 92
       12
 66
     7
 43
1.0
 76
     1
 77
     6
 78
     2
 67
     7
 79
     5
170
     0
171
     0
290
     0
174
     0
 93
        1
 44
0.0
173
     0
291
     1
 45
0.0
1001
ACAD
1000
AcDbSavedByObjectVersion
1070
     0
  0
VISUALSTYLE
  5
30
102
{ACAD_XDICTIONARY
360
340C
102
}
102
{ACAD_REACTORS
330
29
102
}
330
29
100
AcDbVisualStyle
  2
Wireframe
 70
     5
 71
     0
 72
     2
 73
     0
 90
        0
 40
-0.6
 41
-30.0
 62
     5
 63
     7
 74
     1
 91
        4
 64
     7
 65
   257
 75
     1
175
     1
 42
1.0
 92
        0
 66
   257
 43
1.0
 76
     1
 77
     6
 78
     2
 67
     7
 79
     3
170
     0
171
     0
290
     0
174
     0
 93
        1
 44
0.0
173
     0
291
     0
 45
0.0
1001
ACAD
1000
AcDbSavedByObjectVersion
1070
     0
  0
VISUALSTYLE
  5
3C
102
{ACAD_XDICTIONARY
360
3424
102
}
102
{ACAD_REACTORS
330
29
102
}
330
29
100
AcDbVisualStyle
  2
X-Ray
 70
    25
 71
     2
 72
     2
 73
     1
 90
        1
 40
0.5
 41
-30.0
 62
     5
 63
     7
 74
     1
 91
        0
 64
     7
 65
   257
 75
     1
175
     1
 42
1.0
 92
        8
 66
     7
 43
1.0
 76
     1
 77
     6
 78
     2
 67
     7
 79
     3
170
     0
171
     0
290
     0
174
     0
 93
       13
 44
0.0
173
     0
291
     0
 45
0.0
1001
ACAD
1000
AcDbSavedByObjectVersion
1070
     0
  0
DICTIONARYVAR
  5
488
102
{ACAD_REACTORS
330
485
102
}
330
485
100
DictionaryVariables
280
     0
  1
1:1
  0
DICTIONARYVAR
  5
487
102
{ACAD_REACTORS
330
485
102
}
330
485
100
DictionaryVariables
280
     0
  1
STANDARD
  0
DICTIONARYVAR
  5
486
102
{ACAD_REACTORS
330
485
102
}
330
485
100
DictionaryVariables
280
     0
  1
STANDARD
  0
DICTIONARYVAR
  5
3146
102
{ACAD_REACTORS
330
485
102
}
330
485
100
DictionaryVariables
280
     0
  1
2
  0
DICTIONARYVAR
  5
3145
102
{ACAD_REACTORS
330
485
102
}
330
485
100
DictionaryVariables
280
     0
  1
1
  0
DICTIONARYVAR
  5
3144
102
{ACAD_REACTORS
330
485
102
}
330
485
100
DictionaryVariables
280
     0
  1
0
  0
DICTIONARYVAR
  5
33F2
102
{ACAD_REACTORS
330
485
102
}
330
485
100
DictionaryVariables
280
     0
  1
0.000000
  0
DICTIONARYVAR
  5
3141
102
{ACAD_REACTORS
330
485
102
}
330
485
100
DictionaryVariables
280
     0
  1
0
  0
DICTIONARYVAR
  5
3142
102
{ACAD_REACTORS
330
485
102
}
330
485
100
DictionaryVariables
280
     0
  1
0
  0
DICTIONARYVAR
  5
3140
102
{ACAD_REACTORS
330
485
102
}
330
485
100
DictionaryVariables
280
     0
  1
2
  0
DICTIONARYVAR
  5
33F3
102
{ACAD_REACTORS
330
485
102
}
330
485
100
DictionaryVariables
280
     0
  1
0.000000
  0
DICTIONARYVAR
  5
313F
102
{ACAD_REACTORS
330
485
102
}
330
485
100
DictionaryVariables
280
     0
  1
1
  0
DICTIONARYVAR
  5
3143
102
{ACAD_REACTORS
330
485
102
}
330
485
100
DictionaryVariables
280
     0
  1
127
  0
DICTIONARYVAR
  5
33F4
102
{ACAD_REACTORS
330
485
102
}
330
485
100
DictionaryVariables
280
     0
  1
0
  0
DICTIONARYVAR
  5
33F5
102
{ACAD_REACTORS
330
485
102
}
330
485
100
DictionaryVariables
280
     0
  1
2
  0
XRECORD
  5
47F
102
{ACAD_REACTORS
330
47B
102
}
330
47B
100
AcDbXrecord
280
     1
  1
BUILDING_ID
  1
D92-133
  1
FLOOR_ID
  1
568701
  0
XRECORD
  5
47D
102
{ACAD_REACTORS
330
47B
102
}
330
47B
100
AcDbXrecord
280
     1
  1
-2000151
  1
Generic Models
  1
-2000196
  1
Imports in Families
  1
-2000300
  1
Text Notes
  0
XRECORD
  5
47E
102
{ACAD_REACTORS
330
47B
102
}
330
47B
100
AcDbXrecord
280
     1
  1
388270
  1
Fasteners
  1
476753
  1
0
  0
XRECORD
  5
47C
102
{ACAD_REACTORS
330
47B
102
}
330
47B
100
AcDbXrecord
280
     1
  1
401143
  1
Text : 13/128" Bold
  1
519623
  1
Text : 1/6" Bold Border
  1
565638
  1
stud D126 : stud D97
  1
565887
  1
stud D131 : stud D97
  1
565932
  1
stud D132 : stud D97
  1
567159
  1
HUC210-2 FACE BASE : HUC210-2 FACE BASE
  1
568732
  1
rim D7 : rim D98
  0
DICTIONARY
  5
3431
330
6B
100
AcDbDictionary
280
     1
281
     1
  3
ACAD_XREC_ROUNDTRIP
360
3432
  0
DICTIONARY
  5
3434
330
73
100
AcDbDictionary
280
     1
281
     1
  3
ACAD_XREC_ROUNDTRIP
360
3435
  0
DICTIONARY
  5
2FDB
330
6F
100
AcDbDictionary
280
     1
281
     1
  3
ACAD_XREC_ROUNDTRIP
360
3433
  3
ADSK_XREC_LAYOUTTHUMBNAIL
360
2FDC
  0
DICTIONARY
  5
1A
330
19
100
AcDbDictionary
280
     1
281
     1
  3
ACAD_XREC_ROUNDTRIP
360
33FE
  3
BUMPTILE
360
1C
  3
DIFFUSETILE
360
1B
  3
OPACITYTILE
360
1F
  3
REFLECTIONTILE
360
1E
  3
REFRACTIONTILE
360
20
  3
SPECULARTILE
360
1D
  0
DICTIONARY
  5
12
330
11
100
AcDbDictionary
280
     1
281
     1
  3
ACAD_XREC_ROUNDTRIP
360
33FD
  3
BUMPTILE
360
14
  3
DIFFUSETILE
360
13
  3
OPACITYTILE
360
17
  3
REFLECTIONTILE
360
16
  3
REFRACTIONTILE
360
18
  3
SPECULARTILE
360
15
  0
DICTIONARY
  5
22
330
21
100
AcDbDictionary
280
     1
281
     1
  3
ACAD_XREC_ROUNDTRIP
360
33FF
  3
BUMPTILE
360
24
  3
DIFFUSETILE
360
23
  3
OPACITYTILE
360
27
  3
REFLECTIONTILE
360
26
  3
REFRACTIONTILE
360
28
  3
SPECULARTILE
360
25
  0
DICTIONARY
  5
33F7
330
67
100
AcDbDictionary
280
     1
281
     1
  3
ACAD_XREC_ROUNDTRIP
360
33F8
  0
DICTIONARY
  5
30FB
330
65
100
AcDbDictionary
280
     1
281
     1
  3
ACAD_ROUNDTRIP_2008_TABLESTYLE_CELLSTYLEMAP
360
33F6
  3
ACAD_XREC_ROUNDTRIP
360
3430
  0
DICTIONARY
  5
340A
330
2F
100
AcDbDictionary
280
     1
281
     1
  3
ACAD_XREC_ROUNDTRIP
360
340B
  0
DICTIONARY
  5
3408
330
2E
100
AcDbDictionary
280
     1
281
     1
  3
ACAD_XREC_ROUNDTRIP
360
3409
  0
DICTIONARY
  5
3416
330
35
100
AcDbDictionary
280
     1
281
     1
  3
ACAD_XREC_ROUNDTRIP
360
3417
  0
DICTIONARY
  5
341E
330
39
100
AcDbDictionary
280
     1
281
     1
  3
ACAD_XREC_ROUNDTRIP
360
341F
  0
DICTIONARY
  5
3410
330
32
100
AcDbDictionary
280
     1
281
     1
  3
ACAD_XREC_ROUNDTRIP
360
3411
  0
DICTIONARY
  5
3414
330
34
100
AcDbDictionary
280
     1
281
     1
  3
ACAD_XREC_ROUNDTRIP
360
3415
  0
DICTIONARY
  5
342E
330
41
100
AcDbDictionary
280
     1
281
     1
  3
ACAD_XREC_ROUNDTRIP
360
342F
  0
DICTIONARY
  5
341C
330
38
100
AcDbDictionary
280
     1
281
     1
  3
ACAD_XREC_ROUNDTRIP
360
341D
  0
DICTIONARY
  5
3400
330
2A
100
AcDbDictionary
280
     1
281
     1
  3
ACAD_XREC_ROUNDTRIP
360
3401
  0
DICTIONARY
  5
3402
330
2B
100
AcDbDictionary
280
     1
281
     1
  3
ACAD_XREC_ROUNDTRIP
360
3403
  0
DICTIONARY
  5
3404
330
2C
100
AcDbDictionary
280
     1
281
     1
  3
ACAD_XREC_ROUNDTRIP
360
3405
  0
DICTIONARY
  5
3406
330
2D
100
AcDbDictionary
280
     1
281
     1
  3
ACAD_XREC_ROUNDTRIP
360
3407
  0
DICTIONARY
  5
340E
330
31
100
AcDbDictionary
280
     1
281
     1
  3
ACAD_XREC_ROUNDTRIP
360
340F
  0
DICTIONARY
  5
342A
330
3F
100
AcDbDictionary
280
     1
281
     1
  3
ACAD_XREC_ROUNDTRIP
360
342B
  0
DICTIONARY
  5
341A
330
37
100
AcDbDictionary
280
     1
281
     1
  3
ACAD_XREC_ROUNDTRIP
360
341B
  0
DICTIONARY
  5
342C
330
40
100
AcDbDictionary
280
     1
281
     1
  3
ACAD_XREC_ROUNDTRIP
360
342D
  0
DICTIONARY
  5
3412
330
33
100
AcDbDictionary
280
     1
281
     1
  3
ACAD_XREC_ROUNDTRIP
360
3413
  0
DICTIONARY
  5
3428
330
3E
100
AcDbDictionary
280
     1
281
     1
  3
ACAD_XREC_ROUNDTRIP
360
3429
  0
DICTIONARY
  5
3426
330
3D
100
AcDbDictionary
280
     1
281
     1
  3
ACAD_XREC_ROUNDTRIP
360
3427
  0
DICTIONARY
  5
3420
330
3A
100
AcDbDictionary
280
     1
281
     1
  3
ACAD_XREC_ROUNDTRIP
360
3421
  0
DICTIONARY
  5
3422
330
3B
100
AcDbDictionary
280
     1
281
     1
  3
ACAD_XREC_ROUNDTRIP
360
3423
  0
DICTIONARY
  5
3418
330
36
100
AcDbDictionary
280
     1
281
     1
  3
ACAD_XREC_ROUNDTRIP
360
3419
  0
DICTIONARY
  5
340C
330
30
100
AcDbDictionary
280
     1
281
     1
  3
ACAD_XREC_ROUNDTRIP
360
340D
  0
DICTIONARY
  5
3424
330
3C
100
AcDbDictionary
280
     1
281
     1
  3
ACAD_XREC_ROUNDTRIP
360
3425
  0
XRECORD
  5
3432
102
{ACAD_REACTORS
330
3431
102
}
330
3431
100
AcDbXrecord
280
     1
102
SHADEPLOT
 70
     0
102
SHADEPLOTRESLEVEL
 70
     2
102
SHADEPLOTCUSTOMDPI
 70
   300
  0
XRECORD
  5
3435
102
{ACAD_REACTORS
330
3434
102
}
330
3434
100
AcDbXrecord
280
     1
102
SHADEPLOT
 70
     0
102
SHADEPLOTRESLEVEL
 70
     2
102
SHADEPLOTCUSTOMDPI
 70
   300
  0
XRECORD
  5
3433
102
{ACAD_REACTORS
330
2FDB
102
}
330
2FDB
100
AcDbXrecord
280
     1
102
SHADEPLOT
 70
     0
102
SHADEPLOTRESLEVEL
 70
     2
102
SHADEPLOTCUSTOMDPI
 70
   300
  0
XRECORD
  5
2FDC
102
{ACAD_REACTORS
330
2FDB
102
}
330
2FDB
100
AcDbXrecord
280
     1
310
28000000000100008E0000000100080000000000008E0000000000000000000000010000000000000000000000000000FFFFFF000000000000000000000000000000000000000000000000000000000000000000330000006600000099000000CC000000FF00000000330000333300006633000099330000CC330000FF3300
310
0000660000336600006666000099660000CC660000FF66000000990000339900006699000099990000CC990000FF99000000CC000033CC000066CC000099CC0000CCCC0000FFCC000000FF000033FF000066FF000099FF0000CCFF0000FFFF000000003300330033006600330099003300CC003300FF003300003333003333
310
33006633330099333300CC333300FF33330000663300336633006666330099663300CC663300FF66330000993300339933006699330099993300CC993300FF99330000CC330033CC330066CC330099CC3300CCCC3300FFCC330000FF330033FF330066FF330099FF3300CCFF3300FFFF330000006600330066006600660099
310
006600CC006600FF00660000336600333366006633660099336600CC336600FF33660000666600336666006666660099666600CC666600FF66660000996600339966006699660099996600CC996600FF99660000CC660033CC660066CC660099CC6600CCCC6600FFCC660000FF660033FF660066FF660099FF6600CCFF6600
310
FFFF660000009900330099006600990099009900CC009900FF00990000339900333399006633990099339900CC339900FF33990000669900336699006666990099669900CC669900FF66990000999900339999006699990099999900CC999900FF99990000CC990033CC990066CC990099CC9900CCCC9900FFCC990000FF99
310
0033FF990066FF990099FF9900CCFF9900FFFF99000000CC003300CC006600CC009900CC00CC00CC00FF00CC000033CC003333CC006633CC009933CC00CC33CC00FF33CC000066CC003366CC006666CC009966CC00CC66CC00FF66CC000099CC003399CC006699CC009999CC00CC99CC00FF99CC0000CCCC0033CCCC0066CC
310
CC0099CCCC00CCCCCC00FFCCCC0000FFCC0033FFCC0066FFCC0099FFCC00CCFFCC00FFFFCC000000FF003300FF006600FF009900FF00CC00FF00FF00FF000033FF003333FF006633FF009933FF00CC33FF00FF33FF000066FF003366FF006666FF009966FF00CC66FF00FF66FF000099FF003399FF006699FF009999FF00CC
310
99FF00FF99FF0000CCFF0033CCFF0066CCFF0099CCFF00CCCCFF00FFCCFF0000FFFF0033FFFF0066FFFF0099FFFF00CCFFFF00FFFFFF00000000000D0D0D001A1A1A00282828003535350043434300505050005D5D5D006B6B6B00787878008686860093939300A1A1A100AEAEAE00BBBBBB00C9C9C900D6D6D600E4E4E400
310
F1F1F100FFFFFF000000000000000000000000000000000000000000000000000000000000000000000000000000000000000000000000000000000000000000000000000000000000000000000000000000000000000000000000000000000000000000000000000000000000000000000000000000000000000000000000
310
00000000000000000000000000000000000000000000000000000000000000000000000000000000000000000000000000000000000000000000000000000000000000000000000000000000000000000000000000000000000000000000000000000000000000000000000000000000000000000000000000000000000000
310
00000000000000000000000000000000000000000000000000000000000000000000000000000000000000000000000000000000000000000000000000000000000000000000000000000000000000000000000000000000000000000000000000000000000000000000000000000000000000000000000000000000000000
310
00000000000000000000000000000000000000000000000000000000000000000000000000000000000000000000000000000000000000000000000000000000000000000000000000000000000000000000000000000000000000000000000000000000000000000000000000000000000000000000000000000000000000
310
00000000000000000000000000000000000000000000000000000000000000000000000000000000000000000000000000000000000000000000000000000000000000000000000000000000000000000000000000000000000000000000000000000000000000000000000000000000000000000000000000000000000000
310
00000000000000000000000000000000000000000000000000000000000000000000000000000000000000000000000000000000000000000000000000000000000000000000000000000000000000000000000000000000000000000000000000000000000000000000000000000000000000000000000000000000000000
310
00000000000000000000000000000000000000000000000000000000000000000000000000000000000000000000000000000000000000000000000000000000000000000000000000000000000000000000000000000000000000000000000000000000000000000000000000000000000000000000000000000000000000
310
00000000000000000000000000000000000000000000000000000000000000000000000000000000000000000000000000000000000000000000000000000000000000000000000000000000000000000000000000000000000000000000000000000000000000000000000000000000000000000000000000000000000000
310
00000000000000000000000000000000000000000000000000000000000000000000000000000000000000000000000000000000000000000000000000000000000000000000000000000000000000000000000000000000000000000000000000000000000000000000000000000000000000000000000000000000000000
310
00000000000000000000000000000000000000000000000000000000000000000000000000000000000000000000000000000000000000000000000000000000000000000000000000000000000000000000000000000000000000000000000000000000000000000000000000000000000000000000000000000000000000
310
00000000000000000000000000000000000000000000000000000000000000000000000000000000000000000000000000000000000000000000000000000000000000000000000000000000000000000000000000000000000000000000000000000000000000000000000000000000000000000000000000000000000000
310
000000000000000000000000000000000000000000000000000000000000000000000000000000000000000000000000000000F50000000000F5F50000000000000000000000000000000000000000000000000000000000000000000000000000000000000000000000000000000000000000000000000000000000000000
310
00000000000000000000000000000000000000000000000000000000000000000000000000000000000000000000000000000000000000000000000000000000000000000000000000000000000000000000000000000000000000000000000000000000000000000000000000000000000000000000000000000000000000
310
0000000000000000000000000000000000000000000000000000000000000000000000000000000000000000000000000000000000F5F5F500F5F500F5F5F500000000000000000000000000000000000000000000000000000000000000000000000000000000000000000000000000000000000000000000000000000000
310
00000000000000000000000000000000000000000000000000000000000000000000000000000000000000000000000000000000000000000000000000000000000000000000000000000000000000000000000000000000000000000000000000000000000000000000000000000000000000000000000000000000000000
310
00000000000000000000000000000000000000000000000000000000000000000000000000000000000000000000000000000000000000F500F5F5000000F50000F5F5000000000000000000000000000000000000000000000000000000000000000000000000000000000000000000000000000000000000000000000000
310
00000000000000000000000000000000000000000000000000000000000000000000000000000000000000000000000000000000000000000000000000000000000000000000000000000000000000000000000000000000000000000000000000000000000000000000000000000000000000000000000000000000000000
310
000000000000000000000000000000000000000000000000000000000000000000000000000000000000000000000000000000000000000000F5000000000000F500000000F5000000000000000000000000000000000000000000000000000000000000000000000000000000000000000000000000000000000000000000
310
00000000000000000000000000000000000000000000000000000000000000000000000000000000000000000000000000000000000000000000000000000000000000000000000000000000000000000000000000000000000000000000000000000000000000000000000000000000000000000000000000000000000000
310
000000000000000000000000000000000000000000000000000000000000000000000000000000000000000000000000000000000000000000F500F5000000000000F500000000F5F5F50000000000000000000000000000000000000000000000000000000000000000000000000000000000000000000000000000000000
310
00000000000000000000000000000000000000000000000000000000000000000000000000000000000000000000000000000000000000000000000000000000000000000000000000000000000000000000000000000000000000000000000000000000000000000000000000000000000000000000000000000000000000
310
000000000000000000000000000000000000000000000000000000000000000000000000000000000000000000000000000000000000000000F5F500F5F5000000000000F500000000F50000F5F500000000000000000000000000000000000000000000000000000000000000000000000000000000000000000000000000
310
00000000000000000000000000000000000000000000000000000000000000000000000000000000000000000000000000000000000000000000000000000000000000000000000000000000000000000000000000000000000000000000000000000000000000000000000000000000000000000000000000000000000000
310
000000000000000000000000000000000000000000000000000000000000000000000000000000000000000000000000000000000000000000F5F500000000F5000000000000F500000000F500000000F5F5000000000000000000000000000000000000000000000000000000000000000000000000000000000000000000
310
00000000000000000000000000000000000000000000000000000000000000000000000000000000000000000000000000000000000000000000000000000000000000000000000000000000000000000000000000000000000000000000000000000000000000000000000000000000000000000000000000000000000000
310
0000000000000000000000000000000000000000000000000000000000000000000000000000000000000000000000000000000000000000000000F5000000000000000000000000F500000000F500000000F500F5F50000000000000000000000000000000000000000000000000000000000000000000000000000000000
310
00000000000000000000000000000000000000000000000000000000000000000000000000000000000000000000000000000000000000000000000000000000000000000000000000000000000000000000000000000000000000000000000000000000000000000000000000000000000000000000000000000000000000
310
00000000000000000000000000000000000000000000000000000000000000000000000000000000000000000000000000000000000000000000000000F5000000000000000000000000F500000000F500000000F5000000F5F500000000000000000000000000000000000000000000000000000000000000000000000000
310
00000000000000000000000000000000000000000000000000000000000000000000000000000000000000000000000000000000000000000000000000000000000000000000000000000000000000000000000000000000000000000000000000000000000000000000000000000000000000000000000000000000000000
310
000000000000000000000000000000000000000000000000000000000000000000000000000000000000000000000000000000000000000000000000000000F5000000000000000000000000F500000000F500000000F500000000F5F500000000000000000000000000000000000000000000000000000000000000000000
310
00000000000000000000000000000000000000000000000000000000000000000000000000000000000000000000000000000000000000000000000000000000000000000000000000000000000000000000000000000000000000000000000000000000000000000000000000000000000000000000000000000000000000
310
0000000000000000000000000000000000000000000000000000000000000000000000000000000000000000000000000000000000000000000000000000000000F5000000000000000000000000F500000000F500000000F500000000F500F5F5000000000000000000000000000000000000000000000000000000000000
310
00000000000000000000000000000000000000000000000000000000000000000000000000000000000000000000000000000000000000000000000000000000000000000000000000000000000000000000000000000000000000000000000000000000000000000000000000000000000000000000000000000000000000
310
00000000000000000000000000000000000000000000000000000000000000000000000000000000000000000000000000000000000000000000000000000000000000F5000000000000000000000000F500000000F500000000F500000000F5000000F5000000000000000000000000000000000000000000000000000000
310
00000000000000000000000000000000000000000000000000000000000000000000000000000000000000000000000000000000000000000000000000000000000000000000000000000000000000000000000000000000000000000000000000000000000000000000000000000000000000000000000000000000000000
310
000000000000000000000000000000000000000000000000000000000000F5F500000000000000000000000000000000000000000000000000000000000000000000000000F5000000000000000000000000F500000000F500000000F500000000F5000000F500000000000000000000000000000000000000000000000000
310
00000000000000000000000000000000000000000000000000000000000000000000000000000000000000000000000000000000000000000000000000000000000000000000000000000000000000000000000000000000000000000000000000000000000000000000000000000000000000000000000000000000000000
310
000000000000000000000000000000000000000000000000000000000000F5F5F500F5F50000000000000000000000000000000000000000000000000000000000000000000000F5000000000000000000000000F500000000F500000000F500000000F5000000F50000000000000000000000000000000000000000000000
310
00000000000000000000000000000000000000000000000000000000000000000000000000000000000000000000000000000000000000000000000000000000000000000000000000000000000000000000000000000000000000000000000000000000000000000000000000000000000000000000000000000000000000
310
000000000000000000000000000000000000000000000000000000000000F5F5F5F5F5000000F5F5000000000000000000000000000000000000000000000000000000000000000000F5000000000000000000000000F500000000F500000000F500000000F5000000F5000000000000000000000000000000000000000000
310
00000000000000000000000000000000000000000000000000000000000000000000000000000000000000000000000000000000000000000000000000000000000000000000000000000000000000000000000000000000000000000000000000000000000000000000000000000000000000000000000000000000000000
310
000000000000000000000000000000000000000000000000000000000000F5F500F500F5F50000000000F5F500000000000000000000000000000000000000000000000000000000000000F5000000000000000000000000F500000000F500000000F500000000F5000000F500000000000000000000000000000000000000
310
00000000000000000000000000000000000000000000000000000000000000000000000000000000000000000000000000000000000000000000000000000000000000000000000000000000000000000000000000000000000000000000000000000000000000000000000000000000000000000000000000000000000000
310
000000000000000000000000000000000000000000000000000000000000F5F5F5F5F50000F5F500000000000000F5F50000000000000000000000000000000000000000000000000000000000F5000000000000000000000000F500000000F500000000F500000000F5000000F50000000000000000000000000000000000
310
00000000000000000000000000000000000000000000000000000000000000000000000000000000000000000000000000000000000000000000000000000000000000000000000000000000000000000000000000000000000000000000000000000000000000000000000000000000000000000000000000000000000000
310
000000000000000000000000000000000000000000000000000000000000F5F500F5F5F5F50000F5F5000000000000000000F5F5000000000000000000000000000000000000000000000000000000F5000000000000000000000000F500000000F500000000F500000000F5000000F5000000000000000000000000000000
310
00000000000000000000000000000000000000000000000000000000000000000000000000000000000000000000000000000000000000000000000000000000000000000000000000000000000000000000000000000000000000000000000000000000000000000000000000000000000000000000000000000000000000
310
000000000000000000000000000000000000000000000000000000000000F5F500F500F5F5F5F500F500F50000000000000000000000F5F500000000000000000000000000000000000000000000000000F5000000000000000000000000F500000000F500000000F500000000F5000000F500000000000000000000000000
310
00000000000000000000000000000000000000000000000000000000000000000000000000000000000000000000000000000000000000000000000000000000000000000000000000000000000000000000000000000000000000000000000000000000000000000000000000000000000000000000000000000000000000
310
0000000000000000000000000000000000000000000000000000000000000000F5F500F5F500F5F5F500F5F5F500000000000000000000000000F5F5F500000000000000000000000000000000000000000000F5000000000000000000000000F500000000F500000000F500000000F5000000F50000000000000000000000
310
00000000000000000000000000000000000000000000000000000000000000000000000000000000000000000000000000000000000000000000000000000000000000000000000000000000000000000000000000000000000000000000000000000000000000000000000000000000000000000000000000000000000000
310
00000000000000000000000000000000000000000000000000000000000000000000F500F500F5F5F500F500F5F5F500000000000000000000000000000000F5F50000000000000000000000000000000000000000F5000000000000000000000000F500000000F500000000F500000000F5000000F5000000000000000000
310
00000000000000000000000000000000000000000000000000000000000000000000000000000000000000000000000000000000000000000000000000000000000000000000000000000000000000000000000000000000000000000000000000000000000000000000000000000000000000000000000000000000000000
310
000000000000000000000000000000000000000000000000000000000000000000000000F500F500F5F5F5F500F500F5F5000000000000000000000000000000000000F5F5000000000000000000000000000000000000F5000000000000000000000000F500000000F500000000F500000000F5000000F500000000000000
310
00000000000000000000000000000000000000000000000000000000000000000000000000000000000000000000000000000000000000000000000000000000000000000000000000000000000000000000000000000000000000000000000000000000000000000000000000000000000000000000000000000000000000
310
0000000000000000000000000000000000000000000000000000000000000000000000000000F5F500F500F5F5F5F50000F5F50000000000000000000000000000000000000000F5F500000000000000000000000000000000F5000000000000000000000000F500000000F500000000F500000000F5000000F50000000000
310
00000000000000000000000000000000000000000000000000000000000000000000000000000000000000000000000000000000000000000000000000000000000000000000000000000000000000000000000000000000000000000000000000000000000000000000000000000000000000000000000000000000000000
310
00000000000000000000000000000000000000000000000000000000000000000000000000000000F5F500F500F5F5F5F50000F5F500000000000000000000000000000000000000000000F5F50000000000000000000000000000F5000000000000000000000000F500000000F500000000F500000000F5000000F5000000
310
00000000000000000000000000000000000000000000000000000000000000000000000000000000000000000000000000000000000000000000000000000000000000000000000000000000000000000000000000000000000000000000000000000000000000000000000000000000000000000000000000000000000000
310
000000000000000000000000000000000000000000000000000000000000000000000000000000000000F5F500F500F5F5F5F500F500F5000000000000000000000000000000000000000000000000F5F5000000000000000000000000F5000000000000000000000000F500000000F500000000F500000000F5000000F500
310
00000000000000000000000000000000000000000000000000000000000000000000000000000000000000000000000000000000000000000000000000000000000000000000000000000000000000000000000000000000000000000000000000000000000000000000000000000000000000000000000000000000000000
310
0000000000000000000000000000000000000000000000000000000000000000000000000000000000000000F5F500F5F500F5F5F500F5F5F50000000000000000000000000000000000000000000000000000F5F500000000000000000000F5000000000000000000000000F500000000F500000000F500000000F5000000
310
F5000000000000000000000000000000000000000000000000000000000000000000000000000000000000000000000000000000000000000000000000000000000000000000000000000000000000000000000000000000000000000000000000000000000000000000000000000000000000000000000000000000000000
310
00000000000000000000000000000000000000000000000000000000000000000000000000000000000000000000F500F500F5F5F500F500F5F5F500000000000000000000000000000000000000000000000000000000F5F50000000000000000F5000000000000000000000000F500000000F500000000F500000000F500
310
0000F500000000000000000000000000000000000000000000000000000000000000000000000000000000000000000000000000000000000000000000000000000000000000000000000000000000000000000000000000000000000000000000000000000000000000000000000000000000000000000000000000000000
310
000000000000000000000000000000000000000000000000000000000000000000000000000000000000000000000000F500F500F5F5F5F500F500F5F5000000000000000000000000000000000000000000000000000000000000F5F5F50000000000F5000000000000000000000000F500000000F500000000F500000000
310
F5000000F50000000000000000000000000000000000000000000000000000000000000000000000000000000000000000000000000000000000000000000000000000000000000000000000000000000000000000000000000000000000000000000000000000000000000000000000000000000000000000000000000000
310
0000000000000000000000000000000000000000000000000000000000000000000000000000000000000000000000000000F5F500F500F5F5F5F50000F5F5000000000000000000000000000000000000000000000000000000000000000000F5F5000000F5000000000000000000000000F500000000F500000000F50000
310
0000F5000000F5000000000000000000000000000000000000000000000000000000000000000000000000000000000000000000000000000000000000000000000000000000000000000000000000000000000000000000000000000000000000000000000000000000000000000000000000000000000000000000000000
310
00000000000000000000000000000000000000000000000000000000000000000000000000000000000000000000000000000000F5F500F500F5F5F5F50000F5F50000000000000000000000000000000000000000000000000000000000000000000000F5F500F5000000000000000000000000F500000000F500000000F5
310
00000000F5000000F500000000000000000000000000000000000000000000000000000000000000000000000000000000000000000000000000000000000000000000000000000000000000000000000000000000000000000000000000000000000000000000000000000000000000000000000000000000000000000000
310
000000000000000000000000000000000000000000000000000000000000000000000000000000000000000000000000000000000000F5F500F500F5F5F5F500F500F500000000000000000000000000000000000000000000000000000000000000000000000000F5F5000000000000000000000000F500000000F5000000
310
00F500000000F5000000F50000000000000000000000000000000000000000000000000000000000000000000000000000000000000000000000000000000000000000000000000000000000000000000000000000000000000000000000000000000000000000000000000000000000000000000000000000000000000000
310
0000000000000000000000000000000000000000000000000000000000000000000000000000000000000000000000000000000000000000F5F500F5F500F5F5F500F5F5F5000000000000000000000000000000000000000000000000000000000000000000000000000000F5F500000000000000000000F500000000F500
310
000000F500000000F5000000F5000000000000000000000000000000000000000000000000000000000000000000000000000000000000000000000000000000000000000000000000000000000000000000000000000000000000000000000000000000000000000000000000000000000000000000000000000000000000
310
00000000000000000000000000000000000000000000000000000000000000000000000000000000000000000000000000000000000000000000F500F500F5F5F500F500F5F5F50000000000000000000000000000000000000000000000000000000000000000000000000000000000F5F50000000000000000F500000000
310
F500000000F500000000F5000000F500000000000000000000000000000000000000000000000000000000000000000000000000000000000000000000000000000000000000000000000000000000000000000000000000000000000000000000000000000000000000000000000000000000000000000000000000000000
310
000000000000000000000000000000000000000000000000000000000000000000000000000000000000000000000000000000000000000000000000F500F500F5F5F5F500F500F5F500000000000000000000000000000000000000000000000000000000000000000000000000000000000000F5F5000000000000F50000
310
0000F500000000F500000000F5000000F50000000000000000000000000000000000000000000000000000000000000000000000000000000000000000000000000000000000000000000000000000000000000000000000000000000000000000000000000000000000000000000000000000000000000000000000000000
310
0000000000000000000000000000000000000000000000000000000000000000000000000000000000000000000000000000000000000000000000000000F5F500F500F5F5F5F50000F5F5000000000000000000000000000000000000000000000000000000000000000000000000000000000000000000F5F5F5000000F5
310
00000000F500000000F500000000F5000000F5000000000000000000000000000000000000000000000000000000000000000000000000000000000000000000000000000000000000000000000000000000000000000000000000000000000000000000000000000000000000000000000000000000000000000000000000
310
00000000000000000000000000000000000000000000000000000000000000000000000000000000000000000000000000000000000000000000000000000000F5F500F500F5F5F5F50000F5F5000000000000000000000000000000000000000000000000000000000000000000000000000000000000000000000000F5F5
310
00F500000000F500000000F500000000F5000000F500000000000000000000000000000000000000000000000000000000000000000000000000000000000000000000000000000000000000000000000000000000000000000000000000000000000000000000000000000000000000000000000000000000000000000000
310
000000000000000000000000000000000000000000000000000000000000000000000000000000000000000000000000000000000000000000000000000000000000F5F500F500F5F5F5F500F500F5000000000000000000000000000000000000000000000000000000000000000000000000000000000000000000000000
310
0000F5F500000000F500000000F500000000F5000000F50000000000000000000000000000000000000000000000000000000000000000000000000000000000000000000000000000000000000000000000000000000000000000000000000000000000000000000000000000000000000000000000000000000000000000
310
0000000000000000000000000000000000000000000000000000000000000000000000000000000000000000000000000000000000000000000000000000000000000000F5F500F5F500F5F5F500F5F5F500000000000000000000000000000000000000000000000000000000000000000000000000000000000000000000
310
0000000000F5F5F50000F500000000F500000000F5000000F5000000000000000000000000000000000000000000000000000000000000000000000000000000000000000000000000000000000000000000000000000000000000000000000000000000000000000000000000000000000000000000000000000000000000
310
00000000000000000000000000000000000000000000000000000000000000000000000000000000000000000000000000000000000000000000000000000000000000000000F500F500F5F5F500F500F5F5F50000000000000000000000000000000000000000000000000000000000000000000000000000000000000000
310
000000000000000000F5F5F5F500000000F500000000F5000000F500000000000000000000000000000000000000000000000000000000000000000000000000000000000000000000000000000000000000000000000000000000000000000000000000000000000000000000000000000000000000000000000000000000
310
000000000000000000000000000000000000000000000000000000000000000000000000000000000000000000000000000000000000000000000000000000000000000000000000F500F500F5F5F5F500F500F5F5000000000000000000000000000000000000000000000000000000000000000000000000000000000000
310
00000000000000000000000000F5F5F5000000F500000000F5000000F50000000000000000000000000000000000000000000000000000000000000000000000000000000000000000000000000000000000000000000000000000000000000000000000000000000000000000000000000000000000000000000000000000
310
0000000000000000000000000000000000000000000000000000000000000000000000000000000000000000000000000000000000000000000000000000000000000000000000000000F5F500F500F5F5F5F50000F5F500000000000000000000000000000000000000000000000000000000000000000000000000000000
310
000000000000000000000000000000000000F5F500F500000000F5000000F5000000000000000000000000000000000000000000000000000000000000000000000000000000000000000000000000000000000000000000000000000000000000000000000000000000000000000000000000000000000000000000000000
310
00000000000000000000000000000000000000000000000000000000000000000000000000000000000000000000000000000000000000000000000000000000000000000000000000000000F5F500F500F5F5F5F500F5F5F50000000000000000000000000000000000000000000000000000000000000000000000000000
310
00000000000000000000000000000000000000000000F5F500000000F5000000F500000000000000000000000000000000000000000000000000000000000000000000000000000000000000000000000000000000000000000000000000000000000000000000000000000000000000000000000000000000000000000000
310
000000000000000000000000000000000000000000000000000000000000000000000000000000000000000000000000000000000000000000000000000000000000000000000000000000000000F5F500F500F5F5F5F5F5F50000F50000000000000000000000000000000000000000000000000000000000000000000000
310
00000000000000000000000000000000000000000000000000F500000000F5000000F50000000000000000000000000000000000000000000000000000000000000000000000000000000000000000000000000000000000000000000000000000000000000000000000000000000000000000000000000000000000000000
310
0000000000000000000000000000000000000000000000000000000000000000000000000000000000000000000000000000000000000000000000000000000000000000000000000000000000000000F5F500F5F5F5F5F5F5000000F5F5F50000000000000000000000000000000000000000000000000000000000000000
310
000000000000000000000000000000000000000000000000000000F500000000F5000000F5000000000000000000000000000000000000000000000000000000000000000000000000000000000000000000000000000000000000000000000000000000000000000000000000000000000000000000000000000000000000
310
00000000000000000000000000000000000000000000000000000000000000000000000000000000000000000000000000000000000000000000000000000000000000000000000000000000000000000000F500F5F5F5F500F500F5F5F5000000000000000000000000000000000000000000000000000000000000000000
310
00000000000000000000000000000000000000000000000000F5000000F500000000F5000000F500000000000000000000000000000000000000000000000000000000000000000000000000000000000000000000000000000000000000000000000000000000000000000000000000000000000000000000000000000000
310
000000000000000000000000000000000000000000000000000000000000000000000000000000000000000000000000000000000000000000000000000000000000000000000000000000000000000000000000F5F5F50000F500F5F500F50000000000000000000000000000000000000000000000000000000000000000
310
000000000000000000000000000000000000000000000000000000F5F5F500F500000000F5000000F50000000000000000000000000000000000000000000000000000000000000000000000000000000000000000000000000000000000000000000000000000000000000000000000000000000000000000000000000000
310
000000000000000000000000000000000000000000000000000000000000000000000000000000000000000000000000000000000000000000000000000000000000000000000000000000000000000000000000000000F5000000F5F50000F5F5F50000000000000000000000000000000000000000000000000000000000
310
0000000000000000000000000000000000000000000000000000000000F50000F5F500000000F5000000F5000000000000000000000000000000000000000000000000000000000000000000000000000000000000000000000000000000000000000000000000000000000000000000000000000000000000000000000000
310
000000000000000000000000000000000000000000000000000000000000000000000000000000000000000000000000000000000000000000000000000000000000000000000000000000000000000000000000000000000000F5F5F500F500F50000F5000000000000000000000000000000000000000000000000000000
310
00000000000000000000000000000000000000000000000000000000000000F5000000F500000000F5000000F500000000000000000000000000000000000000000000000000000000000000000000000000000000000000000000000000000000000000000000000000000000000000000000000000000000000000000000
310
0000000000000000000000000000000000000000000000000000000000000000000000000000000000000000000000000000000000000000000000000000000000000000000000000000000000000000000000000000000000F5F5F50000F500F500F500F5F5F5000000000000000000000000000000000000000000000000
310
000000000000000000000000000000000000000000000000000000000000000000F5000000F500000000F5000000F50000000000000000000000000000000000000000000000000000000000000000000000000000000000000000000000000000000000000000000000000000000000000000000000000000000000000000
310
0000000000000000000000000000000000000000000000000000000000000000000000000000000000000000000000000000000000000000000000000000000000000000000000000000000000000000000000000000000000F5F500F5000000F5F5F500F5F5F500F500000000000000000000000000000000000000000000
310
0000000000000000000000000000000000000000000000000000000000000000000000F5F5F500F500000000F5000000F5000000000000000000000000000000000000000000000000000000000000000000000000000000000000000000000000000000000000000000000000000000000000000000000000000000000000
310
0000000000000000000000000000000000000000000000000000000000000000000000000000000000000000000000000000000000000000000000000000000000000000000000000000000000000000000000000000000000000000F500F5000000F5F5F5F5F500F5F5F50000000000000000000000000000000000000000
310
00000000000000000000000000000000000000000000000000000000000000000000000000F5F5F500F500000000F5000000F500000000000000000000000000000000000000000000000000000000000000000000000000000000000000000000000000000000000000000000000000000000000000000000000000000000
310
0000000000000000000000000000000000000000000000000000000000000000000000000000000000000000000000000000000000000000000000000000000000000000000000000000000000000000000000000000000000000000000000F50000F5F5F5F5F5F500F500F5F5000000000000000000000000000000000000
310
000000000000000000000000000000000000000000000000000000000000000000000000000000F5000000F500000000F5000000F50000000000000000000000000000000000000000000000000000000000000000000000000000000000000000000000000000000000000000000000000000000000000000000000000000
310
0000000000000000000000000000000000000000000000000000000000000000000000000000000000000000000000000000000000000000000000000000000000000000000000000000000000000000000000000000000000000000000000000000F5F500F500F5F5F5F50000F5F500000000000000000000000000000000
310
0000000000000000000000000000000000000000000000000000000000000000000000000000000000F5000000F500000000F5000000F5000000000000000000000000000000000000000000000000000000000000000000000000000000000000000000000000000000000000000000000000000000000000000000000000
310
00000000000000000000000000000000000000000000000000000000000000000000000000000000000000000000000000000000000000000000000000000000000000000000000000000000000000000000000000000000000000000000000000000000F5F500F500F5F5F5F50000F5F50000000000000000000000000000
310
00000000000000000000000000000000000000000000000000000000000000000000000000000000000000F5000000F500000000F5000000F500000000000000000000000000000000000000000000000000000000000000000000000000000000000000000000000000000000000000000000000000000000000000000000
310
000000000000000000000000000000000000000000000000000000000000000000000000000000000000000000000000000000000000000000000000000000000000000000000000000000000000000000000000000000000000000000000000000000000000F5F500F500F5F5F5F50000F5F5000000000000000000000000
310
000000000000000000000000000000000000000000000000000000000000000000000000000000000000000000F5000000F500000000F5000000F50000000000000000000000000000000000000000000000000000000000000000000000000000000000000000000000000000000000000000000000000000000000000000
310
0000000000000000000000000000000000000000000000000000000000000000000000000000000000000000000000000000000000000000000000000000000000000000000000000000000000000000000000000000000000000000000000000000000000000000F5F500F5F500F5F5F500F5F5F500000000000000000000
310
0000000000000000000000000000000000000000000000000000000000000000000000000000000000000000000000F5000000F500000000F5000000F5000000000000000000000000000000000000000000000000000000000000000000000000000000000000000000000000000000000000000000000000000000000000
310
00000000000000000000000000000000000000000000000000000000000000000000000000000000000000000000000000000000000000000000000000000000000000000000000000000000000000000000000000000000000000000000000000000000000000000000F50000F5F5F5F500F500F5F5F50000000000000000
310
00000000000000000000000000000000000000000000000000000000000000000000000000000000000000000000000000F5000000F500000000F5000000F5000000000000000000F5000000000000000000000000000000000000F5000000000000000000000000F5F5000000000000000000000000000000000000000000
310
000000000000000000000000000000000000000000000000000000000000000000000000000000000000000000000000000000000000000000000000000000000000000000000000000000000000000000000000000000000000000000000000000000000000000000000000F500F500F5F5F5F500F500F5F5000000000000
310
000000000000000000000000000000000000000000000000000000000000000000000000000000000000000000000000000000F5F5F500F500000000F5000000F5000000000000F5F500F500F5F500F5F500F5F5000000F5F500F50000F500F500F50000F5F5F5F5F5F500F500000000000000000000000000000000000000
310
0000000000000000000000000000000000000000000000000000000000000000000000000000000000000000000000000000000000000000000000000000000000000000000000000000000000000000000000000000000000000000000000000000000000000000000000000000F5F500F500F5F5F5F50000F5F500000000
310
0000000000000000000000000000000000000000000000000000000000000000000000000000000000000000000000000000000000F5F5F500F500000000F5000000F50000000000F500F500F500F5F500F5F500F5000000F500000000F500F500F50000F500F50000F5F500F5000000000000000000000000000000000000
310
00000000000000000000000000000000000000000000000000000000000000000000000000000000000000000000000000000000000000000000000000000000000000000000000000000000000000000000000000000000000000000000000000000000000000000000000000000000F5F500F500F5F5F5F50000F5F50000
310
00000000000000000000000000000000000000000000000000000000000000000000000000000000000000000000000000000000000000F5000000F500000000F5000000F50000000000F500F500F5F500F500F5F5F5F5F50000F500000000F500F5F5000000F50000F500F5F5F5F500F50000000000000000000000000000
310
000000000000000000000000000000000000000000000000000000000000000000000000000000000000000000000000000000000000000000000000000000000000000000000000000000000000000000000000000000000000000000000000000000000000000000000000000000000000F5F500F500F5F5F5F50000F5F5
310
000000000000000000000000000000000000000000000000000000000000000000000000000000000000000000000000000000000000000000F5000000F500000000F5000000F50000000000F500F500000000F500F500F50000000000F5F50000000000000000000000000000F50000000000000000000000000000000000
310
0000000000000000000000000000000000000000000000000000000000000000000000000000000000000000000000000000000000000000000000000000000000000000000000000000000000000000000000000000000000000000000000000000000000000000000000000000000000000000F5F500F5F500F5F5F500F5
310
00F5000000000000000000000000000000000000000000000000000000000000000000000000000000000000000000000000000000000000000000F5000000F500000000F5000000F5000000000000000000000000000000000000000000000000000000000000000000000000000000000000000000000000000000000000
310
00000000000000000000000000000000000000000000000000000000000000000000000000000000000000000000000000000000000000000000000000000000000000000000000000000000000000000000000000000000000000000000000000000000000000000000000000000000000000000000F50000F5F500F500F5
310
00F5F5F5000000000000000000000000000000000000000000000000000000000000000000000000000000000000000000000000000000000000000000F5000000F500000000F5000000F500000000000000000000000000000000000000000000000000000000000000000000000000000000000000000000000000000000
310
000000000000000000000000000000000000000000000000000000000000000000000000000000000000000000000000000000000000000000000000000000000000000000000000000000000000000000000000000000000000000000000000000000000000000000000000000000000000000000000000F500F500F5F5F5
310
F500F500F5F5000000000000000000000000000000000000000000000000000000000000000000000000000000000000000000000000000000000000000000F5000000F500000000F5000000F50000000000F500F5F5F500F50000F500F500F5F5F5F5F500F50000F50000F50000F50000F500F50000000000000000000000
310
0000000000000000000000000000000000000000000000000000000000000000000000000000000000000000000000000000000000000000000000000000000000000000000000000000000000000000000000000000000000000000000000000000000000000000000000000000000000000000000000000000F5F500F5F5
310
F5F5F5F50000F5F5000000000000000000000000000000000000000000000000000000000000000000000000000000000000000000000000000000000000000000F5000000F500000000F5000000F50000000000F500F500F500F50000F500F500F5F50000F500F5F5F500F500F5F500F5F5F5F500F5000000000000000000
310
00000000000000000000000000000000000000000000000000000000000000000000000000000000000000000000000000000000000000000000000000000000000000000000000000000000000000000000000000000000000000000000000000000000000000000000000000000000000000000000000000000000F5F500
310
F500F5F5F5F50000F5F5000000000000000000000000000000000000000000000000000000000000000000000000000000000000000000000000000000000000000000F5000000F500000000F5000000F50000000000F5F500F50000F5F500F500F5F50000F500F5F500F50000F50000F50000F50000F5F500000000000000
310
000000000000000000000000000000000000000000000000000000000000000000000000000000000000000000000000000000000000000000000000000000000000000000000000000000000000000000000000000000000000000000000000000000000000000000000000000000000000000000000000000000000000F5
310
F500F500F5F5F5F50000F5F5000000000000000000000000000000000000000000000000000000000000000000000000000000000000000000000000000000000000000000F5000000F500000000F5000000F5000000000000F500000000000000F50000000000000000000000000000000000000000000000F50000000000
310
00000000000000000000000000000000000000000000000000000000000000000000000000000000000000000000000000000000000000000000000000000000000000000000000000000000000000000000000000000000000000000000000000000000000000000000000000000000000000000000000000000000000000
310
00F5F500F5F500F5F5F500F500F5000000000000000000000000000000000000000000000000000000000000000000000000000000000000000000000000000000000000000000F5000000F500000000F5000000F5000000000000000000000000000000000000000000000000000000000000000000000000000000000000
310
00000000000000000000000000000000000000000000000000000000000000000000000000000000000000000000000000000000000000000000000000000000000000000000000000000000000000000000000000000000000000000000000000000000000000000000000000000000000000000000000000000000000000
310
000000F50000F5F500F500F500F5F5F5000000000000000000000000000000000000000000000000000000000000000000000000000000000000000000000000000000000000000000F5000000F500000000F5000000F500000000000000000000000000000000000000000000000000000000000000000000000000000000
310
00000000000000000000000000000000000000000000000000000000000000000000000000000000000000000000000000000000000000000000000000000000000000000000000000000000000000000000000000000000000000000000000000000000000000000000000000000000000000000000000000000000000000
310
0000000000F500F500F5F5F5F500F500F5F5000000000000000000000000000000000000000000000000000000000000000000000000000000000000000000000000000000000000000000F5000000F500000000F5000000F50000000000000000000000000000000000000000000000000000000000000000000000000000
310
00000000000000000000000000000000000000000000000000000000000000000000000000000000000000000000000000000000000000000000000000000000000000000000000000000000000000000000000000000000000000000000000000000000000000000000000000000000000000000000000000000000000000
310
00000000000000F5F500F5F5F5F5F5F50000F5F5000000000000000000000000000000000000000000000000000000000000000000000000000000000000000000000000000000000000000000F5F5F500F500000000F5000000F50000000000F500F50000F5F50000F5F500F5F5F500F500F5F5000000F5F5F50000000000
310
00000000000000000000000000000000000000000000000000000000000000000000000000000000000000000000000000000000000000000000000000000000000000000000000000000000000000000000000000000000000000000000000000000000000000000000000000000000000000000000000000000000000000
310
000000000000000000F5F500F500F5F5F5F50000F5F5000000000000000000000000000000000000000000000000000000000000000000000000000000000000000000000000000000000000000000F5F5F500F500000000F5000000F50000000000F500F500F500F500F500000000F50000F500F500F5F5F500F500000000
310
00000000000000000000000000000000000000000000000000000000000000000000000000000000000000000000000000000000000000000000000000000000000000000000000000000000000000000000000000000000000000000000000000000000000000000000000000000000000000000000000000000000000000
310
0000000000000000000000F5F500F500F5F5F5F50000F5F5000000000000000000000000000000000000000000000000000000000000000000000000000000000000000000000000000000000000000000F5000000F500000000F5000000F50000000000F500F500F500F500F50000000000F5F5F500F5000000000000F500
310
00000000000000000000000000000000000000000000000000000000000000000000000000000000000000000000000000000000000000000000000000000000000000000000000000000000000000000000000000000000000000000000000000000000000000000000000000000000000000000000000000000000000000
310
00000000000000000000000000F5F500F5F500F5F5F500F5F5F5F50000000000000000000000000000000000000000000000000000000000000000000000000000000000000000000000000000000000000000F5000000F500000000F5000000F50000000000F500F500F500F50000F5F50000F50000F50000F500000000F5
310
00000000000000000000000000000000000000000000000000000000000000000000000000000000000000000000000000000000000000000000000000000000000000000000000000000000000000000000000000000000000000000000000000000000000000000000000000000000000000000000000000000000000000
310
000000000000000000000000000000F50000F5F500F5F5F5F5F5000000F5F5F5F500000000000000000000000000000000000000000000000000000000000000000000000000000000000000000000000000000000F5000000F500000000F5000000F500000000000000000000000000000000000000000000000000000000
310
00000000000000000000000000000000000000000000000000000000000000000000000000000000000000000000000000000000000000000000000000000000000000000000000000000000000000000000000000000000000000000000000000000000000000000000000000000000000000000000000000000000000000
310
0000000000000000000000000000000000F500F500F5F5F5F500000000000000000000F5F5F5F5000000000000000000000000000000000000000000000000000000000000000000000000000000000000000000000000F5000000F500000000F5000000F50000000000000000000000000000000000000000000000000000
310
00000000000000000000000000000000000000000000000000000000000000000000000000000000000000000000000000000000000000000000000000000000000000000000000000000000000000000000000000000000000000000000000000000000000000000000000000000000000000000000000000000000000000
310
00000000000000000000000000000000000000F5F5F5F5F5000000F5F5F5F500000000000000000000F5F5F5000000000000000000000000000000000000000000000000000000000000000000000000000000000000000000F5000000F500000000F5000000F50000000000F500F500F500F500F50000F500F5F5F50000F5
310
00F50000000000000000000000000000000000000000000000000000000000000000000000000000000000000000000000000000000000000000000000000000000000000000000000000000000000000000000000000000000000000000000000000000000000000000000000000000000000000000000000000000000000
310
000000000000000000000000000000000000000000F5F5F5000000000000000000F5F5F5F5000000000000000000F5F5F5F50000000000000000000000000000000000000000000000000000000000000000000000000000000000F5F50000F500000000F5000000F50000000000F500F500F5F50000F5F5F5F500F500F5F5
310
F5F500F5000000000000000000000000000000000000000000000000000000000000000000000000000000000000000000000000000000000000000000000000000000000000000000000000000000000000000000000000000000000000000000000000000000000000000000000000000000000000000000000000000000
310
0000000000000000000000000000000000000000000000000000F5F5F5F5000000000000000000F5F5F5F5000000000000000000F5F5F50000000000000000000000000000000000000000000000000000000000000000000000000000F5F5F500F500000000F5000000F50000000000F500F5F500F500F500F500F5F5F5F5
310
00F50000F5F500000000000000000000000000000000000000000000000000000000000000000000000000000000000000000000000000000000000000000000000000000000000000000000000000000000000000000000000000000000000000000000000000000000000000000000000000000000000000000000000000
310
0000000000000000000000000000000000000000000000000000000000000000F5F5F5F5000000000000000000F5F5F5F50000000000000000F5F5F5F500000000000000000000000000000000000000000000000000000000000000000000F5F50000F500000000F5000000F50000000000F5000000000000000000000000
310
00000000000000F50000000000000000000000000000000000000000000000000000000000000000000000000000000000000000000000000000000000000000000000000000000000000000000000000000000000000000000000000000000000000000000000000000000000000000000000000000000000000000000000
310
0000000000000000000000000000000000000000000000000000000000000000000000000000F5F5F5F5000000000000000000F5F5F5F50000000000000000F5F5F5F5000000000000000000000000000000000000000000000000000000000000F5000000F500000000F5000000F500000000000000000000000000000000
310
00000000000000000000000000000000000000000000000000000000000000000000000000000000000000000000000000000000000000000000000000000000000000000000000000000000000000000000000000000000000000000000000000000000000000000000000000000000000000000000000000000000000000
310
0000000000000000000000000000000000000000000000000000000000000000000000000000000000000000F5F5F5F5000000000000000000F5F5F5F50000000000000000F5F5F5000000000000000000000000000000000000000000000000000000F5F5F500F500000000F5000000F50000000000000000000000000000
310
00000000000000000000000000000000000000000000000000000000000000000000000000000000000000000000000000000000000000000000000000000000000000000000000000000000000000000000000000000000000000000000000000000000000000000000000000000000000000000000000000000000000000
310
0000000000000000000000000000000000000000000000000000000000000000000000000000000000000000000000000000F5F5F5F5000000000000000000F5F5F50000000000000000F5F5F5F500000000000000000000000000000000000000000000F500F5F500F500000000F5000000F5000000000000000000000000
310
00000000000000000000000000000000000000000000000000000000000000000000000000000000000000000000000000000000000000000000000000000000000000000000000000000000000000000000000000000000000000000000000000000000000000000000000000000000000000000000000000000000000000
310
0000000000000000000000000000000000000000000000000000000000000000000000000000000000000000000000000000000000000000F5F5F5F50000000000000000F5F5F5F50000000000000000F5F5F500000000000000000000000000000000000000F500000000F500000000F5000000F500000000000000000000
310
00000000000000000000000000000000000000000000000000000000000000000000000000000000000000000000000000000000000000000000000000000000000000000000000000000000000000000000000000000000000000000000000000000000000000000000000000000000000000000000000000000000000000
310
0000000000000000000000000000000000000000000000000000000000000000000000000000000000000000000000000000000000000000000000000000F5F5F5F5F500000000000000F5F5F5F500000000000000F5F5F5F50000000000000000000000000000F50000000000F500000000F5000000F50000000000000000
310
00000000000000000000000000000000000000000000000000000000000000000000000000000000000000000000000000000000000000000000000000000000000000000000000000000000000000000000000000000000000000000000000000000000000000000000000000000000000000000000000000000000000000
310
000000000000000000000000000000000000000000000000000000000000000000000000000000000000000000000000000000000000000000000000000000000000000000F5F5F5F500000000000000F5F5F5F500000000000000F5F5F5F5000000000000000000F5000000000000F500000000F5000000F5000000000000
310
00000000000000000000000000000000000000000000000000000000000000000000000000000000000000000000000000000000000000000000000000000000000000000000000000000000000000000000000000000000000000000000000000000000000000000000000000000000000000000000000000000000000000
310
000000000000000000000000000000000000000000000000000000000000000000000000000000000000000000000000000000000000000000000000000000000000000000000000000000F5F5F5F500000000000000F5F5F5F500000000000000F5F5F5000000000000F5000000000000F500000000F5000000F500000000
310
00000000000000000000000000000000000000000000000000000000000000000000000000000000000000000000000000000000000000000000000000000000000000000000000000000000000000000000000000000000000000000000000000000000000000000000000000000000000000000000000000000000000000
310
000000000000000000000000000000000000000000000000000000000000000000000000000000000000000000000000000000000000000000000000000000000000000000000000000000000000000000F5F5F5F500000000000000F5F5F5F5000000000000F5F5F5F500F500000000000000F500000000F5000000F50000
310
00000000000000000000000000000000000000000000000000000000000000000000000000000000000000000000000000000000000000000000000000000000000000000000000000000000000000000000000000000000000000000000000000000000000000000000000000000000000000000000000000000000000000
310
000000000000000000000000000000000000000000000000000000000000000000000000000000000000000000000000000000000000000000000000000000000000000000000000000000000000000000000000000000F5F5F5F500000000000000F5F5F5F500000000F5F5F5F5F5000000000000F500000000F5000000F5
310
00000000000000000000000000000000000000000000000000000000000000000000000000000000000000000000000000000000000000000000000000000000000000000000000000000000000000000000000000000000000000000000000000000000000000000000000000000000000000000000000000000000000000
310
000000000000000000000000000000000000000000000000000000000000000000000000000000000000000000000000000000000000000000000000000000000000000000000000000000000000000000000000000000000000000000F5F5F5F500000000000000F5F5F5F5F5F5000000F5F5F5F50000F500000000F50000
310
00F50000000000000000000000000000000000000000000000000000000000000000000000000000000000000000000000000000000000000000000000000000000000000000000000000000000000000000000000000000000000000000000000000000000000000000000000000000000000000000000000000000000000
310
000000000000000000000000000000000000000000000000000000000000000000000000000000000000000000000000000000000000000000000000000000000000000000000000000000000000000000000000000000000000000000000000000000F5F5F5F5F5F5F5F5000000000000000000000000F5F5F500000000F5
310
000000F5000000000000000000000000000000000000000000000000000000000000000000000000000000000000000000000000000000000000000000000000000000000000000000000000000000000000000000000000000000000000000000000000000000000000000000000000000000000000000000000000000000
310
00000000000000000000000000000000000000000000000000000000000000000000000000000000000000000000000000000000000000000000000000000000000000000000000000000000000000000000000000000000000000000000000000000000000000F5F500000000000000000000000000F5F5F5F5F5F5000000
310
00F5000000F500000000000000000000000000000000000000000000000000000000000000000000000000000000000000000000000000000000000000000000000000000000000000000000000000000000000000000000000000000000000000000000000000000000000000000000000000000000000000000000000000
310
0000000000000000000000000000000000000000000000000000000000000000000000000000000000000000000000000000000000000000000000000000000000000000000000000000000000000000000000000000000000000000000000000000000000000000000000F5F5F5F500F50000F5F5F5F5F50000000000F500
310
000000F5000000F50000000000000000000000000000000000000000000000000000000000000000000000000000000000000000000000000000000000000000000000000000000000000000000000000000000000000000000000000000000000000000000000000000000000000000000000000000000000000000000000
310
0000000000000000000000000000000000000000000000000000000000000000000000000000000000000000000000000000000000000000000000000000000000000000000000000000000000000000000000000000000000000000000000000000000000000000000000000000000000F5F5F5F500000000000000000000
310
F500000000F5000000F5000000000000000000000000000000000000000000000000000000000000000000000000000000000000000000000000000000000000000000000000000000000000000000000000000000000000000000000000000000000000000000000000000000000000000000000000000000000000000000
310
0000000000000000000000000000000000000000000000000000000000000000000000000000000000000000000000000000000000000000000000000000000000000000000000000000000000000000000000000000000000000000000000000000000000000000000000000000000000000000F500000000000000000000
310
0000F500000000F5000000F500000000000000000000000000000000000000000000000000000000000000000000000000000000000000000000000000000000000000000000000000000000000000000000000000000000000000000000000000000000000000000000000000000000000000000000000000000000000000
310
00000000000000000000000000000000000000000000000000000000000000000000000000000000000000000000000000000000000000000000000000000000000000000000000000000000000000000000000000000000000000000000000000000000000000000000000000000000000000000000F50000000000000000
310
00000000F500000000F5000000F50000000000000000000000000000000000000000000000000000000000000000000000000000000000000000000000000000000000000000000000000000000000000000000000000000000000000000000000000000000000000000000000000000000000000000000000000000000000
310
000000000000000000000000000000000000000000000000000000000000000000000000000000000000000000000000000000000000000000000000000000000000000000000000000000000000000000000000000000000000000000000000000000000000000000000000000000000000000000000000F5000000000000
310
000000000000F500000000F5000000F5000000000000000000000000000000000000000000000000000000000000000000000000000000000000000000000000000000000000000000000000000000000000000000000000000000000000000000000000000000000000000000000000000000000000000000000000000000
310
0000000000000000000000000000000000000000000000000000000000000000000000000000000000000000000000000000000000000000000000000000000000000000000000000000000000000000000000000000000000000000000000000000000000000000000000000000000000000000000000000000F500000000
310
0000000000000000F500000000F5000000F500000000000000000000000000000000000000000000000000000000000000000000000000000000000000000000000000000000000000000000000000000000000000000000000000000000000000000000000000000000000000000000000000000000000000000000000000
310
00000000000000000000000000000000000000000000000000000000000000000000000000000000000000000000000000000000000000000000000000000000000000000000000000000000000000000000000000000000000000000000000000000000000000000000000000000000000000000000000000000000F50000
310
00000000000000000000F500000000F5000000F50000000000000000000000000000000000000000000000000000000000000000000000000000000000000000000000000000000000000000000000000000000000000000000000000000000000000000000000000000000000000000000000000000000000000000000000
310
000000000000000000000000000000000000000000000000000000000000000000000000000000000000000000000000000000000000000000000000000000000000000000000000000000000000000000000000000000000000000000000000000000000000000000000000000000000000000000000000000000000000F5
310
000000000000000000000000F500000000F5000000F5000000000000000000000000000000000000000000000000000000000000000000000000000000000000000000000000000000000000000000000000000000000000000000000000000000000000000000000000000000000000000000000000000000000000000000
310
00000000000000000000000000000000000000000000000000000000000000000000000000000000000000000000000000000000000000000000000000000000000000000000000000000000000000000000000000000000000000000000000000000000000000000000000000000000000000000000000000000000000000
310
00F5000000000000000000000000F500000000F5000000F500000000000000000000000000000000000000000000000000000000000000000000000000000000000000000000000000000000000000000000000000000000000000000000000000000000000000000000000000000000000000000000000000000000000000
310
00000000000000000000000000000000000000000000000000000000000000000000000000000000000000000000000000000000000000000000000000000000000000000000000000000000000000000000000000F5F5F5F5F5F5F5F5F5F5F5F5F5F5F5F5F5F5F5F5F5F5F5F5F5F5F5F5F5F5F50000000000000000000000
310
000000F5000000000000000000000000F500000000F5000000F50000000000000000000000000000000000000000000000000000000000000000000000000000000000000000000000000000000000000000000000000000000000000000000000000000000000000000000000000000000000000000000000000000000000
310
000000000000000000000000000000000000000000000000000000000000000000000000000000000000000000000000000000000000000000000000000000000000000000000000000000000000000000000000000000F50000000000000000000000000000000000000000000000000000000000F5000000000000000000
310
0000000000F5000000000000000000000000F500000000F5000000F5000000000000000000000000000000000000000000000000000000000000000000000000000000000000000000000000000000000000000000000000000000000000000000000000000000000000000000000000000000000000000000000000000000
310
0000000000000000000000000000000000000000000000000000000000000000000000000000000000000000000000000000000000000000000000000000000000000000000000000000000000000000000000000000000000F50000000000000000000000000000000000000000000000000000000000F500000000000000
310
00000000000000F5000000000000000000000000F500000000F5000000F500000000000000000000000000000000000000000000000000000000000000000000000000000000000000000000000000000000000000000000000000000000000000000000000000000000000000000000000000000000000000000000000000
310
00000000000000000000000000000000000000000000000000000000000000000000000000000000000000000000000000000000000000000000000000000000000000000000000000000000000000000000000000000000000000F50000000000000000000000000000000000000000000000000000000000F50000000000
310
000000000000000000F5000000000000000000000000F500000000F5000000F50000000000000000000000000000000000000000000000000000000000000000000000000000000000000000000000000000000000000000000000000000000000000000000000000000000000000000000000000000000000000000000000
310
000000000000000000000000000000000000000000000000000000000000000000000000000000000000000000000000000000000000000000000000000000000000000000000000000000000000000000000000000000000000000000F500F5F5F5F5F50000000000F5F500000000F5F5000000F5F50000000000F5000000
310
0000000000000000000000F5000000000000000000000000F500000000F5000000F5000000000000000000000000000000000000000000000000000000000000000000000000000000000000000000000000000000000000000000000000000000000000000000000000000000000000000000000000000000000000000000
310
0000000000000000000000000000000000000000000000000000000000000000000000000000000000000000000000000000000000000000000000000000000000000000000000000000000000000000000000000000000000000000000000F500F5F50000F5F500000000F5F500000000F5F5000000F5F50000000000F500
310
00000000000000000000000000F5000000000000000000000000F500000000F5000000F500000000000000000000000000000000000000000000000000000000000000000000000000000000000000000000000000000000000000000000000000000000000000000000000000000000000000000000000000000000000000
310
00000000000000000000000000000000000000000000000000000000000000000000000000000000000000000000000000000000000000000000000000000000000000000000000000000000000000000000000000000000000000000000000000F500F5F50000F5F500000000F5F500000000F5F5000000F5F50000000000
310
F50000000000000000000000000000F5000000000000000000000000F500000000F5000000F50000000000000000000000000000000000000000000000000000000000000000000000000000000000000000000000000000000000000000000000000000000000000000000000000000000000000000000000000000000000
310
000000000000000000000000000000000000000000000000000000000000000000000000000000000000000000000000000000000000000000000000000000000000000000000000000000000000000000000000000000000000000000000000000000F500F5F50000F5F500000000F5F500000000F5F5000000F5F5000000
310
0000F50000000000000000000000000000F5000000000000000000000000F500000000F5000000F5000000000000000000000000000000000000000000000000000000000000000000000000000000000000000000000000000000000000000000000000000000000000000000000000000000000000000000000000000000
310
0000000000000000000000000000000000000000000000000000000000000000000000000000000000000000000000000000000000000000000000000000000000000000000000000000000000000000000000000000000000000000000000000000000000F500F5F50000F5F50000F500F5F50000F500F5F500000000F5F5
310
00000000F50000000000000000000000000000F5000000000000000000000000F500000000F5000000F500000000000000000000000000000000000000000000000000000000000000000000000000000000000000000000000000000000000000000000000000000000000000000000000000000000000000000000000000
310
00000000000000000000000000000000000000000000000000000000000000000000000000000000000000000000000000000000000000000000000000000000000000000000000000000000000000000000000000000000000000000000000000000000000000F500F5F50000F5F50000F5F5F5F50000F5F5F5F500000000
310
F5F500000000F50000000000000000000000000000F5000000000000000000000000F500000000F5000000F50000000000000000000000000000000000000000000000000000000000000000000000000000000000000000000000000000000000000000000000000000000000000000000000000000000000000000000000
310
000000000000000000000000000000000000000000000000000000000000000000000000000000000000000000000000000000000000000000000000000000000000000000000000000000000000000000000000000000000000000000000000000000000000000000F500F5F50000F5F5000000F5F5F5000000F5F5F50000
310
000000F5F5000000F50000000000000000000000000000F5000000000000000000000000F500000000F5000000F5000000000000000000000000000000000000000000000000000000000000000000000000000000000000000000000000000000000000000000000000000000000000000000000000000000000000000000
310
0000000000000000000000000000000000000000000000000000000000000000000000000000000000000000000000000000000000000000000000000000000000000000000000000000000000000000000000000000000000000000000000000000000000000000000000F500F5F5F5F5F50000000000F5F500000000F5F5
310
0000F5F5F5F5F5000000F50000000000000000000000000000F5000000000000000000000000F500000000F5000000F500000000000000000000000000000000000000000000000000000000000000000000000000000000000000000000000000000000000000000000000000000000000000000000000000000000000000
310
00000000000000000000000000000000000000000000000000000000000000000000000000000000000000000000000000000000000000000000000000000000000000000000000000000000000000000000000000000000000000000000000000000000000000000000000000F50000000000000000000000000000000000
310
000000000000000000000000F50000000000000000000000000000F5000000000000000000000000F500000000F5000000F50000000000000000000000000000000000000000000000000000000000000000000000000000000000000000000000000000000000000000000000000000000000000000000000000000000000
310
000000000000000000000000000000000000000000000000000000000000000000000000000000000000000000000000000000000000000000000000000000000000000000000000000000000000000000000000000000000000000000000000000000000000000000000000000000F5000000000000000000000000000000
310
0000000000000000000000000000F50000000000000000000000000000F5000000000000000000000000F500000000F5000000F5000000000000000000000000000000000000000000000000000000000000000000000000000000000000000000000000000000000000000000000000000000000000000000000000000000
310
0000000000000000000000000000000000000000000000000000000000000000000000000000000000000000000000000000000000000000000000000000000000000000000000000000000000000000000000000000000000000000000000000000000000000000000000000000000000F5F5F5F5F5F5F5F5F5F5F5F5F5F5
310
F5F5F5F5F5F5F5F5F5F5F5F5F5F5F5F5F50000000000000000000000000000F5000000000000000000000000F500000000F5000000F500000000000000000000000000000000000000000000000000000000000000000000000000000000000000000000000000000000000000000000000000000000000000000000000000
310
00000000000000000000000000000000000000000000000000000000000000000000000000000000000000000000000000000000000000000000000000000000000000000000000000000000000000000000000000000000000000000000000000000000000000000000000000000000000000000000000000000000000000
310
000000000000000000000000000000000000000000000000000000000000000000F5000000000000000000000000F500000000F5000000F50000000000000000000000000000000000000000000000000000000000000000000000000000000000000000000000000000000000000000000000000000000000000000000000
310
00000000000000000000000000000000000000000000000000000000000000000000000000000000000000000000000000000000000000000000000000000000000000000000000000000000000000000000000000000000000000000000000000000000000000000000000000000000000000000000000000000000000000
310
0000000000000000000000000000000000000000000000000000000000000000000000F5000000000000000000000000F500000000F5000000F5000000000000000000000000000000000000000000000000000000000000000000000000000000000000000000000000000000000000000000000000000000000000000000
310
00000000000000000000000000000000000000000000000000000000000000000000000000000000000000000000000000000000000000000000000000000000000000000000000000000000000000000000000000000000000000000000000000000000000000000000000000000000000000000000000000000000000000
310
00000000000000000000000000000000000000000000000000000000000000000000000000F5000000000000000000000000F500000000F5000000F500000000000000000000000000000000000000000000000000000000000000000000000000000000000000000000000000000000000000000000000000000000000000
310
00000000000000000000000000000000000000000000000000000000000000000000000000000000000000000000000000000000000000000000000000000000000000000000000000000000000000000000000000000000000000000000000000000000000000000000000000000000000000000000000000000000000000
310
000000000000000000000000000000000000000000000000000000000000000000000000000000F5000000000000000000000000F500000000F5000000F50000000000000000000000000000000000000000000000000000000000000000000000000000000000000000000000000000000000000000000000000000000000
310
00000000000000000000000000000000000000000000000000000000000000000000000000000000000000000000000000000000000000000000000000000000000000000000000000000000000000000000000000000000000000000000000000000000000000000000000000000000000000000000000000000000000000
310
0000000000000000000000000000000000000000000000000000000000000000000000000000000000F5000000000000000000000000F500000000F5000000F5000000000000000000000000000000000000000000000000000000000000000000000000000000000000000000000000000000000000000000000000000000
310
00000000000000000000000000000000000000000000000000000000000000000000000000000000000000000000000000000000000000000000000000000000000000000000000000000000000000000000000000000000000000000000000000000000000000000000000000000000000000000000000000000000000000
310
00000000000000000000000000000000000000000000000000000000000000000000000000000000000000F5000000000000000000000000F500000000F5000000F500000000000000000000000000000000000000000000000000000000000000000000000000000000000000000000000000000000000000000000000000
310
00000000000000000000000000000000000000000000000000000000000000000000000000000000000000000000000000000000000000000000000000000000000000000000000000000000000000000000000000000000000000000000000000000000000000000000000000000000000000000000000000000000000000
310
000000000000000000000000000000000000000000000000000000000000000000000000000000000000000000F5000000000000000000000000F500000000F5000000F50000000000000000000000000000000000000000000000000000000000000000000000000000000000000000000000000000000000000000000000
310
00000000000000000000000000000000000000000000000000000000000000000000000000000000000000000000000000000000000000000000000000000000000000000000000000000000000000000000000000000000000000000000000000000000000000000000000000000000000000000000000000000000000000
310
0000000000000000000000000000000000000000000000000000000000000000000000000000000000000000000000F5000000000000F50000000000F500000000F5000000F5000000000000000000000000000000000000000000000000000000000000000000000000000000000000000000000000000000000000000000
310
00000000000000000000000000000000000000000000000000000000000000000000000000000000000000000000000000000000000000000000000000000000000000000000000000000000000000000000000000000000000000000000000000000000000000000000000000000000000000000000000000000000000000
310
00000000000000000000000000000000000000000000000000000000000000000000000000000000000000000000000000F5000000000000F5F500000000F500000000F5000000F500000000000000000000000000000000000000000000000000000000000000000000000000000000000000000000000000000000000000
310
00000000000000000000000000000000000000000000000000000000000000000000000000000000000000000000000000000000000000000000000000000000000000000000000000000000000000000000000000000000000000000000000000000000000000000000000000000000000000000000000000000000000000
310
000000000000000000000000000000000000000000000000000000000000000000000000000000000000000000000000000000F5000000000000F5F5F5F5F5F5F5F5F50000F5000000F50000000000000000000000000000000000000000000000000000000000000000000000000000000000000000000000000000000000
310
00000000000000000000000000000000000000000000000000000000000000000000000000000000000000000000000000000000000000000000000000000000000000000000000000000000000000000000000000000000000000000000000000000000000000000000000000000000000000000000000000000000000000
310
0000000000000000000000000000000000000000000000000000000000000000000000000000000000000000000000000000000000F5F5F5F5F500F500F500F5F5F5F5F5F5F5F5F5F5F5F5F5000000000000000000000000000000000000000000000000000000000000000000000000000000000000000000000000000000
310
00000000000000000000000000000000000000000000000000000000000000000000000000000000000000000000000000000000000000000000000000000000000000000000000000000000000000000000000000000000000000000000000000000000000000000000000000000000000000000000000000000000000000
310
00000000000000000000000000000000000000000000000000000000000000000000000000000000000000000000000000000000000000000000F5F5F5F500F500F5F5F50000F5F5F5F5F5F5000000000000000000000000000000000000000000000000000000000000000000000000000000000000000000000000000000
310
00000000000000000000000000000000000000000000000000000000000000000000000000000000000000000000000000000000000000000000000000000000000000000000000000000000000000000000000000000000000000000000000000000000000000000000000000000000000000000000000000000000000000
310
000000000000000000000000000000000000000000000000000000000000000000000000000000000000000000000000000000000000000000000000000000F5F5F5F500F5F50000F5000000000000000000000000000000000000000000000000000000000000000000000000000000000000000000000000000000000000
310
00000000000000000000000000000000000000000000000000000000000000000000000000000000000000000000000000000000000000000000000000000000000000000000000000000000000000000000000000000000000000000000000000000000000000000000000000000000000000000000000000000000000000
310
0000000000000000000000000000000000000000000000000000000000000000000000000000000000000000000000000000000000000000000000000000000000000000F5F5F5F5F5F5F500000000000000000000000000000000000000000000000000000000000000000000000000000000000000000000000000000000
310
00000000000000000000000000000000000000000000000000000000000000000000000000000000000000000000000000000000000000000000000000000000000000000000000000000000000000000000000000000000000000000000000000000000000000000000000000000000000000000000000000000000000000
310
00000000000000000000000000000000000000000000000000000000000000000000000000000000000000000000000000000000000000000000000000000000000000000000000000000000000000000000000000000000000000000000000000000000000000000000000000000000000000000000000000000000000000
310
00000000000000000000000000000000000000000000000000000000000000000000000000000000000000000000000000000000000000000000000000000000000000000000000000000000000000000000000000000000000000000000000000000000000000000000000000000000000000000000000000000000000000
310
00000000000000000000000000000000000000000000000000000000000000000000000000000000000000000000000000000000000000000000000000000000000000000000000000000000000000000000000000000000000000000000000000000000000000000000000000000000000000000000000000000000000000
310
00000000000000000000000000000000000000000000000000000000000000000000000000000000000000000000000000000000000000000000000000000000000000000000000000000000000000000000000000000000000000000000000000000000000000000000000000000000000000000000000000000000000000
310
00000000000000000000000000000000000000000000000000000000000000000000000000000000000000000000000000000000000000000000000000000000000000000000000000000000000000000000000000000000000000000000000000000000000000000000000000000000000000000000000000000000000000
310
00000000000000000000000000000000000000000000000000000000000000000000000000000000000000000000000000000000000000000000000000000000000000000000000000000000000000000000000000000000000000000000000000000000000000000000000000000000000000000000000000000000000000
310
00000000000000000000000000000000000000000000000000000000000000000000000000000000000000000000000000000000000000000000000000000000000000000000000000000000000000000000000000000000000000000000000000000000000000000000000000000000000000000000000000000000000000
310
00000000000000000000000000000000000000000000000000000000000000000000000000000000000000000000000000000000000000000000000000000000000000000000000000000000000000000000000000000000000000000000000000000000000000000000000000000000000000000000000000000000000000
310
00000000000000000000000000000000000000000000000000000000000000000000000000000000000000000000000000000000000000000000000000000000000000000000000000000000000000000000000000000000000000000000000000000000000000000000000000000000000000000000000000000000000000
310
00000000000000000000000000000000000000000000000000000000000000000000000000000000000000000000000000000000000000000000000000000000000000000000000000000000000000000000000000000000000000000000000000000000000000000000000000000000000000000000000000000000000000
310
00000000000000000000000000000000000000000000000000000000000000000000000000000000000000000000000000000000000000000000000000000000000000000000000000000000000000000000000000000000000000000000000000000000000000000000000000000000000000000000000000000000000000
310
00000000000000000000000000000000000000000000000000000000000000000000000000000000000000000000000000000000000000000000000000000000000000000000000000000000000000000000000000000000000000000000000000000000000000000000000000000000000000000000000000000000000000
310
00000000000000000000000000000000000000000000000000000000000000000000000000000000000000000000000000000000000000000000000000000000000000000000000000000000000000000000000000000000000000000000000000000000000000000000000000000000000000000000000000000000000000
310
000000000000000000000000000000000000000000000000000000000000000000000000000000000000000000000000000000000000000000000000000000000000000000000000000000000000
  0
XRECORD
  5
33FE
102
{ACAD_REACTORS
330
1A
102
}
330
1A
100
AcDbXrecord
280
     1
102
MATERIAL
148
0.0
149
0.0
149
0.0
 93
        0
 94
      127
282
     0
 72
     0
 77
     0
171
     0
175
     0
179
     0
273
     0
  0
XRECORD
  5
1C
102
{ACAD_REACTORS
330
1A
102
}
330
1A
100
AcDbXrecord
280
     1
270
     1
271
     1
  0
XRECORD
  5
1B
102
{ACAD_REACTORS
330
1A
102
}
330
1A
100
AcDbXrecord
280
     1
270
     1
271
     1
  0
XRECORD
  5
1F
102
{ACAD_REACTORS
330
1A
102
}
330
1A
100
AcDbXrecord
280
     1
270
     1
271
     1
  0
XRECORD
  5
1E
102
{ACAD_REACTORS
330
1A
102
}
330
1A
100
AcDbXrecord
280
     1
270
     1
271
     1
  0
XRECORD
  5
20
102
{ACAD_REACTORS
330
1A
102
}
330
1A
100
AcDbXrecord
280
     1
270
     1
271
     1
  0
XRECORD
  5
1D
102
{ACAD_REACTORS
330
1A
102
}
330
1A
100
AcDbXrecord
280
     1
270
     1
271
     1
  0
XRECORD
  5
33FD
102
{ACAD_REACTORS
330
12
102
}
330
12
100
AcDbXrecord
280
     1
102
MATERIAL
148
0.0
149
0.0
149
0.0
 93
        0
 94
      127
282
     0
 72
     0
 77
     0
171
     0
175
     0
179
     0
273
     0
  0
XRECORD
  5
14
102
{ACAD_REACTORS
330
12
102
}
330
12
100
AcDbXrecord
280
     1
270
     1
271
     1
  0
XRECORD
  5
13
102
{ACAD_REACTORS
330
12
102
}
330
12
100
AcDbXrecord
280
     1
270
     1
271
     1
  0
XRECORD
  5
17
102
{ACAD_REACTORS
330
12
102
}
330
12
100
AcDbXrecord
280
     1
270
     1
271
     1
  0
XRECORD
  5
16
102
{ACAD_REACTORS
330
12
102
}
330
12
100
AcDbXrecord
280
     1
270
     1
271
     1
  0
XRECORD
  5
18
102
{ACAD_REACTORS
330
12
102
}
330
12
100
AcDbXrecord
280
     1
270
     1
271
     1
  0
XRECORD
  5
15
102
{ACAD_REACTORS
330
12
102
}
330
12
100
AcDbXrecord
280
     1
270
     1
271
     1
  0
XRECORD
  5
33FF
102
{ACAD_REACTORS
330
22
102
}
330
22
100
AcDbXrecord
280
     1
102
MATERIAL
148
0.0
149
0.0
149
0.0
 93
        0
 94
      127
282
     0
 72
     0
 77
     0
171
     0
175
     0
179
     0
273
     0
  0
XRECORD
  5
24
102
{ACAD_REACTORS
330
22
102
}
330
22
100
AcDbXrecord
280
     1
270
     1
271
     1
  0
XRECORD
  5
23
102
{ACAD_REACTORS
330
22
102
}
330
22
100
AcDbXrecord
280
     1
270
     1
271
     1
  0
XRECORD
  5
27
102
{ACAD_REACTORS
330
22
102
}
330
22
100
AcDbXrecord
280
     1
270
     1
271
     1
  0
XRECORD
  5
26
102
{ACAD_REACTORS
330
22
102
}
330
22
100
AcDbXrecord
280
     1
270
     1
271
     1
  0
XRECORD
  5
28
102
{ACAD_REACTORS
330
22
102
}
330
22
100
AcDbXrecord
280
     1
270
     1
271
     1
  0
XRECORD
  5
25
102
{ACAD_REACTORS
330
22
102
}
330
22
100
AcDbXrecord
280
     1
270
     1
271
     1
  0
XRECORD
  5
33F8
102
{ACAD_REACTORS
330
33F7
102
}
330
33F7
100
AcDbXrecord
280
     1
102
ACAD_ROUNDTRIP_2012_MLEADER_STYLE
298
     1
  0
CELLSTYLEMAP
  5
33F6
102
{ACAD_REACTORS
330
30FB
102
}
330
30FB
100
AcDbCellStyleMap
 90
        3
300
CELLSTYLE
  1
TABLEFORMAT_BEGIN
 90
        5
170
     1
 91
        0
 92
    32768
 62
   257
 93
        1
300
CONTENTFORMAT
  1
CONTENTFORMAT_BEGIN
 90
        0
 91
        0
 92
      512
 93
        0
300

 40
0.0
140
1.0
 94
        5
 62
     0
340
55
144
0.25
309
CONTENTFORMAT_END
171
     0
 94
        0
309
TABLEFORMAT_END
  1
CELLSTYLE_BEGIN
 90
        1
 91
        1
300
_TITLE
309
CELLSTYLE_END
300
CELLSTYLE
  1
TABLEFORMAT_BEGIN
 90
        5
170
     1
 91
        0
 92
        0
 62
   257
 93
        1
300
CONTENTFORMAT
  1
CONTENTFORMAT_BEGIN
 90
        0
 91
        0
 92
      512
 93
        0
300

 40
0.0
140
1.0
 94
        5
 62
     0
340
55
144
0.18
309
CONTENTFORMAT_END
171
     0
 94
        0
309
TABLEFORMAT_END
  1
CELLSTYLE_BEGIN
 90
        2
 91
        1
300
_HEADER
309
CELLSTYLE_END
300
CELLSTYLE
  1
TABLEFORMAT_BEGIN
 90
        5
170
     1
 91
        0
 92
        0
 62
   257
 93
        1
300
CONTENTFORMAT
  1
CONTENTFORMAT_BEGIN
 90
        0
 91
        0
 92
      512
 93
        0
300

 40
0.0
140
1.0
 94
        2
 62
     0
340
55
144
0.18
309
CONTENTFORMAT_END
171
     0
 94
        0
309
TABLEFORMAT_END
  1
CELLSTYLE_BEGIN
 90
        3
 91
        2
300
_DATA
309
CELLSTYLE_END
  0
XRECORD
  5
3430
102
{ACAD_REACTORS
330
30FB
102
}
330
30FB
100
AcDbXrecord
280
     1
102
ACAD_ROUNDTRIP_PRE2007_TABLESTYLE
 90
      512
 91
        0
  1

 92
      512
 93
        0
  2

 94
      512
 95
        0
  3

  0
XRECORD
  5
340B
102
{ACAD_REACTORS
330
340A
102
}
330
340A
100
AcDbXrecord
280
     1
102
RTVSPropertyOp0
 70
     1
102
RTVSPropertyOp1
 70
     1
102
RTVSPropertyOp2
 70
     1
102
RTVSPropertyOp3
 70
     1
102
RTVSPropertyOp4
 70
     1
102
RTVSPropertyOp5
 70
     1
102
RTVSPropertyOp6
 70
     1
102
RTVSPropertyOp7
 70
     1
102
RTVSPropertyOp8
 70
     1
102
RTVSPropertyOp9
 70
     1
102
RTVSPropertyOp10
 70
     1
102
RTVSPropertyOp11
 70
     1
102
RTVSPropertyOp12
 70
     1
102
RTVSPropertyOp13
 70
     1
102
RTVSPropertyOp14
 70
     1
102
RTVSPropertyOp15
 70
     1
102
RTVSPropertyOp16
 70
     1
102
RTVSPropertyOp17
 70
     1
102
RTVSPropertyOp18
 70
     1
102
RTVSPropertyOp19
 70
     1
102
RTVSPropertyOp20
 70
     1
102
RTVSPropertyOp21
 70
     1
102
RTVSPropertyOp22
 70
     1
102
RTVSPropertyOp23
 70
     1
102
RTVSPropertyOp24
 70
     1
102
RTVSPropertyOp25
 70
     1
102
RTVSPropertyOp26
 70
     1
102
RTVSPropertyOp27
 70
     1
102
RTVSPropertyOp28
 70
     1
102
RTVSPropertyOp29
 70
     1
102
RTVSPropertyOp30
 70
     1
102
RTVSPropertyOp31
 70
     1
102
RTVSPropertyOp32
 70
     1
  0
XRECORD
  5
3409
102
{ACAD_REACTORS
330
3408
102
}
330
3408
100
AcDbXrecord
280
     1
102
RTVSPropertyOp0
 70
     1
102
RTVSPropertyOp1
 70
     1
102
RTVSPropertyOp2
 70
     1
102
RTVSPropertyOp3
 70
     1
102
RTVSPropertyOp4
 70
     1
102
RTVSPropertyOp5
 70
     1
102
RTVSPropertyOp6
 70
     1
102
RTVSPropertyOp7
 70
     1
102
RTVSPropertyOp8
 70
     1
102
RTVSPropertyOp9
 70
     1
102
RTVSPropertyOp10
 70
     1
102
RTVSPropertyOp11
 70
     1
102
RTVSPropertyOp12
 70
     1
102
RTVSPropertyOp13
 70
     1
102
RTVSPropertyOp14
 70
     1
102
RTVSPropertyOp15
 70
     1
102
RTVSPropertyOp16
 70
     1
102
RTVSPropertyOp17
 70
     1
102
RTVSPropertyOp18
 70
     1
102
RTVSPropertyOp19
 70
     1
102
RTVSPropertyOp20
 70
     1
102
RTVSPropertyOp21
 70
     1
102
RTVSPropertyOp22
 70
     1
102
RTVSPropertyOp23
 70
     1
102
RTVSPropertyOp24
 70
     1
102
RTVSPropertyOp25
 70
     1
102
RTVSPropertyOp26
 70
     1
102
RTVSPropertyOp27
 70
     1
102
RTVSPropertyOp28
 70
     1
102
RTVSPropertyOp29
 70
     1
102
RTVSPropertyOp30
 70
     1
102
RTVSPropertyOp31
 70
     1
102
RTVSPropertyOp32
 70
     1
  0
XRECORD
  5
3417
102
{ACAD_REACTORS
330
3416
102
}
330
3416
100
AcDbXrecord
280
     1
102
RTVSPropertyOp0
 70
     1
102
RTVSPropertyOp1
 70
     1
102
RTVSPropertyOp2
 70
     1
102
RTVSPropertyOp3
 70
     1
102
RTVSPropertyOp4
 70
     1
102
RTVSPropertyOp5
 70
     1
102
RTVSPropertyOp6
 70
     1
102
RTVSPropertyOp7
 70
     1
102
RTVSPropertyOp8
 70
     1
102
RTVSPropertyOp9
 70
     1
102
RTVSPropertyOp10
 70
     1
102
RTVSPropertyOp11
 70
     1
102
RTVSPropertyOp12
 70
     1
102
RTVSPropertyOp13
 70
     1
102
RTVSPropertyOp14
 70
     1
102
RTVSPropertyOp15
 70
     1
102
RTVSPropertyOp16
 70
     1
102
RTVSPropertyOp17
 70
     1
102
RTVSPropertyOp18
 70
     1
102
RTVSPropertyOp19
 70
     1
102
RTVSPropertyOp20
 70
     1
102
RTVSPropertyOp21
 70
     1
102
RTVSPropertyOp22
 70
     1
102
RTVSPropertyOp23
 70
     1
102
RTVSPropertyOp24
 70
     1
102
RTVSPropertyOp25
 70
     1
102
RTVSPropertyOp26
 70
     1
102
RTVSPropertyOp27
 70
     1
102
RTVSPropertyOp28
 70
     1
102
RTVSPropertyOp29
 70
     1
102
RTVSPropertyOp30
 70
     1
102
RTVSPropertyOp31
 70
     1
102
RTVSPropertyOp32
 70
     1
  0
XRECORD
  5
341F
102
{ACAD_REACTORS
330
341E
102
}
330
341E
100
AcDbXrecord
280
     1
102
RTVSPropertyOp0
 70
     1
102
RTVSPropertyOp1
 70
     1
102
RTVSPropertyOp2
 70
     1
102
RTVSPropertyOp3
 70
     1
102
RTVSPropertyOp4
 70
     1
102
RTVSPropertyOp5
 70
     1
102
RTVSPropertyOp6
 70
     1
102
RTVSPropertyOp7
 70
     1
102
RTVSPropertyOp8
 70
     1
102
RTVSPropertyOp9
 70
     1
102
RTVSPropertyOp10
 70
     1
102
RTVSPropertyOp11
 70
     1
102
RTVSPropertyOp12
 70
     1
102
RTVSPropertyOp13
 70
     1
102
RTVSPropertyOp14
 70
     1
102
RTVSPropertyOp15
 70
     1
102
RTVSPropertyOp16
 70
     1
102
RTVSPropertyOp17
 70
     1
102
RTVSPropertyOp18
 70
     1
102
RTVSPropertyOp19
 70
     1
102
RTVSPropertyOp20
 70
     1
102
RTVSPropertyOp21
 70
     1
102
RTVSPropertyOp22
 70
     1
102
RTVSPropertyOp23
 70
     1
102
RTVSPropertyOp24
 70
     1
102
RTVSPropertyOp25
 70
     1
102
RTVSPropertyOp26
 70
     1
102
RTVSPropertyOp27
 70
     1
102
RTVSPropertyOp28
 70
     1
102
RTVSPropertyOp29
 70
     1
102
RTVSPropertyOp30
 70
     1
102
RTVSPropertyOp31
 70
     1
102
RTVSPropertyOp32
 70
     1
  0
XRECORD
  5
3411
102
{ACAD_REACTORS
330
3410
102
}
330
3410
100
AcDbXrecord
280
     1
102
RTVSPropertyOp0
 70
     1
102
RTVSPropertyOp1
 70
     1
102
RTVSPropertyOp2
 70
     1
102
RTVSPropertyOp3
 70
     1
102
RTVSPropertyOp4
 70
     1
102
RTVSPropertyOp5
 70
     1
102
RTVSPropertyOp6
 70
     1
102
RTVSPropertyOp7
 70
     1
102
RTVSPropertyOp8
 70
     1
102
RTVSPropertyOp9
 70
     1
102
RTVSPropertyOp10
 70
     1
102
RTVSPropertyOp11
 70
     1
102
RTVSPropertyOp12
 70
     1
102
RTVSPropertyOp13
 70
     1
102
RTVSPropertyOp14
 70
     1
102
RTVSPropertyOp15
 70
     1
102
RTVSPropertyOp16
 70
     1
102
RTVSPropertyOp17
 70
     1
102
RTVSPropertyOp18
 70
     1
102
RTVSPropertyOp19
 70
     1
102
RTVSPropertyOp20
 70
     1
102
RTVSPropertyOp21
 70
     1
102
RTVSPropertyOp22
 70
     1
102
RTVSPropertyOp23
 70
     1
102
RTVSPropertyOp24
 70
     1
102
RTVSPropertyOp25
 70
     1
102
RTVSPropertyOp26
 70
     1
102
RTVSPropertyOp27
 70
     1
102
RTVSPropertyOp28
 70
     1
102
RTVSPropertyOp29
 70
     1
102
RTVSPropertyOp30
 70
     1
102
RTVSPropertyOp31
 70
     1
102
RTVSPropertyOp32
 70
     1
  0
XRECORD
  5
3415
102
{ACAD_REACTORS
330
3414
102
}
330
3414
100
AcDbXrecord
280
     1
102
RTVSPropertyOp0
 70
     1
102
RTVSPropertyOp1
 70
     1
102
RTVSPropertyOp2
 70
     1
102
RTVSPropertyOp3
 70
     1
102
RTVSPropertyOp4
 70
     1
102
RTVSPropertyOp5
 70
     1
102
RTVSPropertyOp6
 70
     1
102
RTVSPropertyOp7
 70
     1
102
RTVSPropertyOp8
 70
     1
102
RTVSPropertyOp9
 70
     1
102
RTVSPropertyOp10
 70
     1
102
RTVSPropertyOp11
 70
     1
102
RTVSPropertyOp12
 70
     1
102
RTVSPropertyOp13
 70
     1
102
RTVSPropertyOp14
 70
     1
102
RTVSPropertyOp15
 70
     1
102
RTVSPropertyOp16
 70
     1
102
RTVSPropertyOp17
 70
     1
102
RTVSPropertyOp18
 70
     1
102
RTVSPropertyOp19
 70
     1
102
RTVSPropertyOp20
 70
     1
102
RTVSPropertyOp21
 70
     1
102
RTVSPropertyOp22
 70
     1
102
RTVSPropertyOp23
 70
     1
102
RTVSPropertyOp24
 70
     1
102
RTVSPropertyOp25
 70
     1
102
RTVSPropertyOp26
 70
     1
102
RTVSPropertyOp27
 70
     1
102
RTVSPropertyOp28
 70
     1
102
RTVSPropertyOp29
 70
     1
102
RTVSPropertyOp30
 70
     1
102
RTVSPropertyOp31
 70
     1
102
RTVSPropertyOp32
 70
     1
  0
XRECORD
  5
342F
102
{ACAD_REACTORS
330
342E
102
}
330
342E
100
AcDbXrecord
280
     1
102
RTVSPropertyOp0
 70
     0
102
RTVSPropertyOp1
 70
     0
102
RTVSPropertyOp2
 70
     0
102
RTVSPropertyOp3
 70
     0
102
RTVSPropertyOp4
 70
     0
102
RTVSPropertyOp5
 70
     0
102
RTVSPropertyOp6
 70
     0
102
RTVSPropertyOp7
 70
     0
102
RTVSPropertyOp8
 70
     0
102
RTVSPropertyOp9
 70
     0
102
RTVSPropertyOp10
 70
     0
102
RTVSPropertyOp11
 70
     0
102
RTVSPropertyOp12
 70
     0
102
RTVSPropertyOp13
 70
     0
102
RTVSPropertyOp14
 70
     2
102
RTVSPropertyOp15
 70
     0
102
RTVSPropertyOp16
 70
     0
102
RTVSPropertyOp17
 70
     0
102
RTVSPropertyOp18
 70
     0
102
RTVSPropertyOp19
 70
     0
102
RTVSPropertyOp20
 70
     0
102
RTVSPropertyOp21
 70
     0
102
RTVSPropertyOp22
 70
     0
102
RTVSPropertyOp23
 70
     0
102
RTVSPropertyOp24
 70
     0
102
RTVSPropertyOp25
 70
     0
102
RTVSPropertyOp26
 70
     0
102
RTVSPropertyOp27
 70
     0
102
RTVSPropertyOp28
 70
     1
102
RTVSPropertyOp29
 70
     1
102
RTVSPropertyOp30
 70
     1
102
RTVSPropertyOp31
 70
     1
102
RTVSPropertyOp32
 70
     1
  0
XRECORD
  5
341D
102
{ACAD_REACTORS
330
341C
102
}
330
341C
100
AcDbXrecord
280
     1
102
RTVSPropertyOp0
 70
     1
102
RTVSPropertyOp1
 70
     1
102
RTVSPropertyOp2
 70
     1
102
RTVSPropertyOp3
 70
     1
102
RTVSPropertyOp4
 70
     1
102
RTVSPropertyOp5
 70
     1
102
RTVSPropertyOp6
 70
     1
102
RTVSPropertyOp7
 70
     1
102
RTVSPropertyOp8
 70
     1
102
RTVSPropertyOp9
 70
     1
102
RTVSPropertyOp10
 70
     1
102
RTVSPropertyOp11
 70
     1
102
RTVSPropertyOp12
 70
     1
102
RTVSPropertyOp13
 70
     1
102
RTVSPropertyOp14
 70
     1
102
RTVSPropertyOp15
 70
     1
102
RTVSPropertyOp16
 70
     1
102
RTVSPropertyOp17
 70
     1
102
RTVSPropertyOp18
 70
     1
102
RTVSPropertyOp19
 70
     1
102
RTVSPropertyOp20
 70
     1
102
RTVSPropertyOp21
 70
     1
102
RTVSPropertyOp22
 70
     1
102
RTVSPropertyOp23
 70
     1
102
RTVSPropertyOp24
 70
     1
102
RTVSPropertyOp25
 70
     1
102
RTVSPropertyOp26
 70
     1
102
RTVSPropertyOp27
 70
     1
102
RTVSPropertyOp28
 70
     1
102
RTVSPropertyOp29
 70
     1
102
RTVSPropertyOp30
 70
     1
102
RTVSPropertyOp31
 70
     1
102
RTVSPropertyOp32
 70
     1
  0
XRECORD
  5
3401
102
{ACAD_REACTORS
330
3400
102
}
330
3400
100
AcDbXrecord
280
     1
102
RTVSPropertyOp0
 70
     1
102
RTVSPropertyOp1
 70
     1
102
RTVSPropertyOp2
 70
     1
102
RTVSPropertyOp3
 70
     1
102
RTVSPropertyOp4
 70
     1
102
RTVSPropertyOp5
 70
     1
102
RTVSPropertyOp6
 70
     1
102
RTVSPropertyOp7
 70
     1
102
RTVSPropertyOp8
 70
     1
102
RTVSPropertyOp9
 70
     1
102
RTVSPropertyOp10
 70
     1
102
RTVSPropertyOp11
 70
     1
102
RTVSPropertyOp12
 70
     1
102
RTVSPropertyOp13
 70
     1
102
RTVSPropertyOp14
 70
     1
102
RTVSPropertyOp15
 70
     1
102
RTVSPropertyOp16
 70
     1
102
RTVSPropertyOp17
 70
     1
102
RTVSPropertyOp18
 70
     1
102
RTVSPropertyOp19
 70
     1
102
RTVSPropertyOp20
 70
     1
102
RTVSPropertyOp21
 70
     1
102
RTVSPropertyOp22
 70
     1
102
RTVSPropertyOp23
 70
     1
102
RTVSPropertyOp24
 70
     1
102
RTVSPropertyOp25
 70
     1
102
RTVSPropertyOp26
 70
     1
102
RTVSPropertyOp27
 70
     1
102
RTVSPropertyOp28
 70
     1
102
RTVSPropertyOp29
 70
     1
102
RTVSPropertyOp30
 70
     1
102
RTVSPropertyOp31
 70
     1
102
RTVSPropertyOp32
 70
     1
  0
XRECORD
  5
3403
102
{ACAD_REACTORS
330
3402
102
}
330
3402
100
AcDbXrecord
280
     1
102
RTVSPropertyOp0
 70
     1
102
RTVSPropertyOp1
 70
     1
102
RTVSPropertyOp2
 70
     1
102
RTVSPropertyOp3
 70
     1
102
RTVSPropertyOp4
 70
     1
102
RTVSPropertyOp5
 70
     1
102
RTVSPropertyOp6
 70
     1
102
RTVSPropertyOp7
 70
     1
102
RTVSPropertyOp8
 70
     1
102
RTVSPropertyOp9
 70
     1
102
RTVSPropertyOp10
 70
     1
102
RTVSPropertyOp11
 70
     1
102
RTVSPropertyOp12
 70
     1
102
RTVSPropertyOp13
 70
     1
102
RTVSPropertyOp14
 70
     1
102
RTVSPropertyOp15
 70
     1
102
RTVSPropertyOp16
 70
     1
102
RTVSPropertyOp17
 70
     1
102
RTVSPropertyOp18
 70
     1
102
RTVSPropertyOp19
 70
     1
102
RTVSPropertyOp20
 70
     1
102
RTVSPropertyOp21
 70
     1
102
RTVSPropertyOp22
 70
     1
102
RTVSPropertyOp23
 70
     1
102
RTVSPropertyOp24
 70
     1
102
RTVSPropertyOp25
 70
     1
102
RTVSPropertyOp26
 70
     1
102
RTVSPropertyOp27
 70
     1
102
RTVSPropertyOp28
 70
     1
102
RTVSPropertyOp29
 70
     1
102
RTVSPropertyOp30
 70
     1
102
RTVSPropertyOp31
 70
     1
102
RTVSPropertyOp32
 70
     1
  0
XRECORD
  5
3405
102
{ACAD_REACTORS
330
3404
102
}
330
3404
100
AcDbXrecord
280
     1
102
RTVSPropertyOp0
 70
     1
102
RTVSPropertyOp1
 70
     1
102
RTVSPropertyOp2
 70
     1
102
RTVSPropertyOp3
 70
     1
102
RTVSPropertyOp4
 70
     1
102
RTVSPropertyOp5
 70
     1
102
RTVSPropertyOp6
 70
     1
102
RTVSPropertyOp7
 70
     1
102
RTVSPropertyOp8
 70
     1
102
RTVSPropertyOp9
 70
     1
102
RTVSPropertyOp10
 70
     1
102
RTVSPropertyOp11
 70
     1
102
RTVSPropertyOp12
 70
     1
102
RTVSPropertyOp13
 70
     1
102
RTVSPropertyOp14
 70
     1
102
RTVSPropertyOp15
 70
     1
102
RTVSPropertyOp16
 70
     1
102
RTVSPropertyOp17
 70
     1
102
RTVSPropertyOp18
 70
     1
102
RTVSPropertyOp19
 70
     1
102
RTVSPropertyOp20
 70
     1
102
RTVSPropertyOp21
 70
     1
102
RTVSPropertyOp22
 70
     1
102
RTVSPropertyOp23
 70
     1
102
RTVSPropertyOp24
 70
     1
102
RTVSPropertyOp25
 70
     1
102
RTVSPropertyOp26
 70
     1
102
RTVSPropertyOp27
 70
     1
102
RTVSPropertyOp28
 70
     1
102
RTVSPropertyOp29
 70
     1
102
RTVSPropertyOp30
 70
     1
102
RTVSPropertyOp31
 70
     1
102
RTVSPropertyOp32
 70
     1
  0
XRECORD
  5
3407
102
{ACAD_REACTORS
330
3406
102
}
330
3406
100
AcDbXrecord
280
     1
102
RTVSPropertyOp0
 70
     1
102
RTVSPropertyOp1
 70
     1
102
RTVSPropertyOp2
 70
     1
102
RTVSPropertyOp3
 70
     1
102
RTVSPropertyOp4
 70
     1
102
RTVSPropertyOp5
 70
     1
102
RTVSPropertyOp6
 70
     1
102
RTVSPropertyOp7
 70
     1
102
RTVSPropertyOp8
 70
     1
102
RTVSPropertyOp9
 70
     1
102
RTVSPropertyOp10
 70
     1
102
RTVSPropertyOp11
 70
     1
102
RTVSPropertyOp12
 70
     1
102
RTVSPropertyOp13
 70
     1
102
RTVSPropertyOp14
 70
     1
102
RTVSPropertyOp15
 70
     1
102
RTVSPropertyOp16
 70
     1
102
RTVSPropertyOp17
 70
     1
102
RTVSPropertyOp18
 70
     1
102
RTVSPropertyOp19
 70
     1
102
RTVSPropertyOp20
 70
     1
102
RTVSPropertyOp21
 70
     1
102
RTVSPropertyOp22
 70
     1
102
RTVSPropertyOp23
 70
     1
102
RTVSPropertyOp24
 70
     1
102
RTVSPropertyOp25
 70
     1
102
RTVSPropertyOp26
 70
     1
102
RTVSPropertyOp27
 70
     1
102
RTVSPropertyOp28
 70
     1
102
RTVSPropertyOp29
 70
     1
102
RTVSPropertyOp30
 70
     1
102
RTVSPropertyOp31
 70
     1
102
RTVSPropertyOp32
 70
     1
  0
XRECORD
  5
340F
102
{ACAD_REACTORS
330
340E
102
}
330
340E
100
AcDbXrecord
280
     1
102
RTVSPropertyOp0
 70
     1
102
RTVSPropertyOp1
 70
     1
102
RTVSPropertyOp2
 70
     1
102
RTVSPropertyOp3
 70
     1
102
RTVSPropertyOp4
 70
     1
102
RTVSPropertyOp5
 70
     1
102
RTVSPropertyOp6
 70
     1
102
RTVSPropertyOp7
 70
     1
102
RTVSPropertyOp8
 70
     1
102
RTVSPropertyOp9
 70
     1
102
RTVSPropertyOp10
 70
     1
102
RTVSPropertyOp11
 70
     1
102
RTVSPropertyOp12
 70
     1
102
RTVSPropertyOp13
 70
     1
102
RTVSPropertyOp14
 70
     1
102
RTVSPropertyOp15
 70
     1
102
RTVSPropertyOp16
 70
     1
102
RTVSPropertyOp17
 70
     1
102
RTVSPropertyOp18
 70
     1
102
RTVSPropertyOp19
 70
     1
102
RTVSPropertyOp20
 70
     1
102
RTVSPropertyOp21
 70
     1
102
RTVSPropertyOp22
 70
     1
102
RTVSPropertyOp23
 70
     1
102
RTVSPropertyOp24
 70
     1
102
RTVSPropertyOp25
 70
     1
102
RTVSPropertyOp26
 70
     1
102
RTVSPropertyOp27
 70
     1
102
RTVSPropertyOp28
 70
     1
102
RTVSPropertyOp29
 70
     1
102
RTVSPropertyOp30
 70
     1
102
RTVSPropertyOp31
 70
     1
102
RTVSPropertyOp32
 70
     1
  0
XRECORD
  5
342B
102
{ACAD_REACTORS
330
342A
102
}
330
342A
100
AcDbXrecord
280
     1
102
RTVSPropertyOp0
 70
     0
102
RTVSPropertyOp1
 70
     0
102
RTVSPropertyOp2
 70
     0
102
RTVSPropertyOp3
 70
     0
102
RTVSPropertyOp4
 70
     0
102
RTVSPropertyOp5
 70
     0
102
RTVSPropertyOp6
 70
     0
102
RTVSPropertyOp7
 70
     0
102
RTVSPropertyOp8
 70
     0
102
RTVSPropertyOp9
 70
     0
102
RTVSPropertyOp10
 70
     0
102
RTVSPropertyOp11
 70
     0
102
RTVSPropertyOp12
 70
     0
102
RTVSPropertyOp13
 70
     0
102
RTVSPropertyOp14
 70
     2
102
RTVSPropertyOp15
 70
     0
102
RTVSPropertyOp16
 70
     0
102
RTVSPropertyOp17
 70
     0
102
RTVSPropertyOp18
 70
     0
102
RTVSPropertyOp19
 70
     0
102
RTVSPropertyOp20
 70
     0
102
RTVSPropertyOp21
 70
     0
102
RTVSPropertyOp22
 70
     0
102
RTVSPropertyOp23
 70
     0
102
RTVSPropertyOp24
 70
     0
102
RTVSPropertyOp25
 70
     0
102
RTVSPropertyOp26
 70
     0
102
RTVSPropertyOp27
 70
     0
102
RTVSPropertyOp28
 70
     1
102
RTVSPropertyOp29
 70
     1
102
RTVSPropertyOp30
 70
     1
102
RTVSPropertyOp31
 70
     1
102
RTVSPropertyOp32
 70
     1
  0
XRECORD
  5
341B
102
{ACAD_REACTORS
330
341A
102
}
330
341A
100
AcDbXrecord
280
     1
102
RTVSPropertyOp0
 70
     1
102
RTVSPropertyOp1
 70
     1
102
RTVSPropertyOp2
 70
     1
102
RTVSPropertyOp3
 70
     1
102
RTVSPropertyOp4
 70
     1
102
RTVSPropertyOp5
 70
     1
102
RTVSPropertyOp6
 70
     1
102
RTVSPropertyOp7
 70
     1
102
RTVSPropertyOp8
 70
     1
102
RTVSPropertyOp9
 70
     1
102
RTVSPropertyOp10
 70
     1
102
RTVSPropertyOp11
 70
     1
102
RTVSPropertyOp12
 70
     1
102
RTVSPropertyOp13
 70
     1
102
RTVSPropertyOp14
 70
     1
102
RTVSPropertyOp15
 70
     1
102
RTVSPropertyOp16
 70
     1
102
RTVSPropertyOp17
 70
     1
102
RTVSPropertyOp18
 70
     1
102
RTVSPropertyOp19
 70
     1
102
RTVSPropertyOp20
 70
     1
102
RTVSPropertyOp21
 70
     1
102
RTVSPropertyOp22
 70
     1
102
RTVSPropertyOp23
 70
     1
102
RTVSPropertyOp24
 70
     1
102
RTVSPropertyOp25
 70
     1
102
RTVSPropertyOp26
 70
     1
102
RTVSPropertyOp27
 70
     1
102
RTVSPropertyOp28
 70
     1
102
RTVSPropertyOp29
 70
     1
102
RTVSPropertyOp30
 70
     1
102
RTVSPropertyOp31
 70
     1
102
RTVSPropertyOp32
 70
     1
  0
XRECORD
  5
342D
102
{ACAD_REACTORS
330
342C
102
}
330
342C
100
AcDbXrecord
280
     1
102
RTVSPropertyOp0
 70
     0
102
RTVSPropertyOp1
 70
     0
102
RTVSPropertyOp2
 70
     0
102
RTVSPropertyOp3
 70
     0
102
RTVSPropertyOp4
 70
     0
102
RTVSPropertyOp5
 70
     0
102
RTVSPropertyOp6
 70
     0
102
RTVSPropertyOp7
 70
     0
102
RTVSPropertyOp8
 70
     0
102
RTVSPropertyOp9
 70
     0
102
RTVSPropertyOp10
 70
     0
102
RTVSPropertyOp11
 70
     0
102
RTVSPropertyOp12
 70
     0
102
RTVSPropertyOp13
 70
     0
102
RTVSPropertyOp14
 70
     2
102
RTVSPropertyOp15
 70
     0
102
RTVSPropertyOp16
 70
     0
102
RTVSPropertyOp17
 70
     0
102
RTVSPropertyOp18
 70
     0
102
RTVSPropertyOp19
 70
     0
102
RTVSPropertyOp20
 70
     0
102
RTVSPropertyOp21
 70
     0
102
RTVSPropertyOp22
 70
     0
102
RTVSPropertyOp23
 70
     0
102
RTVSPropertyOp24
 70
     0
102
RTVSPropertyOp25
 70
     0
102
RTVSPropertyOp26
 70
     0
102
RTVSPropertyOp27
 70
     0
102
RTVSPropertyOp28
 70
     1
102
RTVSPropertyOp29
 70
     1
102
RTVSPropertyOp30
 70
     1
102
RTVSPropertyOp31
 70
     1
102
RTVSPropertyOp32
 70
     1
  0
XRECORD
  5
3413
102
{ACAD_REACTORS
330
3412
102
}
330
3412
100
AcDbXrecord
280
     1
102
RTVSPropertyOp0
 70
     1
102
RTVSPropertyOp1
 70
     1
102
RTVSPropertyOp2
 70
     1
102
RTVSPropertyOp3
 70
     1
102
RTVSPropertyOp4
 70
     1
102
RTVSPropertyOp5
 70
     1
102
RTVSPropertyOp6
 70
     1
102
RTVSPropertyOp7
 70
     1
102
RTVSPropertyOp8
 70
     1
102
RTVSPropertyOp9
 70
     1
102
RTVSPropertyOp10
 70
     1
102
RTVSPropertyOp11
 70
     1
102
RTVSPropertyOp12
 70
     1
102
RTVSPropertyOp13
 70
     1
102
RTVSPropertyOp14
 70
     1
102
RTVSPropertyOp15
 70
     1
102
RTVSPropertyOp16
 70
     1
102
RTVSPropertyOp17
 70
     1
102
RTVSPropertyOp18
 70
     1
102
RTVSPropertyOp19
 70
     1
102
RTVSPropertyOp20
 70
     1
102
RTVSPropertyOp21
 70
     1
102
RTVSPropertyOp22
 70
     1
102
RTVSPropertyOp23
 70
     1
102
RTVSPropertyOp24
 70
     1
102
RTVSPropertyOp25
 70
     1
102
RTVSPropertyOp26
 70
     1
102
RTVSPropertyOp27
 70
     1
102
RTVSPropertyOp28
 70
     1
102
RTVSPropertyOp29
 70
     1
102
RTVSPropertyOp30
 70
     1
102
RTVSPropertyOp31
 70
     1
102
RTVSPropertyOp32
 70
     1
  0
XRECORD
  5
3429
102
{ACAD_REACTORS
330
3428
102
}
330
3428
100
AcDbXrecord
280
     1
102
RTVSPropertyOp0
 70
     1
102
RTVSPropertyOp1
 70
     1
102
RTVSPropertyOp2
 70
     1
102
RTVSPropertyOp3
 70
     1
102
RTVSPropertyOp4
 70
     1
102
RTVSPropertyOp5
 70
     1
102
RTVSPropertyOp6
 70
     1
102
RTVSPropertyOp7
 70
     1
102
RTVSPropertyOp8
 70
     1
102
RTVSPropertyOp9
 70
     1
102
RTVSPropertyOp10
 70
     1
102
RTVSPropertyOp11
 70
     1
102
RTVSPropertyOp12
 70
     1
102
RTVSPropertyOp13
 70
     1
102
RTVSPropertyOp14
 70
     1
102
RTVSPropertyOp15
 70
     1
102
RTVSPropertyOp16
 70
     1
102
RTVSPropertyOp17
 70
     1
102
RTVSPropertyOp18
 70
     1
102
RTVSPropertyOp19
 70
     1
102
RTVSPropertyOp20
 70
     1
102
RTVSPropertyOp21
 70
     1
102
RTVSPropertyOp22
 70
     1
102
RTVSPropertyOp23
 70
     1
102
RTVSPropertyOp24
 70
     1
102
RTVSPropertyOp25
 70
     1
102
RTVSPropertyOp26
 70
     1
102
RTVSPropertyOp27
 70
     1
102
RTVSPropertyOp28
 70
     1
102
RTVSPropertyOp29
 70
     1
102
RTVSPropertyOp30
 70
     1
102
RTVSPropertyOp31
 70
     1
102
RTVSPropertyOp32
 70
     1
  0
XRECORD
  5
3427
102
{ACAD_REACTORS
330
3426
102
}
330
3426
100
AcDbXrecord
280
     1
102
RTVSPropertyOp0
 70
     1
102
RTVSPropertyOp1
 70
     1
102
RTVSPropertyOp2
 70
     1
102
RTVSPropertyOp3
 70
     1
102
RTVSPropertyOp4
 70
     1
102
RTVSPropertyOp5
 70
     1
102
RTVSPropertyOp6
 70
     1
102
RTVSPropertyOp7
 70
     1
102
RTVSPropertyOp8
 70
     1
102
RTVSPropertyOp9
 70
     1
102
RTVSPropertyOp10
 70
     1
102
RTVSPropertyOp11
 70
     1
102
RTVSPropertyOp12
 70
     1
102
RTVSPropertyOp13
 70
     1
102
RTVSPropertyOp14
 70
     1
102
RTVSPropertyOp15
 70
     1
102
RTVSPropertyOp16
 70
     1
102
RTVSPropertyOp17
 70
     1
102
RTVSPropertyOp18
 70
     1
102
RTVSPropertyOp19
 70
     1
102
RTVSPropertyOp20
 70
     1
102
RTVSPropertyOp21
 70
     1
102
RTVSPropertyOp22
 70
     1
102
RTVSPropertyOp23
 70
     1
102
RTVSPropertyOp24
 70
     1
102
RTVSPropertyOp25
 70
     1
102
RTVSPropertyOp26
 70
     1
102
RTVSPropertyOp27
 70
     1
102
RTVSPropertyOp28
 70
     1
102
RTVSPropertyOp29
 70
     1
102
RTVSPropertyOp30
 70
     1
102
RTVSPropertyOp31
 70
     1
102
RTVSPropertyOp32
 70
     1
  0
XRECORD
  5
3421
102
{ACAD_REACTORS
330
3420
102
}
330
3420
100
AcDbXrecord
280
     1
102
RTVSPropertyOp0
 70
     1
102
RTVSPropertyOp1
 70
     1
102
RTVSPropertyOp2
 70
     1
102
RTVSPropertyOp3
 70
     1
102
RTVSPropertyOp4
 70
     1
102
RTVSPropertyOp5
 70
     1
102
RTVSPropertyOp6
 70
     1
102
RTVSPropertyOp7
 70
     1
102
RTVSPropertyOp8
 70
     1
102
RTVSPropertyOp9
 70
     1
102
RTVSPropertyOp10
 70
     1
102
RTVSPropertyOp11
 70
     1
102
RTVSPropertyOp12
 70
     1
102
RTVSPropertyOp13
 70
     1
102
RTVSPropertyOp14
 70
     1
102
RTVSPropertyOp15
 70
     1
102
RTVSPropertyOp16
 70
     1
102
RTVSPropertyOp17
 70
     1
102
RTVSPropertyOp18
 70
     1
102
RTVSPropertyOp19
 70
     1
102
RTVSPropertyOp20
 70
     1
102
RTVSPropertyOp21
 70
     1
102
RTVSPropertyOp22
 70
     1
102
RTVSPropertyOp23
 70
     1
102
RTVSPropertyOp24
 70
     1
102
RTVSPropertyOp25
 70
     1
102
RTVSPropertyOp26
 70
     1
102
RTVSPropertyOp27
 70
     1
102
RTVSPropertyOp28
 70
     1
102
RTVSPropertyOp29
 70
     1
102
RTVSPropertyOp30
 70
     1
102
RTVSPropertyOp31
 70
     1
102
RTVSPropertyOp32
 70
     1
  0
XRECORD
  5
3423
102
{ACAD_REACTORS
330
3422
102
}
330
3422
100
AcDbXrecord
280
     1
102
RTVSPropertyOp0
 70
     1
102
RTVSPropertyOp1
 70
     1
102
RTVSPropertyOp2
 70
     1
102
RTVSPropertyOp3
 70
     1
102
RTVSPropertyOp4
 70
     1
102
RTVSPropertyOp5
 70
     1
102
RTVSPropertyOp6
 70
     1
102
RTVSPropertyOp7
 70
     1
102
RTVSPropertyOp8
 70
     1
102
RTVSPropertyOp9
 70
     1
102
RTVSPropertyOp10
 70
     1
102
RTVSPropertyOp11
 70
     1
102
RTVSPropertyOp12
 70
     1
102
RTVSPropertyOp13
 70
     1
102
RTVSPropertyOp14
 70
     1
102
RTVSPropertyOp15
 70
     1
102
RTVSPropertyOp16
 70
     1
102
RTVSPropertyOp17
 70
     1
102
RTVSPropertyOp18
 70
     1
102
RTVSPropertyOp19
 70
     1
102
RTVSPropertyOp20
 70
     1
102
RTVSPropertyOp21
 70
     1
102
RTVSPropertyOp22
 70
     1
102
RTVSPropertyOp23
 70
     1
102
RTVSPropertyOp24
 70
     1
102
RTVSPropertyOp25
 70
     1
102
RTVSPropertyOp26
 70
     1
102
RTVSPropertyOp27
 70
     1
102
RTVSPropertyOp28
 70
     1
102
RTVSPropertyOp29
 70
     1
102
RTVSPropertyOp30
 70
     1
102
RTVSPropertyOp31
 70
     1
102
RTVSPropertyOp32
 70
     1
  0
XRECORD
  5
3419
102
{ACAD_REACTORS
330
3418
102
}
330
3418
100
AcDbXrecord
280
     1
102
RTVSPropertyOp0
 70
     1
102
RTVSPropertyOp1
 70
     1
102
RTVSPropertyOp2
 70
     1
102
RTVSPropertyOp3
 70
     1
102
RTVSPropertyOp4
 70
     1
102
RTVSPropertyOp5
 70
     1
102
RTVSPropertyOp6
 70
     1
102
RTVSPropertyOp7
 70
     1
102
RTVSPropertyOp8
 70
     1
102
RTVSPropertyOp9
 70
     1
102
RTVSPropertyOp10
 70
     1
102
RTVSPropertyOp11
 70
     1
102
RTVSPropertyOp12
 70
     1
102
RTVSPropertyOp13
 70
     1
102
RTVSPropertyOp14
 70
     1
102
RTVSPropertyOp15
 70
     1
102
RTVSPropertyOp16
 70
     1
102
RTVSPropertyOp17
 70
     1
102
RTVSPropertyOp18
 70
     1
102
RTVSPropertyOp19
 70
     1
102
RTVSPropertyOp20
 70
     1
102
RTVSPropertyOp21
 70
     1
102
RTVSPropertyOp22
 70
     1
102
RTVSPropertyOp23
 70
     1
102
RTVSPropertyOp24
 70
     1
102
RTVSPropertyOp25
 70
     1
102
RTVSPropertyOp26
 70
     1
102
RTVSPropertyOp27
 70
     1
102
RTVSPropertyOp28
 70
     1
102
RTVSPropertyOp29
 70
     1
102
RTVSPropertyOp30
 70
     1
102
RTVSPropertyOp31
 70
     1
102
RTVSPropertyOp32
 70
     1
  0
XRECORD
  5
340D
102
{ACAD_REACTORS
330
340C
102
}
330
340C
100
AcDbXrecord
280
     1
102
RTVSPropertyOp0
 70
     1
102
RTVSPropertyOp1
 70
     1
102
RTVSPropertyOp2
 70
     1
102
RTVSPropertyOp3
 70
     1
102
RTVSPropertyOp4
 70
     1
102
RTVSPropertyOp5
 70
     1
102
RTVSPropertyOp6
 70
     1
102
RTVSPropertyOp7
 70
     1
102
RTVSPropertyOp8
 70
     1
102
RTVSPropertyOp9
 70
     1
102
RTVSPropertyOp10
 70
     1
102
RTVSPropertyOp11
 70
     1
102
RTVSPropertyOp12
 70
     1
102
RTVSPropertyOp13
 70
     1
102
RTVSPropertyOp14
 70
     1
102
RTVSPropertyOp15
 70
     1
102
RTVSPropertyOp16
 70
     1
102
RTVSPropertyOp17
 70
     1
102
RTVSPropertyOp18
 70
     1
102
RTVSPropertyOp19
 70
     1
102
RTVSPropertyOp20
 70
     1
102
RTVSPropertyOp21
 70
     1
102
RTVSPropertyOp22
 70
     1
102
RTVSPropertyOp23
 70
     1
102
RTVSPropertyOp24
 70
     1
102
RTVSPropertyOp25
 70
     1
102
RTVSPropertyOp26
 70
     1
102
RTVSPropertyOp27
 70
     1
102
RTVSPropertyOp28
 70
     1
102
RTVSPropertyOp29
 70
     1
102
RTVSPropertyOp30
 70
     1
102
RTVSPropertyOp31
 70
     1
102
RTVSPropertyOp32
 70
     1
  0
XRECORD
  5
3425
102
{ACAD_REACTORS
330
3424
102
}
330
3424
100
AcDbXrecord
280
     1
102
RTVSPropertyOp0
 70
     1
102
RTVSPropertyOp1
 70
     1
102
RTVSPropertyOp2
 70
     1
102
RTVSPropertyOp3
 70
     1
102
RTVSPropertyOp4
 70
     1
102
RTVSPropertyOp5
 70
     1
102
RTVSPropertyOp6
 70
     1
102
RTVSPropertyOp7
 70
     1
102
RTVSPropertyOp8
 70
     1
102
RTVSPropertyOp9
 70
     1
102
RTVSPropertyOp10
 70
     1
102
RTVSPropertyOp11
 70
     1
102
RTVSPropertyOp12
 70
     1
102
RTVSPropertyOp13
 70
     1
102
RTVSPropertyOp14
 70
     1
102
RTVSPropertyOp15
 70
     1
102
RTVSPropertyOp16
 70
     1
102
RTVSPropertyOp17
 70
     1
102
RTVSPropertyOp18
 70
     1
102
RTVSPropertyOp19
 70
     1
102
RTVSPropertyOp20
 70
     1
102
RTVSPropertyOp21
 70
     1
102
RTVSPropertyOp22
 70
     1
102
RTVSPropertyOp23
 70
     1
102
RTVSPropertyOp24
 70
     1
102
RTVSPropertyOp25
 70
     1
102
RTVSPropertyOp26
 70
     1
102
RTVSPropertyOp27
 70
     1
102
RTVSPropertyOp28
 70
     1
102
RTVSPropertyOp29
 70
     1
102
RTVSPropertyOp30
 70
     1
102
RTVSPropertyOp31
 70
     1
102
RTVSPropertyOp32
 70
     1
  0
ENDSEC
  0
EOF
