  0
SECTION
  2
HEADER
  9
$ACADVER
  1
AC1015
  9
$ACADMAINTVER
 70
    20
  9
$DWGCODEPAGE
  3
ANSI_1258
  9
$INSBASE
 10
0.0
 20
0.0
 30
0.0
  9
$EXTMIN
 10
-227.6808538624872
 20
-11.82150219076308
 30
0.0
  9
$EXTMAX
 10
-227.42534740709
 20
-11.57064486068539
 30
0.0
  9
$LIMMIN
 10
0.0
 20
0.0
  9
$LIMMAX
 10
12.0
 20
9.0
  9
$ORTHOMODE
 70
     0
  9
$REGENMODE
 70
     1
  9
$FILLMODE
 70
     1
  9
$QTEXTMODE
 70
     0
  9
$MIRRTEXT
 70
     0
  9
$LTSCALE
 40
1.0
  9
$ATTMODE
 70
     1
  9
$TEXTSIZE
 40
0.2
  9
$TRACEWID
 40
0.05
  9
$TEXTSTYLE
  7
Standard
  9
$CLAYER
  8
0
  9
$CELTYPE
  6
ByLayer
  9
$CECOLOR
 62
   256
  9
$CELTSCALE
 40
1.0
  9
$DISPSILH
 70
     0
  9
$DIMSCALE
 40
1.0
  9
$DIMASZ
 40
0.18
  9
$DIMEXO
 40
0.0625
  9
$DIMDLI
 40
0.38
  9
$DIMRND
 40
0.0
  9
$DIMDLE
 40
0.0
  9
$DIMEXE
 40
0.18
  9
$DIMTP
 40
0.0
  9
$DIMTM
 40
0.0
  9
$DIMTXT
 40
0.18
  9
$DIMCEN
 40
0.09
  9
$DIMTSZ
 40
0.0
  9
$DIMTOL
 70
     0
  9
$DIMLIM
 70
     0
  9
$DIMTIH
 70
     1
  9
$DIMTOH
 70
     1
  9
$DIMSE1
 70
     0
  9
$DIMSE2
 70
     0
  9
$DIMTAD
 70
     0
  9
$DIMZIN
 70
     0
  9
$DIMBLK
  1

  9
$DIMASO
 70
     1
  9
$DIMSHO
 70
     1
  9
$DIMPOST
  1

  9
$DIMAPOST
  1

  9
$DIMALT
 70
     0
  9
$DIMALTD
 70
     2
  9
$DIMALTF
 40
25.4
  9
$DIMLFAC
 40
1.0
  9
$DIMTOFL
 70
     0
  9
$DIMTVP
 40
0.0
  9
$DIMTIX
 70
     0
  9
$DIMSOXD
 70
     0
  9
$DIMSAH
 70
     0
  9
$DIMBLK1
  1

  9
$DIMBLK2
  1

  9
$DIMSTYLE
  2
Standard
  9
$DIMCLRD
 70
     0
  9
$DIMCLRE
 70
     0
  9
$DIMCLRT
 70
     0
  9
$DIMTFAC
 40
1.0
  9
$DIMGAP
 40
0.09
  9
$DIMJUST
 70
     0
  9
$DIMSD1
 70
     0
  9
$DIMSD2
 70
     0
  9
$DIMTOLJ
 70
     1
  9
$DIMTZIN
 70
     0
  9
$DIMALTZ
 70
     0
  9
$DIMALTTZ
 70
     0
  9
$DIMUPT
 70
     0
  9
$DIMDEC
 70
     4
  9
$DIMTDEC
 70
     4
  9
$DIMALTU
 70
     4
  9
$DIMALTTD
 70
     2
  9
$DIMTXSTY
  7
Standard
  9
$DIMAUNIT
 70
     0
  9
$DIMADEC
 70
     0
  9
$DIMALTRND
 40
0.0
  9
$DIMAZIN
 70
     0
  9
$DIMDSEP
 70
    46
  9
$DIMATFIT
 70
     3
  9
$DIMFRAC
 70
     0
  9
$DIMLDRBLK
  1

  9
$DIMLUNIT
 70
     4
  9
$DIMLWD
 70
    -2
  9
$DIMLWE
 70
    -2
  9
$DIMTMOVE
 70
     0
  9
$LUNITS
 70
     4
  9
$LUPREC
 70
     4
  9
$SKETCHINC
 40
0.1
  9
$FILLETRAD
 40
0.0
  9
$AUNITS
 70
     0
  9
$AUPREC
 70
     0
  9
$MENU
  1
.
  9
$ELEVATION
 40
0.0
  9
$PELEVATION
 40
0.0
  9
$THICKNESS
 40
0.0
  9
$LIMCHECK
 70
     0
  9
$CHAMFERA
 40
0.0
  9
$CHAMFERB
 40
0.0
  9
$CHAMFERC
 40
0.0
  9
$CHAMFERD
 40
0.0
  9
$SKPOLY
 70
     0
  9
$TDCREATE
 40
2456195.352719942
  9
$TDUCREATE
 40
2456195.061053275
  9
$TDUPDATE
 40
2456199.560969942
  9
$TDUUPDATE
 40
2456199.269303275
  9
$TDINDWG
 40
0.0213789352
  9
$TDUSRTIMER
 40
0.0213789352
  9
$USRTIMER
 70
     1
  9
$ANGBASE
 50
0.0
  9
$ANGDIR
 70
     0
  9
$PDMODE
 70
     0
  9
$PDSIZE
 40
0.0
  9
$PLINEWID
 40
0.0
  9
$SPLFRAME
 70
     0
  9
$SPLINETYPE
 70
     6
  9
$SPLINESEGS
 70
     8
  9
$HANDSEED
  5
15BA
  9
$SURFTAB1
 70
     6
  9
$SURFTAB2
 70
     6
  9
$SURFTYPE
 70
     6
  9
$SURFU
 70
     6
  9
$SURFV
 70
     6
  9
$UCSBASE
  2

  9
$UCSNAME
  2

  9
$UCSORG
 10
0.0
 20
0.0
 30
0.0
  9
$UCSXDIR
 10
1.0
 20
0.0
 30
0.0
  9
$UCSYDIR
 10
0.0
 20
1.0
 30
0.0
  9
$UCSORTHOREF
  2

  9
$UCSORTHOVIEW
 70
     0
  9
$UCSORGTOP
 10
0.0
 20
0.0
 30
0.0
  9
$UCSORGBOTTOM
 10
0.0
 20
0.0
 30
0.0
  9
$UCSORGLEFT
 10
0.0
 20
0.0
 30
0.0
  9
$UCSORGRIGHT
 10
0.0
 20
0.0
 30
0.0
  9
$UCSORGFRONT
 10
0.0
 20
0.0
 30
0.0
  9
$UCSORGBACK
 10
0.0
 20
0.0
 30
0.0
  9
$PUCSBASE
  2

  9
$PUCSNAME
  2

  9
$PUCSORG
 10
0.0
 20
0.0
 30
0.0
  9
$PUCSXDIR
 10
1.0
 20
0.0
 30
0.0
  9
$PUCSYDIR
 10
0.0
 20
1.0
 30
0.0
  9
$PUCSORTHOREF
  2

  9
$PUCSORTHOVIEW
 70
     0
  9
$PUCSORGTOP
 10
0.0
 20
0.0
 30
0.0
  9
$PUCSORGBOTTOM
 10
0.0
 20
0.0
 30
0.0
  9
$PUCSORGLEFT
 10
0.0
 20
0.0
 30
0.0
  9
$PUCSORGRIGHT
 10
0.0
 20
0.0
 30
0.0
  9
$PUCSORGFRONT
 10
0.0
 20
0.0
 30
0.0
  9
$PUCSORGBACK
 10
0.0
 20
0.0
 30
0.0
  9
$USERI1
 70
     0
  9
$USERI2
 70
     0
  9
$USERI3
 70
     0
  9
$USERI4
 70
     0
  9
$USERI5
 70
     0
  9
$USERR1
 40
0.0
  9
$USERR2
 40
0.0
  9
$USERR3
 40
0.0
  9
$USERR4
 40
0.0
  9
$USERR5
 40
0.0
  9
$WORLDVIEW
 70
     1
  9
$SHADEDGE
 70
     3
  9
$SHADEDIF
 70
    70
  9
$TILEMODE
 70
     1
  9
$MAXACTVP
 70
    64
  9
$PINSBASE
 10
0.0
 20
0.0
 30
0.0
  9
$PLIMCHECK
 70
     0
  9
$PEXTMIN
 10
1.000000000000000E+20
 20
1.000000000000000E+20
 30
1.000000000000000E+20
  9
$PEXTMAX
 10
-1.000000000000000E+20
 20
-1.000000000000000E+20
 30
-1.000000000000000E+20
  9
$PLIMMIN
 10
0.0
 20
0.0
  9
$PLIMMAX
 10
12.0
 20
9.0
  9
$UNITMODE
 70
     0
  9
$VISRETAIN
 70
     1
  9
$PLINEGEN
 70
     0
  9
$PSLTSCALE
 70
     1
  9
$TREEDEPTH
 70
  3020
  9
$CMLSTYLE
  2
Standard
  9
$CMLJUST
 70
     0
  9
$CMLSCALE
 40
1.0
  9
$PROXYGRAPHICS
 70
     1
  9
$MEASUREMENT
 70
     0
  9
$CELWEIGHT
370
    -1
  9
$ENDCAPS
280
     0
  9
$JOINSTYLE
280
     0
  9
$LWDISPLAY
290
     0
  9
$INSUNITS
 70
     1
  9
$HYPERLINKBASE
  1

  9
$STYLESHEET
  1

  9
$XEDIT
290
     1
  9
$CEPSNTYPE
380
     0
  9
$PSTYLEMODE
290
     1
  9
$FINGERPRINTGUID
  2
{B89CA5AE-ACB7-491A-9756-5BADF8CC47CF}
  9
$VERSIONGUID
  2
{016E66C8-56A8-4919-A0F3-6A2E1710D803}
  9
$EXTNAMES
290
     1
  9
$PSVPSCALE
 40
0.0
  9
$OLESTARTUP
290
     0
  0
ENDSEC
  0
SECTION
  2
CLASSES
  0
CLASS
  1
ACDBDICTIONARYWDFLT
  2
AcDbDictionaryWithDefault
  3
ObjectDBX Classes
 90
        0
280
     0
281
     0
  0
CLASS
  1
MATERIAL
  2
AcDbMaterial
  3
ObjectDBX Classes
 90
     1153
280
     0
281
     0
  0
CLASS
  1
VISUALSTYLE
  2
AcDbVisualStyle
  3
ObjectDBX Classes
 90
     4095
280
     0
281
     0
  0
CLASS
  1
SCALE
  2
AcDbScale
  3
ObjectDBX Classes
 90
     1153
280
     0
281
     0
  0
CLASS
  1
TABLESTYLE
  2
AcDbTableStyle
  3
ObjectDBX Classes
 90
     4095
280
     0
281
     0
  0
CLASS
  1
MLEADERSTYLE
  2
AcDbMLeaderStyle
  3
ACDB_MLEADERSTYLE_CLASS
 90
     4095
280
     0
281
     0
  0
CLASS
  1
RASTERVARIABLES
  2
AcDbRasterVariables
  3
ISM
 90
        0
280
     0
281
     0
  0
CLASS
  1
DICTIONARYVAR
  2
AcDbDictionaryVar
  3
ObjectDBX Classes
 90
        0
280
     0
281
     0
  0
CLASS
  1
SORTENTSTABLE
  2
AcDbSortentsTable
  3
ObjectDBX Classes
 90
        0
280
     0
281
     0
  0
CLASS
  1
SUN
  2
AcDbSun
  3
SCENEOE
 90
     1153
280
     0
281
     0
  0
CLASS
  1
CELLSTYLEMAP
  2
AcDbCellStyleMap
  3
ObjectDBX Classes
 90
     1152
280
     0
281
     0
  0
CLASS
  1
ACDBPLACEHOLDER
  2
AcDbPlaceHolder
  3
ObjectDBX Classes
 90
        0
280
     0
281
     0
  0
CLASS
  1
LAYOUT
  2
AcDbLayout
  3
ObjectDBX Classes
 90
        0
280
     0
281
     0
  0
CLASS
  1
EXACXREFPANELOBJECT
  2
ExAcXREFPanelObject
  3
EXAC_ESW
 90
     1025
280
     0
281
     0
  0
CLASS
  1
NPOCOLLECTION
  2
AcDbImpNonPersistentObjectsCollection
  3
ObjectDBX Classes
 90
     1153
280
     0
281
     0
  0
ENDSEC
  0
SECTION
  2
TABLES
  0
TABLE
  2
VPORT
  5
8
102
{ACAD_XDICTIONARY
360
13D6
102
}
330
0
100
AcDbSymbolTable
 70
     1
  0
VPORT
  5
57
330
8
100
AcDbSymbolTableRecord
100
AcDbViewportTableRecord
  2
*Active
 70
     0
 10
0.0
 20
0.0
 11
1.0
 21
1.0
 12
-227.5531006347886
 22
-11.69607352572423
 13
0.0
 23
0.0
 14
1.0
 24
1.0
 15
0.0
 25
0.0
 16
0.0
 26
0.0
 36
1.0
 17
0.0
 27
0.0
 37
0.0
 40
0.2527178294354968
 41
2.349009900990099
 42
50.0
 43
0.0
 44
0.0
 50
0.0
 51
0.0
 71
     0
 72
  1000
 73
     1
 74
     1
 75
     0
 76
     0
 77
     0
 78
     0
281
     0
 65
     1
110
0.0
120
0.0
130
0.0
111
1.0
121
0.0
131
0.0
112
0.0
122
1.0
132
0.0
 79
     0
146
0.0
1001
ACAD_NAV_VCDISPLAY
1070
     3
  0
ENDTAB
  0
TABLE
  2
LTYPE
  5
5
330
0
100
AcDbSymbolTable
 70
     2
  0
LTYPE
  5
5B
330
5
100
AcDbSymbolTableRecord
100
AcDbLinetypeTableRecord
  2
ByBlock
 70
     0
  3

 72
    65
 73
     0
 40
0.0
  0
LTYPE
  5
5C
330
5
100
AcDbSymbolTableRecord
100
AcDbLinetypeTableRecord
  2
ByLayer
 70
     0
  3

 72
    65
 73
     0
 40
0.0
  0
LTYPE
  5
5D
330
5
100
AcDbSymbolTableRecord
100
AcDbLinetypeTableRecord
  2
Continuous
 70
     0
  3
Solid line
 72
    65
 73
     0
 40
0.0
  0
ENDTAB
  0
TABLE
  2
LAYER
  5
2
102
{ACAD_XDICTIONARY
360
516
102
}
330
0
100
AcDbSymbolTable
 70
     3
  0
LAYER
  5
54
330
2
100
AcDbSymbolTableRecord
100
AcDbLayerTableRecord
  2
0
 70
     0
 62
     7
  6
Continuous
370
    -3
390
F
  0
LAYER
  5
50F
330
2
100
AcDbSymbolTableRecord
100
AcDbLayerTableRecord
  2
A-ANNO-TEXT
 70
     0
 62
     2
  6
Continuous
370
     9
390
F
  0
LAYER
  5
510
330
2
100
AcDbSymbolTableRecord
100
AcDbLayerTableRecord
  2
Layer1
 70
     0
 62
     7
  6
Continuous
370
    -3
390
F
1001
AcAecLayerStandard
1000

1000

1001
AcCmTransparency
1071
        0
  0
ENDTAB
  0
TABLE
  2
STYLE
  5
3
330
0
100
AcDbSymbolTable
 70
     1
  0
STYLE
  5
55
330
3
100
AcDbSymbolTableRecord
100
AcDbTextStyleTableRecord
  2
Standard
 70
     0
 40
0.0
 41
1.0
 50
0.0
 71
     0
 42
0.2
  3
txt
  4

  0
ENDTAB
  0
TABLE
  2
VIEW
  5
6
330
0
100
AcDbSymbolTable
 70
     1
  0
ENDTAB
  0
TABLE
  2
UCS
  5
7
330
0
100
AcDbSymbolTable
 70
     0
  0
ENDTAB
  0
TABLE
  2
APPID
  5
9
330
0
100
AcDbSymbolTable
 70
    11
  0
APPID
  5
56
330
9
100
AcDbSymbolTableRecord
100
AcDbRegAppTableRecord
  2
ACAD
 70
     0
  0
APPID
  5
5E
330
9
100
AcDbSymbolTableRecord
100
AcDbRegAppTableRecord
  2
AcadAnnotative
 70
     0
  0
APPID
  5
74
330
9
100
AcDbSymbolTableRecord
100
AcDbRegAppTableRecord
  2
REVIT
 70
     0
  0
APPID
  5
511
330
9
100
AcDbSymbolTableRecord
100
AcDbRegAppTableRecord
  2
ACAD_NAV_VCDISPLAY
 70
     0
  0
APPID
  5
512
330
9
100
AcDbSymbolTableRecord
100
AcDbRegAppTableRecord
  2
AcAecLayerStandard
 70
     0
  0
APPID
  5
513
330
9
100
AcDbSymbolTableRecord
100
AcDbRegAppTableRecord
  2
AcCmTransparency
 70
     0
  0
APPID
  5
514
330
9
100
AcDbSymbolTableRecord
100
AcDbRegAppTableRecord
  2
GradientColor1ACI
 70
     0
  0
APPID
  5
515
330
9
100
AcDbSymbolTableRecord
100
AcDbRegAppTableRecord
  2
GradientColor2ACI
 70
     0
  0
APPID
  5
C64
330
9
100
AcDbSymbolTableRecord
100
AcDbRegAppTableRecord
  2
ACAD_EXEMPT_FROM_CAD_STANDARDS
 70
     0
  0
APPID
  5
F3E
330
9
100
AcDbSymbolTableRecord
100
AcDbRegAppTableRecord
  2
ACAD_PSEXT
 70
     0
  0
APPID
  5
140C
330
9
100
AcDbSymbolTableRecord
100
AcDbRegAppTableRecord
  2
ACAD_MLEADERVER
 70
     0
  0
ENDTAB
  0
TABLE
  2
DIMSTYLE
  5
A
330
0
100
AcDbSymbolTable
 70
     2
100
AcDbDimStyleTable
 71
     1
340
58
  0
DIMSTYLE
105
58
330
A
100
AcDbSymbolTableRecord
100
AcDbDimStyleTableRecord
  2
Standard
 70
     0
340
55
  0
ENDTAB
  0
TABLE
  2
BLOCK_RECORD
  5
1
330
0
100
AcDbSymbolTable
 70
     2
  0
BLOCK_RECORD
  5
6C
102
{ACAD_XDICTIONARY
360
502
102
}
330
1
100
AcDbSymbolTableRecord
100
AcDbBlockTableRecord
  2
*Model_Space
340
6F
  0
BLOCK_RECORD
  5
68
330
1
100
AcDbSymbolTableRecord
100
AcDbBlockTableRecord
  2
*Paper_Space
340
6B
  0
BLOCK_RECORD
  5
70
330
1
100
AcDbSymbolTableRecord
100
AcDbBlockTableRecord
  2
*Paper_Space0
340
73
  0
ENDTAB
  0
ENDSEC
  0
SECTION
  2
BLOCKS
  0
BLOCK
  5
6D
330
6C
100
AcDbEntity
  8
0
100
AcDbBlockBegin
  2
*Model_Space
 70
     0
 10
0.0
 20
0.0
 30
0.0
  3
*Model_Space
  1

  0
ENDBLK
  5
6E
330
6C
100
AcDbEntity
  8
0
100
AcDbBlockEnd
  0
BLOCK
  5
69
330
68
100
AcDbEntity
 67
     1
  8
0
100
AcDbBlockBegin
  2
*Paper_Space
 70
     0
 10
0.0
 20
0.0
 30
0.0
  3
*Paper_Space
  1

  0
ENDBLK
  5
6A
330
68
100
AcDbEntity
 67
     1
  8
0
100
AcDbBlockEnd
  0
BLOCK
  5
71
330
70
100
AcDbEntity
 67
     1
  8
0
100
AcDbBlockBegin
  2
*Paper_Space0
 70
     0
 10
0.0
 20
0.0
 30
0.0
  3
*Paper_Space0
  1

  0
ENDBLK
  5
72
330
70
100
AcDbEntity
 67
     1
  8
0
100
AcDbBlockEnd
  0
ENDSEC
  0
SECTION
  2
ENTITIES
  0
LINE
  5
174
330
6C
100
AcDbEntity
  8
0
 62
     0
370
     0
100
AcDbLine
 10
-227.4596916178386
 20
-11.59311671110882
 30
0.0
 11
-227.6514211925729
 21
-11.62810903466559
 31
0.0
1001
REVIT
1002
{
1070
     1
1000
251059
1002
}
1002
{
1070
     5
1000
251057
1002
}
1002
{
1070
     2
1000
-2001320
1002
}
  0
LINE
  5
175
330
6C
100
AcDbEntity
  8
0
 62
     0
370
     0
100
AcDbLine
 10
-227.6514211925729
 20
-11.62810903466559
 30
0.0
 11
-227.6514211925729
 21
-11.66161306898658
 31
0.0
1001
REVIT
1002
{
1070
     1
1000
251059
1002
}
1002
{
1070
     5
1000
251057
1002
}
1002
{
1070
     2
1000
-2001320
1002
}
  0
LINE
  5
176
330
6C
100
AcDbEntity
  8
0
 62
     0
370
     0
100
AcDbLine
 10
-227.6514211925729
 20
-11.66161306898658
 30
0.0
 11
-227.6605155677039
 21
-11.6682388522123
 31
0.0
1001
REVIT
1002
{
1070
     1
1000
251059
1002
}
1002
{
1070
     5
1000
251057
1002
}
1002
{
1070
     2
1000
-2001320
1002
}
  0
LINE
  5
177
330
6C
100
AcDbEntity
  8
0
 62
     0
370
     0
100
AcDbLine
 10
-227.6605155677039
 20
-11.6682388522123
 30
0.0
 11
-227.6428771966989
 21
-11.6731329599501
 31
0.0
1001
REVIT
1002
{
1070
     1
1000
251059
1002
}
1002
{
1070
     5
1000
251057
1002
}
1002
{
1070
     2
1000
-2001320
1002
}
  0
LINE
  5
178
330
6C
100
AcDbEntity
  8
0
 62
     0
370
     0
100
AcDbLine
 10
-227.6428771966989
 20
-11.6731329599501
 30
0.0
 11
-227.6514211925729
 21
-11.67928366622202
 31
0.0
1001
REVIT
1002
{
1070
     1
1000
251059
1002
}
1002
{
1070
     5
1000
251057
1002
}
1002
{
1070
     2
1000
-2001320
1002
}
  0
LINE
  5
179
330
6C
100
AcDbEntity
  8
0
 62
     0
370
     0
100
AcDbLine
 10
-227.6514211925729
 20
-11.67928366622202
 30
0.0
 11
-227.6514211925729
 21
-11.71115401142813
 31
0.0
1001
REVIT
1002
{
1070
     1
1000
251059
1002
}
1002
{
1070
     5
1000
251057
1002
}
1002
{
1070
     2
1000
-2001320
1002
}
  0
LINE
  5
17A
330
6C
100
AcDbEntity
  8
0
 62
     0
370
     0
100
AcDbLine
 10
-227.6514211925729
 20
-11.71115401142813
 30
0.0
 11
-227.6346056836839
 21
-11.70877035092632
 31
0.0
1001
REVIT
1002
{
1070
     1
1000
251059
1002
}
1002
{
1070
     5
1000
251057
1002
}
1002
{
1070
     2
1000
-2001320
1002
}
  0
LINE
  5
17B
330
6C
100
AcDbEntity
  8
0
 62
     0
370
     0
100
AcDbLine
 10
-227.4822602205123
 20
-11.68717481875484
 30
0.0
 11
-227.4596916178386
 21
-11.68397563595699
 31
0.0
1001
REVIT
1002
{
1070
     1
1000
251059
1002
}
1002
{
1070
     5
1000
251057
1002
}
1002
{
1070
     2
1000
-2001320
1002
}
  0
LINE
  5
17C
330
6C
100
AcDbEntity
  8
0
 62
     0
370
     0
100
AcDbLine
 10
-227.4596916178386
 20
-11.68397563595699
 30
0.0
 11
-227.4596916178386
 21
-11.64910651547729
 31
0.0
1001
REVIT
1002
{
1070
     1
1000
251059
1002
}
1002
{
1070
     5
1000
251057
1002
}
1002
{
1070
     2
1000
-2001320
1002
}
  0
LINE
  5
17D
330
6C
100
AcDbEntity
  8
0
 62
     0
370
     0
100
AcDbLine
 10
-227.4596916178386
 20
-11.64910651547729
 30
0.0
 11
-227.4698300955792
 21
-11.64548988851463
 31
0.0
1001
REVIT
1002
{
1070
     1
1000
251059
1002
}
1002
{
1070
     5
1000
251057
1002
}
1002
{
1070
     2
1000
-2001320
1002
}
  0
LINE
  5
17E
330
6C
100
AcDbEntity
  8
0
 62
     0
370
     0
100
AcDbLine
 10
-227.4698300955792
 20
-11.64548988851463
 30
0.0
 11
-227.4487025862315
 21
-11.6335979814593
 31
0.0
1001
REVIT
1002
{
1070
     1
1000
251059
1002
}
1002
{
1070
     5
1000
251057
1002
}
1002
{
1070
     2
1000
-2001320
1002
}
  0
LINE
  5
17F
330
6C
100
AcDbEntity
  8
0
 62
     0
370
     0
100
AcDbLine
 10
-227.4487025862315
 20
-11.6335979814593
 30
0.0
 11
-227.4596916178386
 21
-11.62977323935598
 31
0.0
1001
REVIT
1002
{
1070
     1
1000
251059
1002
}
1002
{
1070
     5
1000
251057
1002
}
1002
{
1070
     2
1000
-2001320
1002
}
  0
LINE
  5
180
330
6C
100
AcDbEntity
  8
0
 62
     0
370
     0
100
AcDbLine
 10
-227.4596916178386
 20
-11.62977323935598
 30
0.0
 11
-227.4596916178386
 21
-11.59311671110882
 31
0.0
1001
REVIT
1002
{
1070
     1
1000
251059
1002
}
1002
{
1070
     5
1000
251057
1002
}
1002
{
1070
     2
1000
-2001320
1002
}
  0
LINE
  5
181
330
6C
100
AcDbEntity
  8
0
 62
     0
370
     0
100
AcDbLine
 10
-227.436002926711
 20
-11.60953588183465
 30
0.0
 11
-227.436002926711
 21
-11.64167585725305
 31
0.0
1001
REVIT
1002
{
1070
     1
1000
251059
1002
}
1002
{
1070
     5
1000
251057
1002
}
1002
{
1070
     2
1000
-2001320
1002
}
  0
LINE
  5
182
330
6C
100
AcDbEntity
  8
0
 62
     0
370
     0
100
AcDbLine
 10
-227.42534740709
 20
-11.64845351643965
 30
0.0
 11
-227.4437948464115
 21
-11.65860872350505
 31
0.0
1001
REVIT
1002
{
1070
     1
1000
251059
1002
}
1002
{
1070
     5
1000
251057
1002
}
1002
{
1070
     2
1000
-2001320
1002
}
  0
LINE
  5
183
330
6C
100
AcDbEntity
  8
0
 62
     0
370
     0
100
AcDbLine
 10
-227.436002926711
 20
-11.66326630081686
 30
0.0
 11
-227.436002926711
 21
-11.69672832973531
 31
0.0
1001
REVIT
1002
{
1070
     1
1000
251059
1002
}
1002
{
1070
     5
1000
251057
1002
}
1002
{
1070
     2
1000
-2001320
1002
}
  0
LINE
  5
184
330
6C
100
AcDbEntity
  8
0
 62
     0
370
     0
100
AcDbLine
 10
-227.436002926711
 20
-11.69672832973531
 30
0.0
 11
-227.4574304912261
 21
-11.69961254827137
 31
0.0
1001
REVIT
1002
{
1070
     1
1000
251059
1002
}
1002
{
1070
     5
1000
251057
1002
}
1002
{
1070
     2
1000
-2001320
1002
}
  0
LINE
  5
185
330
6C
100
AcDbEntity
  8
0
 62
     0
370
     0
100
AcDbLine
 10
-227.6071325353025
 20
-11.71976292094242
 30
0.0
 11
-227.6225981447014
 21
-11.72184464130161
 31
0.0
1001
REVIT
1002
{
1070
     1
1000
251059
1002
}
1002
{
1070
     5
1000
251057
1002
}
1002
{
1070
     2
1000
-2001320
1002
}
  0
LINE
  5
186
330
6C
100
AcDbEntity
  8
0
 62
     0
370
     0
100
AcDbLine
 10
-227.436002926711
 20
-11.60953588183465
 30
0.0
 11
-227.4596916178386
 21
-11.59311671110882
 31
0.0
1001
REVIT
1002
{
1070
     1
1000
251059
1002
}
1002
{
1070
     5
1000
251057
1002
}
1002
{
1070
     2
1000
-2001320
1002
}
  0
LINE
  5
187
330
6C
100
AcDbEntity
  8
0
 62
     0
370
     0
100
AcDbLine
 10
-227.4487025862315
 20
-11.6335979814593
 30
0.0
 11
-227.42534740709
 21
-11.64845351643965
 31
0.0
1001
REVIT
1002
{
1070
     1
1000
251059
1002
}
1002
{
1070
     5
1000
251057
1002
}
1002
{
1070
     2
1000
-2001320
1002
}
  0
LINE
  5
188
330
6C
100
AcDbEntity
  8
0
 62
     0
370
     0
100
AcDbLine
 10
-227.4596916178386
 20
-11.64910651547729
 30
0.0
 11
-227.436002926711
 21
-11.66326630081686
 31
0.0
1001
REVIT
1002
{
1070
     1
1000
251059
1002
}
1002
{
1070
     5
1000
251057
1002
}
1002
{
1070
     2
1000
-2001320
1002
}
  0
LINE
  5
189
330
6C
100
AcDbEntity
  8
0
 62
     0
370
     0
100
AcDbLine
 10
-227.4596916178386
 20
-11.68397563595699
 30
0.0
 11
-227.436002926711
 21
-11.69672832973531
 31
0.0
1001
REVIT
1002
{
1070
     1
1000
251059
1002
}
1002
{
1070
     5
1000
251057
1002
}
1002
{
1070
     2
1000
-2001320
1002
}
  0
LINE
  5
18A
330
6C
100
AcDbEntity
  8
0
 62
     0
370
     0
100
AcDbLine
 10
-227.6514211925729
 20
-11.71115401142813
 30
0.0
 11
-227.6225981447014
 21
-11.72184464130161
 31
0.0
1001
REVIT
1002
{
1070
     1
1000
251059
1002
}
1002
{
1070
     5
1000
251057
1002
}
1002
{
1070
     2
1000
-2001320
1002
}
  0
LINE
  5
18B
330
6C
100
AcDbEntity
  8
0
 62
     0
370
     0
100
AcDbLine
 10
-227.6605155677039
 20
-11.6682388522123
 30
0.0
 11
-227.6450974998969
 21
-11.67473132598477
 31
0.0
1001
REVIT
1002
{
1070
     1
1000
251059
1002
}
1002
{
1070
     5
1000
251057
1002
}
1002
{
1070
     2
1000
-2001320
1002
}
  0
LINE
  5
18C
330
6C
100
AcDbEntity
  8
0
 62
     0
370
     0
100
AcDbLine
 10
-227.4887141409571
 20
-11.64462211860405
 30
0.0
 11
-227.4881575093534
 21
-11.6449396577105
 31
0.0
1001
REVIT
1002
{
1070
     1
1000
251060
1002
}
1002
{
1070
     5
1000
248263
1002
}
1002
{
1070
     2
1000
-2000151
1002
}
1002
{
1070
     3
1000
247327
1002
}
  0
LINE
  5
18D
330
6C
100
AcDbEntity
  8
0
 62
     0
370
     0
100
AcDbLine
 10
-227.4900933436136
 20
-11.64839319820589
 30
0.0
 11
-227.4905519960233
 21
-11.64813221022219
 31
0.0
1001
REVIT
1002
{
1070
     1
1000
251060
1002
}
1002
{
1070
     5
1000
248263
1002
}
1002
{
1070
     2
1000
-2000151
1002
}
1002
{
1070
     3
1000
247327
1002
}
  0
LINE
  5
18E
330
6C
100
AcDbEntity
  8
0
 62
     0
370
     0
100
AcDbLine
 10
-227.519396010717
 20
-11.67377337481195
 30
0.0
 11
-227.5189223469967
 21
-11.67401210163157
 31
0.0
1001
REVIT
1002
{
1070
     1
1000
251060
1002
}
1002
{
1070
     5
1000
248263
1002
}
1002
{
1070
     2
1000
-2000151
1002
}
1002
{
1070
     3
1000
247327
1002
}
  0
LINE
  5
18F
330
6C
100
AcDbEntity
  8
0
 62
     0
370
     0
100
AcDbLine
 10
-227.5207084359433
 20
-11.67744646094539
 30
0.0
 11
-227.5211830675349
 21
-11.67721041616494
 31
0.0
1001
REVIT
1002
{
1070
     1
1000
251060
1002
}
1002
{
1070
     5
1000
248263
1002
}
1002
{
1070
     2
1000
-2000151
1002
}
1002
{
1070
     3
1000
247327
1002
}
  0
LINE
  5
190
330
6C
100
AcDbEntity
  8
0
 62
     0
370
     0
100
AcDbLine
 10
-227.5405464282096
 20
-11.6529936291656
 30
0.0
 11
-227.5400620368646
 21
-11.65324510467995
 31
0.0
1001
REVIT
1002
{
1070
     1
1000
251060
1002
}
1002
{
1070
     5
1000
248263
1002
}
1002
{
1070
     2
1000
-2000151
1002
}
1002
{
1070
     3
1000
247327
1002
}
  0
LINE
  5
191
330
6C
100
AcDbEntity
  8
0
 62
     0
370
     0
100
AcDbLine
 10
-227.5418135097925
 20
-11.6566629815527
 30
0.0
 11
-227.5422988375641
 21
-11.65641415267684
 31
0.0
1001
REVIT
1002
{
1070
     1
1000
251060
1002
}
1002
{
1070
     5
1000
248263
1002
}
1002
{
1070
     2
1000
-2000151
1002
}
1002
{
1070
     3
1000
247327
1002
}
  0
LINE
  5
192
330
6C
100
AcDbEntity
  8
0
 62
     0
370
     0
100
AcDbLine
 10
-227.5824701007
 20
-11.65976461660601
 30
0.0
 11
-227.5819653035675
 21
-11.66000640104148
 31
0.0
1001
REVIT
1002
{
1070
     1
1000
251060
1002
}
1002
{
1070
     5
1000
248263
1002
}
1002
{
1070
     2
1000
-2000151
1002
}
1002
{
1070
     3
1000
247327
1002
}
  0
LINE
  5
193
330
6C
100
AcDbEntity
  8
0
 62
     0
370
     0
100
AcDbLine
 10
-227.5836491487749
 20
-11.6633522808361
 30
0.0
 11
-227.5841547413025
 21
-11.66311307037994
 31
0.0
1001
REVIT
1002
{
1070
     1
1000
251060
1002
}
1002
{
1070
     5
1000
248263
1002
}
1002
{
1070
     2
1000
-2000151
1002
}
1002
{
1070
     3
1000
247327
1002
}
  0
LINE
  5
194
330
6C
100
AcDbEntity
  8
0
 62
     0
370
     0
100
AcDbLine
 10
-227.6024111535558
 20
-11.68625518660809
 30
0.0
 11
-227.6018970532633
 21
-11.68647604472744
 31
0.0
1001
REVIT
1002
{
1070
     1
1000
251060
1002
}
1002
{
1070
     5
1000
248263
1002
}
1002
{
1070
     2
1000
-2000151
1002
}
1002
{
1070
     3
1000
247327
1002
}
  0
LINE
  5
195
330
6C
100
AcDbEntity
  8
0
 62
     0
370
     0
100
AcDbLine
 10
-227.6032218445442
 20
-11.68992597685798
 30
0.0
 11
-227.6037366415055
 21
-11.6897076537885
 31
0.0
1001
REVIT
1002
{
1070
     1
1000
251060
1002
}
1002
{
1070
     5
1000
248263
1002
}
1002
{
1070
     2
1000
-2000151
1002
}
1002
{
1070
     3
1000
247327
1002
}
  0
LINE
  5
196
330
6C
100
AcDbEntity
  8
0
 62
     0
370
     0
100
AcDbLine
 10
-227.6302477300704
 20
-11.66735542072886
 30
0.0
 11
-227.6295007155892
 21
-11.66767670482816
 31
0.0
1001
REVIT
1002
{
1070
     1
1000
251060
1002
}
1002
{
1070
     5
1000
248263
1002
}
1002
{
1070
     2
1000
-2000151
1002
}
1002
{
1070
     3
1000
247327
1002
}
  0
LINE
  5
197
330
6C
100
AcDbEntity
  8
0
 62
     0
370
     0
100
AcDbLine
 10
-227.6309584161714
 20
-11.67102767196287
 30
0.0
 11
-227.6314855752523
 21
-11.67079913984839
 31
0.0
1001
REVIT
1002
{
1070
     1
1000
251060
1002
}
1002
{
1070
     5
1000
248263
1002
}
1002
{
1070
     2
1000
-2000151
1002
}
1002
{
1070
     3
1000
247327
1002
}
  0
LINE
  5
2CD
330
6C
100
AcDbEntity
  8
0
 62
     0
370
     0
100
AcDbLine
 10
-227.5113101135044
 20
-11.75753004913753
 30
0.0
 11
-227.5104567195769
 21
-11.75743504463898
 31
0.0
1001
REVIT
1002
{
1070
     1
1000
251060
1002
}
1002
{
1070
     5
1000
248263
1002
}
1002
{
1070
     2
1000
-2000151
1002
}
1002
{
1070
     3
1000
247327
1002
}
  0
LINE
  5
2CE
330
6C
100
AcDbEntity
  8
0
 62
     0
370
     0
100
AcDbLine
 10
-227.5100286531741
 20
-11.76107285117914
 30
0.0
 11
-227.5108816403134
 21
-11.76116636754722
 31
0.0
1001
REVIT
1002
{
1070
     1
1000
251060
1002
}
1002
{
1070
     5
1000
248263
1002
}
1002
{
1070
     2
1000
-2000151
1002
}
1002
{
1070
     3
1000
247327
1002
}
  0
LINE
  5
2CF
330
6C
100
AcDbEntity
  8
0
 62
     0
370
     0
100
AcDbLine
 10
-227.5113101135044
 20
-11.72479043066968
 30
0.0
 11
-227.5104566931517
 21
-11.72468259530066
 31
0.0
1001
REVIT
1002
{
1070
     1
1000
251060
1002
}
1002
{
1070
     5
1000
248263
1002
}
1002
{
1070
     2
1000
-2000151
1002
}
1002
{
1070
     3
1000
247327
1002
}
  0
LINE
  5
2D0
330
6C
100
AcDbEntity
  8
0
 62
     0
370
     0
100
AcDbLine
 10
-227.5100249732302
 20
-11.728342914961
 30
0.0
 11
-227.5108779358673
 21
-11.72844923977983
 31
0.0
1001
REVIT
1002
{
1070
     1
1000
251060
1002
}
1002
{
1070
     5
1000
248263
1002
}
1002
{
1070
     2
1000
-2000151
1002
}
1002
{
1070
     3
1000
247327
1002
}
  0
LINE
  5
2D1
330
6C
100
AcDbEntity
  8
0
 62
     0
370
     0
100
AcDbLine
 10
-227.53092347924
 20
-11.75323900603524
 30
0.0
 11
-227.5317959575419
 21
-11.75333875159326
 31
0.0
1001
REVIT
1002
{
1070
     1
1000
251060
1002
}
1002
{
1070
     5
1000
248263
1002
}
1002
{
1070
     2
1000
-2000151
1002
}
1002
{
1070
     3
1000
247327
1002
}
  0
LINE
  5
2D2
330
6C
100
AcDbEntity
  8
0
 62
     0
370
     0
100
AcDbLine
 10
-227.5322569396109
 20
-11.7495773453545
 30
0.0
 11
-227.5313840192601
 21
-11.7494760064385
 31
0.0
1001
REVIT
1002
{
1070
     1
1000
251060
1002
}
1002
{
1070
     5
1000
248263
1002
}
1002
{
1070
     2
1000
-2000151
1002
}
1002
{
1070
     3
1000
247327
1002
}
  0
LINE
  5
2D3
330
6C
100
AcDbEntity
  8
0
 62
     0
370
     0
100
AcDbLine
 10
-227.5309235055309
 20
-11.71943554052431
 30
0.0
 11
-227.5317959575419
 21
-11.71954894735204
 31
0.0
1001
REVIT
1002
{
1070
     1
1000
251060
1002
}
1002
{
1070
     5
1000
248263
1002
}
1002
{
1070
     2
1000
-2000151
1002
}
1002
{
1070
     3
1000
247327
1002
}
  0
LINE
  5
2D4
330
6C
100
AcDbEntity
  8
0
 62
     0
370
     0
100
AcDbLine
 10
-227.5322569396109
 20
-11.71576390934054
 30
0.0
 11
-227.5313839906634
 21
-11.71564888359746
 31
0.0
1001
REVIT
1002
{
1070
     1
1000
251060
1002
}
1002
{
1070
     5
1000
248263
1002
}
1002
{
1070
     2
1000
-2000151
1002
}
1002
{
1070
     3
1000
247327
1002
}
  0
LINE
  5
39B
330
6C
100
AcDbEntity
  8
0
 62
     0
370
     0
100
AcDbLine
 10
-227.5324635066353
 20
-11.69726573224194
 30
0.0
 11
-227.5118106562143
 21
-11.70674180876318
 31
0.0
1001
REVIT
1002
{
1070
     1
1000
251060
1002
}
1002
{
1070
     5
1000
248263
1002
}
1002
{
1070
     2
1000
-2000151
1002
}
  0
LINE
  5
39C
330
6C
100
AcDbEntity
  8
0
 62
     0
370
     0
100
AcDbLine
 10
-227.458413378637
 20
-11.70131448017095
 30
0.0
 11
-227.5103888684185
 21
-11.70839494741154
 31
0.0
1001
REVIT
1002
{
1070
     1
1000
251060
1002
}
1002
{
1070
     5
1000
248263
1002
}
1002
{
1070
     2
1000
-2000151
1002
}
  0
LINE
  5
39D
330
6C
100
AcDbEntity
  8
0
 62
     0
370
     0
100
AcDbLine
 10
-227.5867559729962
 20
-11.71861622648734
 30
0.0
 11
-227.6057277970887
 21
-11.7211554913933
 31
0.0
1001
REVIT
1002
{
1070
     1
1000
251060
1002
}
1002
{
1070
     5
1000
248263
1002
}
1002
{
1070
     2
1000
-2000151
1002
}
  0
LINE
  5
39E
330
6C
100
AcDbEntity
  8
0
 62
     0
370
     0
100
AcDbLine
 10
-227.5364261727306
 20
-11.75664589333653
 30
0.0
 11
-227.5346778149665
 21
-11.75644824447044
 31
0.0
1001
REVIT
1002
{
1070
     1
1000
251060
1002
}
1002
{
1070
     5
1000
248263
1002
}
1002
{
1070
     2
1000
-2000151
1002
}
  0
LINE
  5
39F
330
6C
100
AcDbEntity
  8
0
 62
     0
370
     0
100
AcDbLine
 10
-227.5346778149665
 20
-11.75644824447044
 30
0.0
 11
-227.5346778149665
 21
-11.70354557710659
 31
0.0
1001
REVIT
1002
{
1070
     1
1000
251060
1002
}
1002
{
1070
     5
1000
248263
1002
}
1002
{
1070
     2
1000
-2000151
1002
}
  0
LINE
  5
3A0
330
6C
100
AcDbEntity
  8
0
 62
     0
370
     0
100
AcDbLine
 10
-227.5346778149665
 20
-11.70354557710659
 30
0.0
 11
-227.5364261727307
 21
-11.70378615792444
 31
0.0
1001
REVIT
1002
{
1070
     1
1000
251060
1002
}
1002
{
1070
     5
1000
248263
1002
}
1002
{
1070
     2
1000
-2000151
1002
}
  0
LINE
  5
3A1
330
6C
100
AcDbEntity
  8
0
 62
     0
370
     0
100
AcDbLine
 10
-227.5364261727307
 20
-11.70378615792444
 30
0.0
 11
-227.5364261727306
 21
-11.75664589333653
 31
0.0
1001
REVIT
1002
{
1070
     1
1000
251060
1002
}
1002
{
1070
     5
1000
248263
1002
}
1002
{
1070
     2
1000
-2000151
1002
}
  0
LINE
  5
3A2
330
6C
100
AcDbEntity
  8
0
 62
     0
370
     0
100
AcDbLine
 10
-227.5867559729962
 20
-11.76233559149576
 30
0.0
 11
-227.5850884455218
 21
-11.76214708035619
 31
0.0
1001
REVIT
1002
{
1070
     1
1000
251060
1002
}
1002
{
1070
     5
1000
248263
1002
}
1002
{
1070
     2
1000
-2000151
1002
}
  0
LINE
  5
3A3
330
6C
100
AcDbEntity
  8
0
 62
     0
370
     0
100
AcDbLine
 10
-227.5850884455218
 20
-11.76214708035619
 30
0.0
 11
-227.5850884455215
 21
-11.71048227563295
 31
0.0
1001
REVIT
1002
{
1070
     1
1000
251060
1002
}
1002
{
1070
     5
1000
248263
1002
}
1002
{
1070
     2
1000
-2000151
1002
}
  0
LINE
  5
3A4
330
6C
100
AcDbEntity
  8
0
 62
     0
370
     0
100
AcDbLine
 10
-227.5850884455215
 20
-11.71048227563295
 30
0.0
 11
-227.5867559729962
 21
-11.71071173388904
 31
0.0
1001
REVIT
1002
{
1070
     1
1000
251060
1002
}
1002
{
1070
     5
1000
248263
1002
}
1002
{
1070
     2
1000
-2000151
1002
}
  0
LINE
  5
3A5
330
6C
100
AcDbEntity
  8
0
 62
     0
370
     0
100
AcDbLine
 10
-227.5867559729962
 20
-11.71071173388904
 30
0.0
 11
-227.5867559729962
 21
-11.76233559149576
 31
0.0
1001
REVIT
1002
{
1070
     1
1000
251060
1002
}
1002
{
1070
     5
1000
248263
1002
}
1002
{
1070
     2
1000
-2000151
1002
}
  0
LINE
  5
3A6
330
6C
100
AcDbEntity
  8
0
 62
     0
370
     0
100
AcDbLine
 10
-227.5086276998786
 20
-11.76603193594868
 30
0.0
 11
-227.5103276230608
 21
-11.7662143418271
 31
0.0
1001
REVIT
1002
{
1070
     1
1000
251060
1002
}
1002
{
1070
     5
1000
248263
1002
}
1002
{
1070
     2
1000
-2000151
1002
}
  0
LINE
  5
3A7
330
6C
100
AcDbEntity
  8
0
 62
     0
370
     0
100
AcDbLine
 10
-227.5086276998788
 20
-11.71521097331855
 30
0.0
 11
-227.5086276998786
 21
-11.76603193594868
 31
0.0
1001
REVIT
1002
{
1070
     1
1000
251060
1002
}
1002
{
1070
     5
1000
248263
1002
}
1002
{
1070
     2
1000
-2000151
1002
}
  0
LINE
  5
3A8
330
6C
100
AcDbEntity
  8
0
 62
     0
370
     0
100
AcDbLine
 10
-227.5850884455218
 20
-11.76214708035619
 30
0.0
 11
-227.5844620477518
 21
-11.76235621159776
 31
0.0
1001
REVIT
1002
{
1070
     1
1000
251060
1002
}
1002
{
1070
     5
1000
248263
1002
}
1002
{
1070
     2
1000
-2000151
1002
}
  0
LINE
  5
3A9
330
6C
100
AcDbEntity
  8
0
 62
     0
370
     0
100
AcDbLine
 10
-227.5844626748702
 20
-11.71065950135722
 30
0.0
 11
-227.5848161352835
 21
-11.71059293784638
 31
0.0
1001
REVIT
1002
{
1070
     1
1000
251060
1002
}
1002
{
1070
     5
1000
248263
1002
}
1002
{
1070
     2
1000
-2000151
1002
}
  0
LINE
  5
3AA
330
6C
100
AcDbEntity
  8
0
 62
     0
370
     0
100
AcDbLine
 10
-227.5848161352835
 20
-11.71059293784638
 30
0.0
 11
-227.5850884455215
 21
-11.71048227563295
 31
0.0
1001
REVIT
1002
{
1070
     1
1000
251060
1002
}
1002
{
1070
     5
1000
248263
1002
}
1002
{
1070
     2
1000
-2000151
1002
}
  0
LINE
  5
3B2
330
6C
100
AcDbEntity
  8
0
 62
     0
370
     0
100
AcDbLine
 10
-227.5347226493431
 20
-11.70134423885219
 30
0.0
 11
-227.5347226493431
 21
-11.6995724447116
 31
0.0
1001
REVIT
1002
{
1070
     1
1000
251060
1002
}
1002
{
1070
     5
1000
248263
1002
}
1002
{
1070
     2
1000
-2000151
1002
}
  0
LINE
  5
3C3
330
6C
100
AcDbEntity
  8
0
 62
     0
370
     0
100
AcDbLine
 10
-227.5103276230608
 20
-11.7662143418271
 30
0.0
 11
-227.5364261727306
 21
-11.75664589333653
 31
0.0
1001
REVIT
1002
{
1070
     1
1000
251060
1002
}
1002
{
1070
     5
1000
248263
1002
}
1002
{
1070
     2
1000
-2000151
1002
}
  0
LINE
  5
3C4
330
6C
100
AcDbEntity
  8
0
 62
     0
370
     0
100
AcDbLine
 10
-227.5086276998786
 20
-11.76603193594868
 30
0.0
 11
-227.5346778149665
 21
-11.75644824447044
 31
0.0
1001
REVIT
1002
{
1070
     1
1000
251060
1002
}
1002
{
1070
     5
1000
248263
1002
}
1002
{
1070
     2
1000
-2000151
1002
}
  0
LINE
  5
3D0
330
6C
100
AcDbEntity
  8
0
 62
     0
370
     0
100
AcDbLine
 10
-227.5102048666078
 20
-11.7114104973628
 30
0.0
 11
-227.5102048666078
 21
-11.70969842193574
 31
0.0
1001
REVIT
1002
{
1070
     1
1000
251060
1002
}
1002
{
1070
     5
1000
248263
1002
}
1002
{
1070
     2
1000
-2000151
1002
}
  0
LINE
  5
3D1
330
6C
100
AcDbEntity
  8
0
 62
     0
370
     0
100
AcDbLine
 10
-227.5329774022804
 20
-11.6993290683054
 30
0.0
 11
-227.5329774022804
 21
-11.70110229777669
 31
0.0
1001
REVIT
1002
{
1070
     1
1000
251060
1002
}
1002
{
1070
     5
1000
248263
1002
}
1002
{
1070
     2
1000
-2000151
1002
}
  0
LINE
  5
405
330
6C
100
AcDbEntity
  8
0
 62
     0
370
     0
100
AcDbLine
 10
-227.5849660217174
 20
-11.70830940487829
 30
0.0
 11
-227.5849660217174
 21
-11.70657893202443
 31
0.0
1001
REVIT
1002
{
1070
     1
1000
251060
1002
}
1002
{
1070
     5
1000
248263
1002
}
1002
{
1070
     2
1000
-2000151
1002
}
  0
LINE
  5
406
330
6C
100
AcDbEntity
  8
0
 62
     0
370
     0
100
AcDbLine
 10
-227.5844851823811
 20
-11.76309135537173
 30
0.0
 11
-227.5867559729962
 21
-11.76233559149576
 31
0.0
1001
REVIT
1002
{
1070
     1
1000
251060
1002
}
1002
{
1070
     5
1000
248263
1002
}
1002
{
1070
     2
1000
-2000151
1002
}
  0
LINE
  5
414
330
6C
100
AcDbEntity
  8
0
 62
     0
370
     0
100
AcDbLine
 10
-227.4589860125701
 20
-11.69935924529966
 30
0.0
 11
-227.4596349924554
 21
-11.69902647717246
 31
0.0
1001
REVIT
1002
{
1070
     1
1000
251060
1002
}
1002
{
1070
     5
1000
248263
1002
}
1002
{
1070
     2
1000
-2000151
1002
}
  0
LINE
  5
415
330
6C
100
AcDbEntity
  8
0
 62
     0
370
     0
100
AcDbLine
 10
-227.4596349924554
 20
-11.69902647717246
 30
0.0
 11
-227.4596349924557
 21
-11.70099362438044
 31
0.0
1001
REVIT
1002
{
1070
     1
1000
251060
1002
}
1002
{
1070
     5
1000
248263
1002
}
1002
{
1070
     2
1000
-2000151
1002
}
  0
LINE
  5
422
330
6C
100
AcDbEntity
  8
0
 62
     0
370
     0
100
AcDbLine
 10
-227.4827102470067
 20
-11.68515002883179
 30
0.0
 11
-227.4827102470067
 21
-11.62977087111234
 31
0.0
1001
REVIT
1002
{
1070
     1
1000
251060
1002
}
1002
{
1070
     5
1000
248263
1002
}
1002
{
1070
     2
1000
-2000151
1002
}
  0
LINE
  5
423
330
6C
100
AcDbEntity
  8
0
 62
     0
370
     0
100
AcDbLine
 10
-227.4827102470067
 20
-11.62977087111234
 30
0.0
 11
-227.4836186743231
 21
-11.62921984746329
 31
0.0
1001
REVIT
1002
{
1070
     1
1000
251060
1002
}
1002
{
1070
     5
1000
248263
1002
}
1002
{
1070
     2
1000
-2000151
1002
}
  0
LINE
  5
424
330
6C
100
AcDbEntity
  8
0
 62
     0
370
     0
100
AcDbLine
 10
-227.4836186743231
 20
-11.62921984746329
 30
0.0
 11
-227.4836151965761
 21
-11.68493604273777
 31
0.0
1001
REVIT
1002
{
1070
     1
1000
251060
1002
}
1002
{
1070
     5
1000
248263
1002
}
1002
{
1070
     2
1000
-2000151
1002
}
  0
LINE
  5
42E
330
6C
100
AcDbEntity
  8
0
 62
     0
370
     0
100
AcDbLine
 10
-227.4818045171413
 20
-11.68970037222334
 30
0.0
 11
-227.4811056176686
 21
-11.69005639464999
 31
0.0
1001
REVIT
1002
{
1070
     1
1000
251060
1002
}
1002
{
1070
     5
1000
248263
1002
}
1002
{
1070
     2
1000
-2000151
1002
}
  0
LINE
  5
42F
330
6C
100
AcDbEntity
  8
0
 62
     0
370
     0
100
AcDbLine
 10
-227.4811056176686
 20
-11.69005639464999
 30
0.0
 11
-227.4811056176686
 21
-11.68801729198317
 31
0.0
1001
REVIT
1002
{
1070
     1
1000
251060
1002
}
1002
{
1070
     5
1000
248263
1002
}
1002
{
1070
     2
1000
-2000151
1002
}
  0
LINE
  5
430
330
6C
100
AcDbEntity
  8
0
 62
     0
370
     0
100
AcDbLine
 10
-227.4811056176686
 20
-11.68801729198317
 30
0.0
 11
-227.4818045171413
 21
-11.68765892730372
 31
0.0
1001
REVIT
1002
{
1070
     1
1000
251060
1002
}
1002
{
1070
     5
1000
248263
1002
}
1002
{
1070
     2
1000
-2000151
1002
}
  0
LINE
  5
437
330
6C
100
AcDbEntity
  8
0
 62
     0
370
     0
100
AcDbLine
 10
-227.6070975902333
 20
-11.72077083859418
 30
0.0
 11
-227.6070975902333
 21
-11.7189338046376
 31
0.0
1001
REVIT
1002
{
1070
     1
1000
251060
1002
}
1002
{
1070
     5
1000
248263
1002
}
1002
{
1070
     2
1000
-2000151
1002
}
  0
LINE
  5
441
330
6C
100
AcDbEntity
  8
0
 62
     0
370
     0
100
AcDbLine
 10
-227.6350421249606
 20
-11.70656827080628
 30
0.0
 11
-227.6350461667141
 21
-11.6546776732803
 31
0.0
1001
REVIT
1002
{
1070
     1
1000
251060
1002
}
1002
{
1070
     5
1000
248263
1002
}
1002
{
1070
     2
1000
-2000151
1002
}
  0
LINE
  5
442
330
6C
100
AcDbEntity
  8
0
 62
     0
370
     0
100
AcDbLine
 10
-227.6321247289099
 20
-11.71125562572599
 30
0.0
 11
-227.6329373678522
 21
-11.71094666381793
 31
0.0
1001
REVIT
1002
{
1070
     1
1000
251060
1002
}
1002
{
1070
     5
1000
248263
1002
}
1002
{
1070
     2
1000
-2000151
1002
}
  0
LINE
  5
443
330
6C
100
AcDbEntity
  8
0
 62
     0
370
     0
100
AcDbLine
 10
-227.6070975902333
 20
-11.7189338046376
 30
0.0
 11
-227.5867559729963
 21
-11.71618770331011
 31
0.0
1001
REVIT
1002
{
1070
     1
1000
251060
1002
}
1002
{
1070
     5
1000
248263
1002
}
1002
{
1070
     2
1000
-2000151
1002
}
  0
LINE
  5
444
330
6C
100
AcDbEntity
  8
0
 62
     0
370
     0
100
AcDbLine
 10
-227.512941729773
 20
-11.70622284216172
 30
0.0
 11
-227.4596349924554
 21
-11.69902647717246
 31
0.0
1001
REVIT
1002
{
1070
     1
1000
251060
1002
}
1002
{
1070
     5
1000
248263
1002
}
1002
{
1070
     2
1000
-2000151
1002
}
  0
LINE
  5
445
330
6C
100
AcDbEntity
  8
0
 62
     0
370
     0
100
AcDbLine
 10
-227.6321247289099
 20
-11.71125562572599
 30
0.0
 11
-227.58452020869
 21
-11.70457316536643
 31
0.0
1001
REVIT
1002
{
1070
     1
1000
251060
1002
}
1002
{
1070
     5
1000
248263
1002
}
1002
{
1070
     2
1000
-2000151
1002
}
  0
LINE
  5
446
330
6C
100
AcDbEntity
  8
0
 62
     0
370
     0
100
AcDbLine
 10
-227.5867559729962
 20
-11.7180426856414
 30
0.0
 11
-227.6070975902333
 21
-11.72077083859418
 31
0.0
1001
REVIT
1002
{
1070
     1
1000
251060
1002
}
1002
{
1070
     5
1000
248263
1002
}
1002
{
1070
     2
1000
-2000151
1002
}
  0
LINE
  5
447
330
6C
100
AcDbEntity
  8
0
 62
     0
370
     0
100
AcDbLine
 10
-227.4596349924557
 20
-11.70099362438044
 30
0.0
 11
-227.510661419298
 21
-11.70783712632218
 31
0.0
1001
REVIT
1002
{
1070
     1
1000
251060
1002
}
1002
{
1070
     5
1000
248263
1002
}
1002
{
1070
     2
1000
-2000151
1002
}
  0
LINE
  5
448
330
6C
100
AcDbEntity
  8
0
 62
     0
370
     0
100
AcDbLine
 10
-227.5351585197356
 20
-11.6976440433378
 30
0.0
 11
-227.5334453170866
 21
-11.69740355338563
 31
0.0
1001
REVIT
1002
{
1070
     1
1000
251060
1002
}
1002
{
1070
     5
1000
248263
1002
}
1002
{
1070
     2
1000
-2000151
1002
}
  0
LINE
  5
449
330
6C
100
AcDbEntity
  8
0
 62
     0
370
     0
100
AcDbLine
 10
-227.5334453170866
 20
-11.69740355338563
 30
0.0
 11
-227.4811056176686
 21
-11.69005639464999
 31
0.0
1001
REVIT
1002
{
1070
     1
1000
251060
1002
}
1002
{
1070
     5
1000
248263
1002
}
1002
{
1070
     2
1000
-2000151
1002
}
  0
LINE
  5
4A0
330
6C
100
AcDbEntity
  8
0
 62
     0
370
     0
100
AcDbLine
 10
-227.6350461667141
 20
-11.6546776732803
 30
0.0
 11
-227.4836186743231
 21
-11.62921984746329
 31
0.0
1001
REVIT
1002
{
1070
     1
1000
251060
1002
}
1002
{
1070
     5
1000
248263
1002
}
1002
{
1070
     2
1000
-2000151
1002
}
  0
LINE
  5
4A1
330
6C
100
AcDbEntity
  8
0
 62
     0
370
     0
100
AcDbLine
 10
-227.6318674790121
 20
-11.70854681303376
 30
0.0
 11
-227.5844562416433
 21
-11.70177383869746
 31
0.0
1001
REVIT
1002
{
1070
     1
1000
251060
1002
}
1002
{
1070
     5
1000
248263
1002
}
1002
{
1070
     2
1000
-2000151
1002
}
  0
LINE
  5
4EB
330
6C
100
AcDbEntity
  8
0
 62
     0
370
     0
100
AcDbLine
 10
-227.5107521897835
 20
-11.76601996164085
 30
0.0
 11
-227.5107521897835
 21
-11.81607336304186
 31
0.0
1001
REVIT
1002
{
1070
     1
1000
251093
1002
}
1002
{
1070
     5
1000
251091
1002
}
1002
{
1070
     2
1000
-2000151
1002
}
  0
LINE
  5
4EC
330
6C
100
AcDbEntity
  8
0
 62
     0
370
     0
100
AcDbLine
 10
-227.5107521897835
 20
-11.81607336304186
 30
0.0
 11
-227.5323966000967
 21
-11.81790090221348
 31
0.0
1001
REVIT
1002
{
1070
     1
1000
251093
1002
}
1002
{
1070
     5
1000
251091
1002
}
1002
{
1070
     2
1000
-2000151
1002
}
  0
LINE
  5
4ED
330
6C
100
AcDbEntity
  8
0
 62
     0
370
     0
100
AcDbLine
 10
-227.5323966000967
 20
-11.81790090221348
 30
0.0
 11
-227.5348472927725
 21
-11.82150219076308
 31
0.0
1001
REVIT
1002
{
1070
     1
1000
251093
1002
}
1002
{
1070
     5
1000
251091
1002
}
1002
{
1070
     2
1000
-2000151
1002
}
  0
LINE
  5
4EE
330
6C
100
AcDbEntity
  8
0
 62
     0
370
     0
100
AcDbLine
 10
-227.5429682084464
 20
-11.81879351273446
 30
0.0
 11
-227.5572789467855
 21
-11.82000183555364
 31
0.0
1001
REVIT
1002
{
1070
     1
1000
251093
1002
}
1002
{
1070
     5
1000
251091
1002
}
1002
{
1070
     2
1000
-2000151
1002
}
  0
LINE
  5
4EF
330
6C
100
AcDbEntity
  8
0
 62
     0
370
     0
100
AcDbLine
 10
-227.5844562416433
 20
-11.81285642929208
 30
0.0
 11
-227.5660219416727
 21
-11.81121724939465
 31
0.0
1001
REVIT
1002
{
1070
     1
1000
251093
1002
}
1002
{
1070
     5
1000
251091
1002
}
1002
{
1070
     2
1000
-2000151
1002
}
  0
LINE
  5
4F0
330
6C
100
AcDbEntity
  8
0
 62
     0
370
     0
100
AcDbLine
 10
-227.5660219416727
 20
-11.81121724939465
 30
0.0
 11
-227.5636045997448
 21
-11.80760109809557
 31
0.0
1001
REVIT
1002
{
1070
     1
1000
251093
1002
}
1002
{
1070
     5
1000
251091
1002
}
1002
{
1070
     2
1000
-2000151
1002
}
  0
LINE
  5
4F1
330
6C
100
AcDbEntity
  8
0
 62
     0
370
     0
100
AcDbLine
 10
-227.5636045997448
 20
-11.80760109809557
 30
0.0
 11
-227.5614218163275
 21
-11.81433879205156
 31
0.0
1001
REVIT
1002
{
1070
     1
1000
251093
1002
}
1002
{
1070
     5
1000
251091
1002
}
1002
{
1070
     2
1000
-2000151
1002
}
  0
LINE
  5
4F2
330
6C
100
AcDbEntity
  8
0
 62
     0
370
     0
100
AcDbLine
 10
-227.5614218163275
 20
-11.81433879205156
 30
0.0
 11
-227.5589041033948
 21
-11.81058433046432
 31
0.0
1001
REVIT
1002
{
1070
     1
1000
251093
1002
}
1002
{
1070
     5
1000
251091
1002
}
1002
{
1070
     2
1000
-2000151
1002
}
  0
LINE
  5
4F3
330
6C
100
AcDbEntity
  8
0
 62
     0
370
     0
100
AcDbLine
 10
-227.5589041033948
 20
-11.81058433046432
 30
0.0
 11
-227.5366577873731
 21
-11.80860618569758
 31
0.0
1001
REVIT
1002
{
1070
     1
1000
251093
1002
}
1002
{
1070
     5
1000
251091
1002
}
1002
{
1070
     2
1000
-2000151
1002
}
  0
LINE
  5
4F4
330
6C
100
AcDbEntity
  8
0
 62
     0
370
     0
100
AcDbLine
 10
-227.5366577873731
 20
-11.80860618569758
 30
0.0
 11
-227.5366577873731
 21
-11.6969597940212
 31
0.0
1001
REVIT
1002
{
1070
     1
1000
251093
1002
}
1002
{
1070
     5
1000
251091
1002
}
1002
{
1070
     2
1000
-2000151
1002
}
  0
LINE
  5
4F5
330
6C
100
AcDbEntity
  8
0
 62
     0
370
     0
100
AcDbLine
 10
-227.5366577873731
 20
-11.6969597940212
 30
0.0
 11
-227.5844562416433
 21
-11.70368934637916
 31
0.0
1001
REVIT
1002
{
1070
     1
1000
251093
1002
}
1002
{
1070
     5
1000
251091
1002
}
1002
{
1070
     2
1000
-2000151
1002
}
  0
LINE
  5
4F6
330
6C
100
AcDbEntity
  8
0
 62
     0
370
     0
100
AcDbLine
 10
-227.5844562416433
 20
-11.70368934637916
 30
0.0
 11
-227.5844562416433
 21
-11.81285642929208
 31
0.0
1001
REVIT
1002
{
1070
     1
1000
251093
1002
}
1002
{
1070
     5
1000
251091
1002
}
1002
{
1070
     2
1000
-2000151
1002
}
  0
LINE
  5
4F7
330
6C
100
AcDbEntity
  8
0
 62
     0
370
     0
100
AcDbLine
 10
-227.5844562416433
 20
-11.81285642929208
 30
0.0
 11
-227.5572789467855
 21
-11.82000183555364
 31
0.0
1001
REVIT
1002
{
1070
     1
1000
251093
1002
}
1002
{
1070
     5
1000
251091
1002
}
1002
{
1070
     2
1000
-2000151
1002
}
  0
LINE
  5
4F8
330
6C
100
AcDbEntity
  8
0
 62
     0
370
     0
100
AcDbLine
 10
-227.56201885075
 20
-11.81230718109106
 30
0.0
 11
-227.5660219416727
 21
-11.81121724939465
 31
0.0
1001
REVIT
1002
{
1070
     1
1000
251093
1002
}
1002
{
1070
     5
1000
251091
1002
}
1002
{
1070
     2
1000
-2000151
1002
}
  0
LINE
  5
4F9
330
6C
100
AcDbEntity
  8
0
 62
     0
370
     0
100
AcDbLine
 10
-227.5348472927725
 20
-11.82150219076308
 30
0.0
 11
-227.5614218163275
 21
-11.81433879205156
 31
0.0
1001
REVIT
1002
{
1070
     1
1000
251093
1002
}
1002
{
1070
     5
1000
251091
1002
}
1002
{
1070
     2
1000
-2000151
1002
}
  0
LINE
  5
4FA
330
6C
100
AcDbEntity
  8
0
 62
     0
370
     0
100
AcDbLine
 10
-227.5323966000967
 20
-11.81790090221348
 30
0.0
 11
-227.5589041033948
 21
-11.81058433046432
 31
0.0
1001
REVIT
1002
{
1070
     1
1000
251093
1002
}
1002
{
1070
     5
1000
251091
1002
}
1002
{
1070
     2
1000
-2000151
1002
}
  0
LINE
  5
4FB
330
6C
100
AcDbEntity
  8
0
 62
     0
370
     0
100
AcDbLine
 10
-227.5107521897835
 20
-11.81607336304186
 30
0.0
 11
-227.5366577873731
 21
-11.80860618569758
 31
0.0
1001
REVIT
1002
{
1070
     1
1000
251093
1002
}
1002
{
1070
     5
1000
251091
1002
}
1002
{
1070
     2
1000
-2000151
1002
}
  0
LINE
  5
4FC
330
6C
100
AcDbEntity
  8
0
 62
     0
370
     0
100
AcDbLine
 10
-227.5351585197356
 20
-11.6976440433378
 30
0.0
 11
-227.5366577873731
 21
-11.6969597940212
 31
0.0
1001
REVIT
1002
{
1070
     1
1000
251093
1002
}
1002
{
1070
     5
1000
251091
1002
}
1002
{
1070
     2
1000
-2000151
1002
}
  0
LINE
  5
9E2
330
6C
100
AcDbEntity
  8
0
 62
     0
370
     0
100
AcDbLine
 10
-227.5333013587983
 20
-11.81158226176522
 30
0.0
 11
-227.5439495930735
 21
-11.8103199129363
 31
0.0
1001
REVIT
1002
{
1070
     2
1000
-2000151
1002
}
  0
LINE
  5
9E3
330
6C
100
AcDbEntity
  8
0
 62
     0
370
     0
100
AcDbLine
 10
-227.5153697614968
 20
-11.81474236780949
 30
0.0
 11
-227.5177360687507
 21
-11.81446339945039
 31
0.0
1001
REVIT
1002
{
1070
     2
1000
-2000151
1002
}
  0
LINE
  5
9E4
330
6C
100
AcDbEntity
  8
0
 62
     0
370
     0
100
AcDbLine
 10
-227.5335324510158
 20
-11.81567137508323
 30
0.0
 11
-227.5439495932678
 21
-11.81446339928386
 31
0.0
1001
REVIT
1002
{
1070
     2
1000
-2000151
1002
}
  0
LINE
  5
9E5
330
6C
100
AcDbEntity
  8
0
 62
     0
370
     0
100
AcDbLine
 10
-227.5359146780044
 20
-11.80882038378438
 30
0.0
 11
-227.5375746249377
 21
-11.80868771099053
 31
0.0
1001
REVIT
1002
{
1070
     2
1000
-2000151
1002
}
  0
LINE
  5
9E6
330
6C
100
AcDbEntity
  8
0
 62
     0
370
     0
100
AcDbLine
 10
-227.5439506727507
 20
-11.81032002621137
 30
0.0
 11
-227.5502938332114
 21
-11.80981870433157
 31
0.0
1001
REVIT
1002
{
1070
     2
1000
-2000151
1002
}
  0
LINE
  5
9E7
330
6C
100
AcDbEntity
  8
0
 62
     0
370
     0
100
AcDbLine
 10
-227.5177371603933
 20
-11.81446351302108
 30
0.0
 11
-227.5439506752306
 21
-11.81241464651181
 31
0.0
1001
REVIT
1002
{
1070
     2
1000
-2000151
1002
}
  0
LINE
  5
9E8
330
6C
100
AcDbEntity
  8
0
 62
     0
370
     0
100
AcDbLine
 10
-227.516666701139
 20
-11.81657275300105
 30
0.0
 11
-227.5180203813524
 21
-11.81646810404612
 31
0.0
1001
REVIT
1002
{
1070
     2
1000
-2000151
1002
}
  0
LINE
  5
9E9
330
6C
100
AcDbEntity
  8
0
 62
     0
370
     0
100
AcDbLine
 10
-227.5439506776565
 20
-11.81446351065542
 30
0.0
 11
-227.545199962939
 21
-11.81436693215931
 31
0.0
1001
REVIT
1002
{
1070
     2
1000
-2000151
1002
}
  0
LINE
  5
9EA
330
6C
100
AcDbEntity
  8
0
 62
     0
370
     0
100
AcDbLine
 10
-227.5289831895716
 20
-11.8176126919387
 30
0.0
 11
-227.5351490311628
 21
-11.81714117923419
 31
0.0
1001
REVIT
1002
{
1070
     2
1000
-2000151
1002
}
  0
LINE
  5
9EB
330
6C
100
AcDbEntity
  8
0
 62
     0
370
     0
100
AcDbLine
 10
-227.5247811539134
 20
-11.81202957432969
 30
0.0
 11
-227.5333015169898
 21
-11.81158231182778
 31
0.0
1001
REVIT
1002
{
1070
     2
1000
-2000151
1002
}
  0
LINE
  5
9EC
330
6C
100
AcDbEntity
  8
0
 62
     0
370
     0
100
AcDbLine
 10
-227.5439497379181
 20
-11.81241458646403
 30
0.0
 11
-227.5542101597395
 21
-11.81187994760168
 31
0.0
1001
REVIT
1002
{
1070
     2
1000
-2000151
1002
}
  0
LINE
  5
9ED
330
6C
100
AcDbEntity
  8
0
 62
     0
370
     0
100
AcDbLine
 10
-227.5180194282898
 20
-11.81646803886113
 30
0.0
 11
-227.5335326092158
 21
-11.81567142422512
 31
0.0
1001
REVIT
1002
{
1070
     2
1000
-2000151
1002
}
  0
LINE
  5
9EE
330
6C
100
AcDbEntity
  8
0
 62
     0
370
     0
100
AcDbLine
 10
-227.5487493687225
 20
-11.81338751434632
 30
0.0
 11
-227.5501186708383
 21
-11.81526081943573
 31
0.0
1001
REVIT
1002
{
1070
     2
1000
-2000151
1002
}
  0
LINE
  5
9EF
330
6C
100
AcDbEntity
  8
0
 62
     0
370
     0
100
AcDbLine
 10
-227.5425582049618
 20
-11.81509638990941
 30
0.0
 11
-227.5456118722569
 21
-11.81860078949108
 31
0.0
1001
REVIT
1002
{
1070
     2
1000
-2000151
1002
}
  0
LINE
  5
9F0
330
6C
100
AcDbEntity
  8
0
 62
     0
370
     0
100
AcDbLine
 10
-227.5501179277791
 20
-11.81526052208003
 30
0.0
 11
-227.5516169671248
 21
-11.81698206542376
 31
0.0
1001
REVIT
1002
{
1070
     2
1000
-2000151
1002
}
  0
LINE
  5
9F1
330
6C
100
AcDbEntity
  8
0
 62
     0
370
     0
100
AcDbLine
 10
-227.5373498517826
 20
-11.81653399159721
 30
0.0
 11
-227.5407233474464
 21
-11.81991853266391
 31
0.0
1001
REVIT
1002
{
1070
     2
1000
-2000151
1002
}
  0
LINE
  5
9F2
330
6C
100
AcDbEntity
  8
0
 62
     0
370
     0
100
AcDbLine
 10
-227.5551384804429
 20
-11.81162400148975
 30
0.0
 11
-227.5586062561045
 21
-11.81509804351672
 31
0.0
1001
REVIT
1002
{
1070
     2
1000
-2000151
1002
}
  0
LINE
  5
9F3
330
6C
100
AcDbEntity
  8
0
 62
     0
370
     0
100
AcDbLine
 10
-227.5614809348601
 20
-11.81377037008205
 30
0.0
 11
-227.5708115591647
 21
-11.81269611651432
 31
0.0
1001
REVIT
1002
{
1070
     2
1000
-2000151
1002
}
  0
LINE
  5
9F4
330
6C
100
AcDbEntity
  8
0
 62
     0
370
     0
100
AcDbLine
 10
-227.5596110182915
 20
-11.81799261576164
 30
0.0
 11
-227.5689016960981
 21
-11.81694600287603
 31
0.0
1001
REVIT
1002
{
1070
     2
1000
-2000151
1002
}
  0
LINE
  5
9F5
330
6C
100
AcDbEntity
  8
0
 62
     0
370
     0
100
AcDbLine
 10
-227.5708126346379
 20
-11.81269622635842
 30
0.0
 11
-227.5771521307777
 21
-11.81220694698361
 31
0.0
1001
REVIT
1002
{
1070
     2
1000
-2000151
1002
}
  0
LINE
  5
9F6
330
6C
100
AcDbEntity
  8
0
 62
     0
370
     0
100
AcDbLine
 10
-227.5528718330205
 20
-11.81611622564882
 30
0.0
 11
-227.5705153127497
 21
-11.81476941734472
 31
0.0
1001
REVIT
1002
{
1070
     2
1000
-2000151
1002
}
  0
LINE
  5
9F7
330
6C
100
AcDbEntity
  8
0
 62
     0
370
     0
100
AcDbLine
 10
-227.5433544186396
 20
-11.81882612227413
 30
0.0
 11
-227.5439506825954
 21
-11.81878109957509
 31
0.0
1001
REVIT
1002
{
1070
     2
1000
-2000151
1002
}
  0
LINE
  5
9F8
330
6C
100
AcDbEntity
  8
0
 62
     0
370
     0
100
AcDbLine
 10
-227.5555510292929
 20
-11.8198559393681
 30
0.0
 11
-227.5587398505956
 21
-11.81961773730964
 31
0.0
1001
REVIT
1002
{
1070
     2
1000
-2000151
1002
}
  0
LINE
  5
9F9
330
6C
100
AcDbEntity
  8
0
 62
     0
370
     0
100
AcDbLine
 10
-227.5705143831658
 20
-11.81476936411164
 30
0.0
 11
-227.5787876779831
 21
-11.81434679801657
 31
0.0
1001
REVIT
1002
{
1070
     2
1000
-2000151
1002
}
  0
LINE
  5
9FA
330
6C
100
AcDbEntity
  8
0
 62
     0
370
     0
100
AcDbLine
 10
-227.5439497388199
 20
-11.81878104099838
 30
0.0
 11
-227.5596111805446
 21
-11.8179926682324
 31
0.0
1001
REVIT
1002
{
1070
     2
1000
-2000151
1002
}
  0
LINE
  5
A08
330
6C
100
AcDbEntity
  8
0
 62
     0
370
     0
100
AcDbLine
 10
-227.5049987868961
 20
-11.65124061652262
 30
0.0
 11
-227.5052429965808
 21
-11.64972110916719
 31
0.0
1001
REVIT
1002
{
1070
     1
1000
251060
1002
}
1002
{
1070
     5
1000
248263
1002
}
1002
{
1070
     2
1000
-2000151
1002
}
  0
LINE
  5
A09
330
6C
100
AcDbEntity
  8
0
 62
     0
370
     0
100
AcDbLine
 10
-227.5052429965808
 20
-11.64972110916719
 30
0.0
 11
-227.5059454313965
 21
-11.64846392807672
 31
0.0
1001
REVIT
1002
{
1070
     1
1000
251060
1002
}
1002
{
1070
     5
1000
248263
1002
}
1002
{
1070
     2
1000
-2000151
1002
}
  0
LINE
  5
A0A
330
6C
100
AcDbEntity
  8
0
 62
     0
370
     0
100
AcDbLine
 10
-227.5059454313965
 20
-11.64846392807672
 30
0.0
 11
-227.5070218635418
 21
-11.6476199133993
 31
0.0
1001
REVIT
1002
{
1070
     1
1000
251060
1002
}
1002
{
1070
     5
1000
248263
1002
}
1002
{
1070
     2
1000
-2000151
1002
}
  0
LINE
  5
A0B
330
6C
100
AcDbEntity
  8
0
 62
     0
370
     0
100
AcDbLine
 10
-227.5070218635418
 20
-11.6476199133993
 30
0.0
 11
-227.5083406609603
 21
-11.6472920132457
 31
0.0
1001
REVIT
1002
{
1070
     1
1000
251060
1002
}
1002
{
1070
     5
1000
248263
1002
}
1002
{
1070
     2
1000
-2000151
1002
}
  0
LINE
  5
A0C
330
6C
100
AcDbEntity
  8
0
 62
     0
370
     0
100
AcDbLine
 10
-227.5083406609603
 20
-11.6472920132457
 30
0.0
 11
-227.5097416526725
 21
-11.64751840791546
 31
0.0
1001
REVIT
1002
{
1070
     1
1000
251060
1002
}
1002
{
1070
     5
1000
248263
1002
}
1002
{
1070
     2
1000
-2000151
1002
}
  0
LINE
  5
A0D
330
6C
100
AcDbEntity
  8
0
 62
     0
370
     0
100
AcDbLine
 10
-227.5097416526725
 20
-11.64751840791546
 30
0.0
 11
-227.5110577970895
 21
-11.64827148243332
 31
0.0
1001
REVIT
1002
{
1070
     1
1000
251060
1002
}
1002
{
1070
     5
1000
248263
1002
}
1002
{
1070
     2
1000
-2000151
1002
}
  0
LINE
  5
A0E
330
6C
100
AcDbEntity
  8
0
 62
     0
370
     0
100
AcDbLine
 10
-227.5110577970895
 20
-11.64827148243332
 30
0.0
 11
-227.5121282008142
 21
-11.64945794118646
 31
0.0
1001
REVIT
1002
{
1070
     1
1000
251060
1002
}
1002
{
1070
     5
1000
248263
1002
}
1002
{
1070
     2
1000
-2000151
1002
}
  0
LINE
  5
A0F
330
6C
100
AcDbEntity
  8
0
 62
     0
370
     0
100
AcDbLine
 10
-227.5121282008142
 20
-11.64945794118646
 30
0.0
 11
-227.5128271074196
 21
-11.6509373035015
 31
0.0
1001
REVIT
1002
{
1070
     1
1000
251060
1002
}
1002
{
1070
     5
1000
248263
1002
}
1002
{
1070
     2
1000
-2000151
1002
}
  0
LINE
  5
A10
330
6C
100
AcDbEntity
  8
0
 62
     0
370
     0
100
AcDbLine
 10
-227.5128271074196
 20
-11.6509373035015
 30
0.0
 11
-227.5130694538328
 21
-11.65252935883184
 31
0.0
1001
REVIT
1002
{
1070
     1
1000
251060
1002
}
1002
{
1070
     5
1000
248263
1002
}
1002
{
1070
     2
1000
-2000151
1002
}
  0
LINE
  5
A11
330
6C
100
AcDbEntity
  8
0
 62
     0
370
     0
100
AcDbLine
 10
-227.5130694538328
 20
-11.65252935883184
 30
0.0
 11
-227.5128269042329
 21
-11.65404398437955
 31
0.0
1001
REVIT
1002
{
1070
     1
1000
251060
1002
}
1002
{
1070
     5
1000
248263
1002
}
1002
{
1070
     2
1000
-2000151
1002
}
  0
LINE
  5
A12
330
6C
100
AcDbEntity
  8
0
 62
     0
370
     0
100
AcDbLine
 10
-227.5128269042329
 20
-11.65404398437955
 30
0.0
 11
-227.5121278191346
 21
-11.65530011097405
 31
0.0
1001
REVIT
1002
{
1070
     1
1000
251060
1002
}
1002
{
1070
     5
1000
248263
1002
}
1002
{
1070
     2
1000
-2000151
1002
}
  0
LINE
  5
A13
330
6C
100
AcDbEntity
  8
0
 62
     0
370
     0
100
AcDbLine
 10
-227.5121278191346
 20
-11.65530011097405
 30
0.0
 11
-227.5110572835793
 21
-11.65614469828861
 31
0.0
1001
REVIT
1002
{
1070
     1
1000
251060
1002
}
1002
{
1070
     5
1000
248263
1002
}
1002
{
1070
     2
1000
-2000151
1002
}
  0
LINE
  5
A14
330
6C
100
AcDbEntity
  8
0
 62
     0
370
     0
100
AcDbLine
 10
-227.5110572835793
 20
-11.65614469828861
 30
0.0
 11
-227.5097410695479
 21
-11.65647743093542
 31
0.0
1001
REVIT
1002
{
1070
     1
1000
251060
1002
}
1002
{
1070
     5
1000
248263
1002
}
1002
{
1070
     2
1000
-2000151
1002
}
  0
LINE
  5
A15
330
6C
100
AcDbEntity
  8
0
 62
     0
370
     0
100
AcDbLine
 10
-227.5097410695479
 20
-11.65647743093542
 30
0.0
 11
-227.5083400787696
 21
-11.65625639871303
 31
0.0
1001
REVIT
1002
{
1070
     1
1000
251060
1002
}
1002
{
1070
     5
1000
248263
1002
}
1002
{
1070
     2
1000
-2000151
1002
}
  0
LINE
  5
A16
330
6C
100
AcDbEntity
  8
0
 62
     0
370
     0
100
AcDbLine
 10
-227.5083400787696
 20
-11.65625639871303
 30
0.0
 11
-227.5070213523572
 21
-11.65550733372918
 31
0.0
1001
REVIT
1002
{
1070
     1
1000
251060
1002
}
1002
{
1070
     5
1000
248263
1002
}
1002
{
1070
     2
1000
-2000151
1002
}
  0
LINE
  5
A17
330
6C
100
AcDbEntity
  8
0
 62
     0
370
     0
100
AcDbLine
 10
-227.5070213523572
 20
-11.65550733372918
 30
0.0
 11
-227.5059450525361
 21
-11.65431956737986
 31
0.0
1001
REVIT
1002
{
1070
     1
1000
251060
1002
}
1002
{
1070
     5
1000
248263
1002
}
1002
{
1070
     2
1000
-2000151
1002
}
  0
LINE
  5
A18
330
6C
100
AcDbEntity
  8
0
 62
     0
370
     0
100
AcDbLine
 10
-227.5059450525361
 20
-11.65431956737986
 30
0.0
 11
-227.5052427951357
 21
-11.65283808312167
 31
0.0
1001
REVIT
1002
{
1070
     1
1000
251060
1002
}
1002
{
1070
     5
1000
248263
1002
}
1002
{
1070
     2
1000
-2000151
1002
}
  0
LINE
  5
A19
330
6C
100
AcDbEntity
  8
0
 62
     0
370
     0
100
AcDbLine
 10
-227.5052427951357
 20
-11.65283808312167
 30
0.0
 11
-227.5049987868961
 21
-11.65124061652262
 31
0.0
1001
REVIT
1002
{
1070
     1
1000
251060
1002
}
1002
{
1070
     5
1000
248263
1002
}
1002
{
1070
     2
1000
-2000151
1002
}
  0
LINE
  5
A1A
330
6C
100
AcDbEntity
  8
0
 62
     0
370
     0
100
AcDbLine
 10
-227.6088220587424
 20
-11.66781935086515
 30
0.0
 11
-227.6090436240927
 21
-11.66637030523298
 31
0.0
1001
REVIT
1002
{
1070
     1
1000
251060
1002
}
1002
{
1070
     5
1000
248263
1002
}
1002
{
1070
     2
1000
-2000151
1002
}
  0
LINE
  5
A1B
330
6C
100
AcDbEntity
  8
0
 62
     0
370
     0
100
AcDbLine
 10
-227.6090436240927
 20
-11.66637030523298
 30
0.0
 11
-227.6096808982257
 21
-11.6651677633328
 31
0.0
1001
REVIT
1002
{
1070
     1
1000
251060
1002
}
1002
{
1070
     5
1000
248263
1002
}
1002
{
1070
     2
1000
-2000151
1002
}
  0
LINE
  5
A1C
330
6C
100
AcDbEntity
  8
0
 62
     0
370
     0
100
AcDbLine
 10
-227.6096808982257
 20
-11.6651677633328
 30
0.0
 11
-227.6106574998884
 21
-11.66435599181728
 31
0.0
1001
REVIT
1002
{
1070
     1
1000
251060
1002
}
1002
{
1070
     5
1000
248263
1002
}
1002
{
1070
     2
1000
-2000151
1002
}
  0
LINE
  5
A1D
330
6C
100
AcDbEntity
  8
0
 62
     0
370
     0
100
AcDbLine
 10
-227.6106574998884
 20
-11.66435599181728
 30
0.0
 11
-227.6118540425574
 21
-11.66403402240365
 31
0.0
1001
REVIT
1002
{
1070
     1
1000
251060
1002
}
1002
{
1070
     5
1000
248263
1002
}
1002
{
1070
     2
1000
-2000151
1002
}
  0
LINE
  5
A1E
330
6C
100
AcDbEntity
  8
0
 62
     0
370
     0
100
AcDbLine
 10
-227.6118540425574
 20
-11.66403402240365
 30
0.0
 11
-227.6131252277417
 21
-11.66423943188523
 31
0.0
1001
REVIT
1002
{
1070
     1
1000
251060
1002
}
1002
{
1070
     5
1000
248263
1002
}
1002
{
1070
     2
1000
-2000151
1002
}
  0
LINE
  5
A1F
330
6C
100
AcDbEntity
  8
0
 62
     0
370
     0
100
AcDbLine
 10
-227.6131252277417
 20
-11.66423943188523
 30
0.0
 11
-227.6143194906236
 21
-11.66494718208952
 31
0.0
1001
REVIT
1002
{
1070
     1
1000
251060
1002
}
1002
{
1070
     5
1000
248263
1002
}
1002
{
1070
     2
1000
-2000151
1002
}
  0
LINE
  5
A20
330
6C
100
AcDbEntity
  8
0
 62
     0
370
     0
100
AcDbLine
 10
-227.6143194906236
 20
-11.66494718208952
 30
0.0
 11
-227.615290812635
 21
-11.66606960719258
 31
0.0
1001
REVIT
1002
{
1070
     1
1000
251060
1002
}
1002
{
1070
     5
1000
248263
1002
}
1002
{
1070
     2
1000
-2000151
1002
}
  0
LINE
  5
A21
330
6C
100
AcDbEntity
  8
0
 62
     0
370
     0
100
AcDbLine
 10
-227.615290812635
 20
-11.66606960719258
 30
0.0
 11
-227.6159250403694
 21
-11.66747380283635
 31
0.0
1001
REVIT
1002
{
1070
     1
1000
251060
1002
}
1002
{
1070
     5
1000
248263
1002
}
1002
{
1070
     2
1000
-2000151
1002
}
  0
LINE
  5
A22
330
6C
100
AcDbEntity
  8
0
 62
     0
370
     0
100
AcDbLine
 10
-227.6159250403694
 20
-11.66747380283635
 30
0.0
 11
-227.6161449498304
 21
-11.6689886866394
 31
0.0
1001
REVIT
1002
{
1070
     1
1000
251060
1002
}
1002
{
1070
     5
1000
248263
1002
}
1002
{
1070
     2
1000
-2000151
1002
}
  0
LINE
  5
A23
330
6C
100
AcDbEntity
  8
0
 62
     0
370
     0
100
AcDbLine
 10
-227.6143189223359
 20
-11.67244711067916
 30
0.0
 11
-227.6131245821405
 21
-11.67277344250682
 31
0.0
1001
REVIT
1002
{
1070
     1
1000
251060
1002
}
1002
{
1070
     5
1000
248263
1002
}
1002
{
1070
     2
1000
-2000151
1002
}
  0
LINE
  5
A24
330
6C
100
AcDbEntity
  8
0
 62
     0
370
     0
100
AcDbLine
 10
-227.6131245821405
 20
-11.67277344250682
 30
0.0
 11
-227.6118533976985
 21
-11.67257288066502
 31
0.0
1001
REVIT
1002
{
1070
     1
1000
251060
1002
}
1002
{
1070
     5
1000
248263
1002
}
1002
{
1070
     2
1000
-2000151
1002
}
  0
LINE
  5
A25
330
6C
100
AcDbEntity
  8
0
 62
     0
370
     0
100
AcDbLine
 10
-227.6118533976985
 20
-11.67257288066502
 30
0.0
 11
-227.6106569334362
 21
-11.67186879134569
 31
0.0
1001
REVIT
1002
{
1070
     1
1000
251060
1002
}
1002
{
1070
     5
1000
248263
1002
}
1002
{
1070
     2
1000
-2000151
1002
}
  0
LINE
  5
A26
330
6C
100
AcDbEntity
  8
0
 62
     0
370
     0
100
AcDbLine
 10
-227.6106569334362
 20
-11.67186879134569
 30
0.0
 11
-227.6096804782566
 21
-11.67074515260043
 31
0.0
1001
REVIT
1002
{
1070
     1
1000
251060
1002
}
1002
{
1070
     5
1000
248263
1002
}
1002
{
1070
     2
1000
-2000151
1002
}
  0
LINE
  5
A27
330
6C
100
AcDbEntity
  8
0
 62
     0
370
     0
100
AcDbLine
 10
-227.6096804782566
 20
-11.67074515260043
 30
0.0
 11
-227.6090434007387
 21
-11.66933912049164
 31
0.0
1001
REVIT
1002
{
1070
     1
1000
251060
1002
}
1002
{
1070
     5
1000
248263
1002
}
1002
{
1070
     2
1000
-2000151
1002
}
  0
LINE
  5
A28
330
6C
100
AcDbEntity
  8
0
 62
     0
370
     0
100
AcDbLine
 10
-227.6090434007387
 20
-11.66933912049164
 30
0.0
 11
-227.6088220587424
 21
-11.66781935086515
 31
0.0
1001
REVIT
1002
{
1070
     1
1000
251060
1002
}
1002
{
1070
     5
1000
248263
1002
}
1002
{
1070
     2
1000
-2000151
1002
}
  0
LINE
  5
A29
330
6C
100
AcDbEntity
  8
0
 62
     0
370
     0
100
AcDbLine
 10
-227.6161449498304
 20
-11.6689886866394
 30
0.0
 11
-227.6159248156355
 21
-11.67043330283094
 31
0.0
1001
REVIT
1002
{
1070
     1
1000
251060
1002
}
1002
{
1070
     5
1000
248263
1002
}
1002
{
1070
     2
1000
-2000151
1002
}
  0
LINE
  5
A2A
330
6C
100
AcDbEntity
  8
0
 62
     0
370
     0
100
AcDbLine
 10
-227.6159248156355
 20
-11.67043330283094
 30
0.0
 11
-227.6152903903859
 21
-11.67163491596856
 31
0.0
1001
REVIT
1002
{
1070
     1
1000
251060
1002
}
1002
{
1070
     5
1000
248263
1002
}
1002
{
1070
     2
1000
-2000151
1002
}
  0
LINE
  5
A2B
330
6C
100
AcDbEntity
  8
0
 62
     0
370
     0
100
AcDbLine
 10
-227.6152903903859
 20
-11.67163491596856
 30
0.0
 11
-227.6152903903859
 21
-11.67163491596856
 31
0.0
1001
REVIT
1002
{
1070
     1
1000
251060
1002
}
1002
{
1070
     5
1000
248263
1002
}
1002
{
1070
     2
1000
-2000151
1002
}
  0
LINE
  5
A2C
330
6C
100
AcDbEntity
  8
0
 62
     0
370
     0
100
AcDbLine
 10
-227.5121311330445
 20
-11.65303847086635
 30
0.0
 11
-227.5119942736171
 21
-11.65184291607939
 31
0.0
1001
REVIT
1002
{
1070
     1
1000
251060
1002
}
1002
{
1070
     5
1000
248263
1002
}
1002
{
1070
     2
1000
-2000151
1002
}
  0
LINE
  5
A2D
330
6C
100
AcDbEntity
  8
0
 62
     0
370
     0
100
AcDbLine
 10
-227.5119942736171
 20
-11.65184291607939
 30
0.0
 11
-227.5115929228766
 21
-11.65068477735507
 31
0.0
1001
REVIT
1002
{
1070
     1
1000
251060
1002
}
1002
{
1070
     5
1000
248263
1002
}
1002
{
1070
     2
1000
-2000151
1002
}
  0
LINE
  5
A2E
330
6C
100
AcDbEntity
  8
0
 62
     0
370
     0
100
AcDbLine
 10
-227.5115929228766
 20
-11.65068477735507
 30
0.0
 11
-227.5109541610237
 21
-11.64964263025209
 31
0.0
1001
REVIT
1002
{
1070
     1
1000
251060
1002
}
1002
{
1070
     5
1000
248263
1002
}
1002
{
1070
     2
1000
-2000151
1002
}
  0
LINE
  5
A2F
330
6C
100
AcDbEntity
  8
0
 62
     0
370
     0
100
AcDbLine
 10
-227.5109541610237
 20
-11.64964263025209
 30
0.0
 11
-227.5101211477122
 21
-11.64878732328509
 31
0.0
1001
REVIT
1002
{
1070
     1
1000
251060
1002
}
1002
{
1070
     5
1000
248263
1002
}
1002
{
1070
     2
1000
-2000151
1002
}
  0
LINE
  5
A30
330
6C
100
AcDbEntity
  8
0
 62
     0
370
     0
100
AcDbLine
 10
-227.5101211477122
 20
-11.64878732328509
 30
0.0
 11
-227.5091502797775
 21
-11.64817719594767
 31
0.0
1001
REVIT
1002
{
1070
     1
1000
251060
1002
}
1002
{
1070
     5
1000
248263
1002
}
1002
{
1070
     2
1000
-2000151
1002
}
  0
LINE
  5
A31
330
6C
100
AcDbEntity
  8
0
 62
     0
370
     0
100
AcDbLine
 10
-227.5091502797775
 20
-11.64817719594767
 30
0.0
 11
-227.5081074472993
 21
-11.64785408953189
 31
0.0
1001
REVIT
1002
{
1070
     1
1000
251060
1002
}
1002
{
1070
     5
1000
248263
1002
}
1002
{
1070
     2
1000
-2000151
1002
}
  0
LINE
  5
A32
330
6C
100
AcDbEntity
  8
0
 62
     0
370
     0
100
AcDbLine
 10
-227.5081074472993
 20
-11.64785408953189
 30
0.0
 11
-227.5070636166061
 21
-11.6478404259555
 31
0.0
1001
REVIT
1002
{
1070
     1
1000
251060
1002
}
1002
{
1070
     5
1000
248263
1002
}
1002
{
1070
     2
1000
-2000151
1002
}
  0
LINE
  5
A33
330
6C
100
AcDbEntity
  8
0
 62
     0
370
     0
100
AcDbLine
 10
-227.5070636166061
 20
-11.6478404259555
 30
0.0
 11
-227.5065626656683
 21
-11.6479799637255
 31
0.0
1001
REVIT
1002
{
1070
     1
1000
251060
1002
}
1002
{
1070
     5
1000
248263
1002
}
1002
{
1070
     2
1000
-2000151
1002
}
  0
LINE
  5
A34
330
6C
100
AcDbEntity
  8
0
 62
     0
370
     0
100
AcDbLine
 10
-227.510855674671
 20
-11.65619566406171
 30
0.0
 11
-227.5115929228768
 21
-11.65522060497288
 31
0.0
1001
REVIT
1002
{
1070
     1
1000
251060
1002
}
1002
{
1070
     5
1000
248263
1002
}
1002
{
1070
     2
1000
-2000151
1002
}
  0
LINE
  5
A35
330
6C
100
AcDbEntity
  8
0
 62
     0
370
     0
100
AcDbLine
 10
-227.5115929228768
 20
-11.65522060497288
 30
0.0
 11
-227.5119942736171
 21
-11.65419040046131
 31
0.0
1001
REVIT
1002
{
1070
     1
1000
251060
1002
}
1002
{
1070
     5
1000
248263
1002
}
1002
{
1070
     2
1000
-2000151
1002
}
  0
LINE
  5
A36
330
6C
100
AcDbEntity
  8
0
 62
     0
370
     0
100
AcDbLine
 10
-227.5119942736171
 20
-11.65419040046131
 30
0.0
 11
-227.5121311330445
 21
-11.65303847086635
 31
0.0
1001
REVIT
1002
{
1070
     1
1000
251060
1002
}
1002
{
1070
     5
1000
248263
1002
}
1002
{
1070
     2
1000
-2000151
1002
}
  0
LINE
  5
A37
330
6C
100
AcDbEntity
  8
0
 62
     0
370
     0
100
AcDbLine
 10
-227.615107132597
 20
-11.66945074086871
 30
0.0
 11
-227.6149829149905
 21
-11.66831272560865
 31
0.0
1001
REVIT
1002
{
1070
     1
1000
251060
1002
}
1002
{
1070
     5
1000
248263
1002
}
1002
{
1070
     2
1000
-2000151
1002
}
  0
LINE
  5
A38
330
6C
100
AcDbEntity
  8
0
 62
     0
370
     0
100
AcDbLine
 10
-227.6149829149905
 20
-11.66831272560865
 30
0.0
 11
-227.6146186416167
 21
-11.66721227563986
 31
0.0
1001
REVIT
1002
{
1070
     1
1000
251060
1002
}
1002
{
1070
     5
1000
248263
1002
}
1002
{
1070
     2
1000
-2000151
1002
}
  0
LINE
  5
A39
330
6C
100
AcDbEntity
  8
0
 62
     0
370
     0
100
AcDbLine
 10
-227.6146186416167
 20
-11.66721227563986
 30
0.0
 11
-227.6140389026175
 21
-11.66622406930779
 31
0.0
1001
REVIT
1002
{
1070
     1
1000
251060
1002
}
1002
{
1070
     5
1000
248263
1002
}
1002
{
1070
     2
1000
-2000151
1002
}
  0
LINE
  5
A3A
330
6C
100
AcDbEntity
  8
0
 62
     0
370
     0
100
AcDbLine
 10
-227.6140389026175
 20
-11.66622406930779
 30
0.0
 11
-227.6132828855548
 21
-11.66541529763442
 31
0.0
1001
REVIT
1002
{
1070
     1
1000
251060
1002
}
1002
{
1070
     5
1000
248263
1002
}
1002
{
1070
     2
1000
-2000151
1002
}
  0
LINE
  5
A3B
330
6C
100
AcDbEntity
  8
0
 62
     0
370
     0
100
AcDbLine
 10
-227.6132828855548
 20
-11.66541529763442
 30
0.0
 11
-227.6124017904439
 21
-11.6648411266274
 31
0.0
1001
REVIT
1002
{
1070
     1
1000
251060
1002
}
1002
{
1070
     5
1000
248263
1002
}
1002
{
1070
     2
1000
-2000151
1002
}
  0
LINE
  5
A3C
330
6C
100
AcDbEntity
  8
0
 62
     0
370
     0
100
AcDbLine
 10
-227.6124017904439
 20
-11.6648411266274
 30
0.0
 11
-227.6114554265102
 21
-11.66454092489616
 31
0.0
1001
REVIT
1002
{
1070
     1
1000
251060
1002
}
1002
{
1070
     5
1000
248263
1002
}
1002
{
1070
     2
1000
-2000151
1002
}
  0
LINE
  5
A3D
330
6C
100
AcDbEntity
  8
0
 62
     0
370
     0
100
AcDbLine
 10
-227.6114554265102
 20
-11.66454092489616
 30
0.0
 11
-227.6105081996484
 21
-11.66453551690267
 31
0.0
1001
REVIT
1002
{
1070
     1
1000
251060
1002
}
1002
{
1070
     5
1000
248263
1002
}
1002
{
1070
     2
1000
-2000151
1002
}
  0
LINE
  5
A3E
330
6C
100
AcDbEntity
  8
0
 62
     0
370
     0
100
AcDbLine
 10
-227.6105081996484
 20
-11.66453551690267
 30
0.0
 11
-227.6104183289713
 21
-11.66455479563381
 31
0.0
1001
REVIT
1002
{
1070
     1
1000
251060
1002
}
1002
{
1070
     5
1000
248263
1002
}
1002
{
1070
     2
1000
-2000151
1002
}
  0
LINE
  5
A3F
330
6C
100
AcDbEntity
  8
0
 62
     0
370
     0
100
AcDbLine
 10
-227.6137667597396
 20
-11.67259797910839
 30
0.0
 11
-227.6140389026178
 21
-11.67233690437102
 31
0.0
1001
REVIT
1002
{
1070
     1
1000
251060
1002
}
1002
{
1070
     5
1000
248263
1002
}
1002
{
1070
     2
1000
-2000151
1002
}
  0
LINE
  5
A40
330
6C
100
AcDbEntity
  8
0
 62
     0
370
     0
100
AcDbLine
 10
-227.6140389026178
 20
-11.67233690437102
 30
0.0
 11
-227.6146186416169
 21
-11.6715334951378
 31
0.0
1001
REVIT
1002
{
1070
     1
1000
251060
1002
}
1002
{
1070
     5
1000
248263
1002
}
1002
{
1070
     2
1000
-2000151
1002
}
  0
LINE
  5
A41
330
6C
100
AcDbEntity
  8
0
 62
     0
370
     0
100
AcDbLine
 10
-227.6146186416169
 20
-11.6715334951378
 30
0.0
 11
-227.6149829149903
 21
-11.67054916063259
 31
0.0
1001
REVIT
1002
{
1070
     1
1000
251060
1002
}
1002
{
1070
     5
1000
248263
1002
}
1002
{
1070
     2
1000
-2000151
1002
}
  0
LINE
  5
A42
330
6C
100
AcDbEntity
  8
0
 62
     0
370
     0
100
AcDbLine
 10
-227.6149829149903
 20
-11.67054916063259
 30
0.0
 11
-227.615107132597
 21
-11.66945074086871
 31
0.0
1001
REVIT
1002
{
1070
     1
1000
251060
1002
}
1002
{
1070
     5
1000
248263
1002
}
1002
{
1070
     2
1000
-2000151
1002
}
  0
LINE
  5
A43
330
6C
100
AcDbEntity
  8
0
 62
     0
370
     0
100
AcDbLine
 10
-227.6329373678522
 20
-11.71094666381793
 30
0.0
 11
-227.6334610522183
 21
-11.71062783329405
 31
0.0
1001
REVIT
1002
{
1070
     1
1000
251060
1002
}
1002
{
1070
     5
1000
248263
1002
}
1002
{
1070
     2
1000
-2000151
1002
}
  0
LINE
  5
A44
330
6C
100
AcDbEntity
  8
0
 62
     0
370
     0
100
AcDbLine
 10
-227.6334610522183
 20
-11.71062783329405
 30
0.0
 11
-227.6339524435915
 21
-11.71008905293002
 31
0.0
1001
REVIT
1002
{
1070
     1
1000
251060
1002
}
1002
{
1070
     5
1000
248263
1002
}
1002
{
1070
     2
1000
-2000151
1002
}
  0
LINE
  5
A45
330
6C
100
AcDbEntity
  8
0
 62
     0
370
     0
100
AcDbLine
 10
-227.6339524435915
 20
-11.71008905293002
 30
0.0
 11
-227.6343804429256
 21
-11.70936393622099
 31
0.0
1001
REVIT
1002
{
1070
     1
1000
251060
1002
}
1002
{
1070
     5
1000
248263
1002
}
1002
{
1070
     2
1000
-2000151
1002
}
  0
LINE
  5
A46
330
6C
100
AcDbEntity
  8
0
 62
     0
370
     0
100
AcDbLine
 10
-227.6343804429256
 20
-11.70936393622099
 30
0.0
 11
-227.6347178672485
 21
-11.70849805133254
 31
0.0
1001
REVIT
1002
{
1070
     1
1000
251060
1002
}
1002
{
1070
     5
1000
248263
1002
}
1002
{
1070
     2
1000
-2000151
1002
}
  0
LINE
  5
A47
330
6C
100
AcDbEntity
  8
0
 62
     0
370
     0
100
AcDbLine
 10
-227.6347178672485
 20
-11.70849805133254
 30
0.0
 11
-227.6349432231794
 21
-11.70754606802569
 31
0.0
1001
REVIT
1002
{
1070
     1
1000
251060
1002
}
1002
{
1070
     5
1000
248263
1002
}
1002
{
1070
     2
1000
-2000151
1002
}
  0
LINE
  5
A48
330
6C
100
AcDbEntity
  8
0
 62
     0
370
     0
100
AcDbLine
 10
-227.6349432231794
 20
-11.70754606802569
 30
0.0
 11
-227.6350421249606
 21
-11.70656827080628
 31
0.0
1001
REVIT
1002
{
1070
     1
1000
251060
1002
}
1002
{
1070
     5
1000
248263
1002
}
1002
{
1070
     2
1000
-2000151
1002
}
  0
LINE
  5
A4B
330
6C
100
AcDbEntity
  8
0
 62
     0
370
     0
100
AcDbLine
 10
-227.4836151965761
 20
-11.68493604273777
 30
0.0
 11
-227.4835300968966
 21
-11.68598892775249
 31
0.0
1001
REVIT
1002
{
1070
     1
1000
251060
1002
}
1002
{
1070
     5
1000
248263
1002
}
1002
{
1070
     2
1000
-2000151
1002
}
  0
LINE
  5
A4C
330
6C
100
AcDbEntity
  8
0
 62
     0
370
     0
100
AcDbLine
 10
-227.4835300968966
 20
-11.68598892775249
 30
0.0
 11
-227.4833361962806
 21
-11.68701790328211
 31
0.0
1001
REVIT
1002
{
1070
     1
1000
251060
1002
}
1002
{
1070
     5
1000
248263
1002
}
1002
{
1070
     2
1000
-2000151
1002
}
  0
LINE
  5
A4D
330
6C
100
AcDbEntity
  8
0
 62
     0
370
     0
100
AcDbLine
 10
-227.4833361962806
 20
-11.68701790328211
 30
0.0
 11
-227.4830458856448
 21
-11.6879577745555
 31
0.0
1001
REVIT
1002
{
1070
     1
1000
251060
1002
}
1002
{
1070
     5
1000
248263
1002
}
1002
{
1070
     2
1000
-2000151
1002
}
  0
LINE
  5
A4E
330
6C
100
AcDbEntity
  8
0
 62
     0
370
     0
100
AcDbLine
 10
-227.4830458856448
 20
-11.6879577745555
 30
0.0
 11
-227.4826776740054
 21
-11.68874917911787
 31
0.0
1001
REVIT
1002
{
1070
     1
1000
251060
1002
}
1002
{
1070
     5
1000
248263
1002
}
1002
{
1070
     2
1000
-2000151
1002
}
  0
LINE
  5
A4F
330
6C
100
AcDbEntity
  8
0
 62
     0
370
     0
100
AcDbLine
 10
-227.4826776740054
 20
-11.68874917911787
 30
0.0
 11
-227.4822549632086
 21
-11.68934237823867
 31
0.0
1001
REVIT
1002
{
1070
     1
1000
251060
1002
}
1002
{
1070
     5
1000
248263
1002
}
1002
{
1070
     2
1000
-2000151
1002
}
  0
LINE
  5
A50
330
6C
100
AcDbEntity
  8
0
 62
     0
370
     0
100
AcDbLine
 10
-227.4822549632086
 20
-11.68934237823867
 30
0.0
 11
-227.4818045171413
 21
-11.68970037222334
 31
0.0
1001
REVIT
1002
{
1070
     1
1000
251060
1002
}
1002
{
1070
     5
1000
248263
1002
}
1002
{
1070
     2
1000
-2000151
1002
}
  0
LINE
  5
A51
330
6C
100
AcDbEntity
  8
0
 62
     0
370
     0
100
AcDbLine
 10
-227.4825232729339
 20
-11.68648916531521
 30
0.0
 11
-227.4825887459906
 21
-11.68623477293084
 31
0.0
1001
REVIT
1002
{
1070
     1
1000
251060
1002
}
1002
{
1070
     5
1000
248263
1002
}
1002
{
1070
     2
1000
-2000151
1002
}
  0
LINE
  5
A52
330
6C
100
AcDbEntity
  8
0
 62
     0
370
     0
100
AcDbLine
 10
-227.4825887459906
 20
-11.68623477293084
 30
0.0
 11
-227.4826793406873
 21
-11.68569510344001
 31
0.0
1001
REVIT
1002
{
1070
     1
1000
251060
1002
}
1002
{
1070
     5
1000
248263
1002
}
1002
{
1070
     2
1000
-2000151
1002
}
  0
LINE
  5
A53
330
6C
100
AcDbEntity
  8
0
 62
     0
370
     0
100
AcDbLine
 10
-227.4826793406873
 20
-11.68569510344001
 30
0.0
 11
-227.4827102470067
 21
-11.68515002883179
 31
0.0
1001
REVIT
1002
{
1070
     1
1000
251060
1002
}
1002
{
1070
     5
1000
248263
1002
}
1002
{
1070
     2
1000
-2000151
1002
}
  0
LINE
  5
A54
330
6C
100
AcDbEntity
  8
0
 62
     0
370
     0
100
AcDbLine
 10
-227.4818045171413
 20
-11.68765892730376
 30
0.0
 11
-227.4820386792201
 21
-11.68746927207733
 31
0.0
1001
REVIT
1002
{
1070
     1
1000
251060
1002
}
1002
{
1070
     5
1000
248263
1002
}
1002
{
1070
     2
1000
-2000151
1002
}
  0
LINE
  5
A55
330
6C
100
AcDbEntity
  8
0
 62
     0
370
     0
100
AcDbLine
 10
-227.4820386792201
 20
-11.68746927207733
 30
0.0
 11
-227.4820386792201
 21
-11.68746927207733
 31
0.0
1001
REVIT
1002
{
1070
     1
1000
251060
1002
}
1002
{
1070
     5
1000
248263
1002
}
1002
{
1070
     2
1000
-2000151
1002
}
  0
LINE
  5
A61
330
6C
100
AcDbEntity
  8
0
 62
     0
370
     0
100
AcDbLine
 10
-227.5234728391616
 20
-11.73898258589961
 30
0.0
 11
-227.523401694284
 21
-11.73786939098057
 31
0.0
1001
REVIT
1002
{
1070
     1
1000
251060
1002
}
1002
{
1070
     5
1000
248263
1002
}
1002
{
1070
     2
1000
-2000151
1002
}
  0
LINE
  5
A62
330
6C
100
AcDbEntity
  8
0
 62
     0
370
     0
100
AcDbLine
 10
-227.523401694284
 20
-11.73786939098057
 30
0.0
 11
-227.5231931976819
 21
-11.73688979666969
 31
0.0
1001
REVIT
1002
{
1070
     1
1000
251060
1002
}
1002
{
1070
     5
1000
248263
1002
}
1002
{
1070
     2
1000
-2000151
1002
}
  0
LINE
  5
A63
330
6C
100
AcDbEntity
  8
0
 62
     0
370
     0
100
AcDbLine
 10
-227.5231931976819
 20
-11.73688979666969
 30
0.0
 11
-227.5228618026587
 21
-11.73611097861207
 31
0.0
1001
REVIT
1002
{
1070
     1
1000
251060
1002
}
1002
{
1070
     5
1000
248263
1002
}
1002
{
1070
     2
1000
-2000151
1002
}
  0
LINE
  5
A64
330
6C
100
AcDbEntity
  8
0
 62
     0
370
     0
100
AcDbLine
 10
-227.5228618026587
 20
-11.73611097861207
 30
0.0
 11
-227.5224304266532
 21
-11.73558606477978
 31
0.0
1001
REVIT
1002
{
1070
     1
1000
251060
1002
}
1002
{
1070
     5
1000
248263
1002
}
1002
{
1070
     2
1000
-2000151
1002
}
  0
LINE
  5
A65
330
6C
100
AcDbEntity
  8
0
 62
     0
370
     0
100
AcDbLine
 10
-227.5224304266532
 20
-11.73558606477978
 30
0.0
 11
-227.5219287994991
 21
-11.73535050153969
 31
0.0
1001
REVIT
1002
{
1070
     1
1000
251060
1002
}
1002
{
1070
     5
1000
248263
1002
}
1002
{
1070
     2
1000
-2000151
1002
}
  0
LINE
  5
A66
330
6C
100
AcDbEntity
  8
0
 62
     0
370
     0
100
AcDbLine
 10
-227.5219287994991
 20
-11.73535050153969
 30
0.0
 11
-227.521391348099
 21
-11.73541972671841
 31
0.0
1001
REVIT
1002
{
1070
     1
1000
251060
1002
}
1002
{
1070
     5
1000
248263
1002
}
1002
{
1070
     2
1000
-2000151
1002
}
  0
LINE
  5
A67
330
6C
100
AcDbEntity
  8
0
 62
     0
370
     0
100
AcDbLine
 10
-227.521391348099
 20
-11.73541972671841
 30
0.0
 11
-227.5208547857488
 21
-11.73578828364431
 31
0.0
1001
REVIT
1002
{
1070
     1
1000
251060
1002
}
1002
{
1070
     5
1000
248263
1002
}
1002
{
1070
     2
1000
-2000151
1002
}
  0
LINE
  5
A68
330
6C
100
AcDbEntity
  8
0
 62
     0
370
     0
100
AcDbLine
 10
-227.5208547857488
 20
-11.73578828364431
 30
0.0
 11
-227.5203555875306
 21
-11.73643039133181
 31
0.0
1001
REVIT
1002
{
1070
     1
1000
251060
1002
}
1002
{
1070
     5
1000
248263
1002
}
1002
{
1070
     2
1000
-2000151
1002
}
  0
LINE
  5
A69
330
6C
100
AcDbEntity
  8
0
 62
     0
370
     0
100
AcDbLine
 10
-227.5203555875306
 20
-11.73643039133181
 30
0.0
 11
-227.5199275295278
 21
-11.73730187865026
 31
0.0
1001
REVIT
1002
{
1070
     1
1000
251060
1002
}
1002
{
1070
     5
1000
248263
1002
}
1002
{
1070
     2
1000
-2000151
1002
}
  0
LINE
  5
A6A
330
6C
100
AcDbEntity
  8
0
 62
     0
370
     0
100
AcDbLine
 10
-227.5199275295278
 20
-11.73730187865026
 30
0.0
 11
-227.5195994525237
 21
-11.73834330364816
 31
0.0
1001
REVIT
1002
{
1070
     1
1000
251060
1002
}
1002
{
1070
     5
1000
248263
1002
}
1002
{
1070
     2
1000
-2000151
1002
}
  0
LINE
  5
A6B
330
6C
100
AcDbEntity
  8
0
 62
     0
370
     0
100
AcDbLine
 10
-227.5195994525237
 20
-11.73834330364816
 30
0.0
 11
-227.5193933848916
 21
-11.73948401703755
 31
0.0
1001
REVIT
1002
{
1070
     1
1000
251060
1002
}
1002
{
1070
     5
1000
248263
1002
}
1002
{
1070
     2
1000
-2000151
1002
}
  0
LINE
  5
A6C
330
6C
100
AcDbEntity
  8
0
 62
     0
370
     0
100
AcDbLine
 10
-227.5193933848916
 20
-11.73948401703755
 30
0.0
 11
-227.5193231290805
 21
-11.74064689023365
 31
0.0
1001
REVIT
1002
{
1070
     1
1000
251060
1002
}
1002
{
1070
     5
1000
248263
1002
}
1002
{
1070
     2
1000
-2000151
1002
}
  0
LINE
  5
A6D
330
6C
100
AcDbEntity
  8
0
 62
     0
370
     0
100
AcDbLine
 10
-227.5208547857489
 20
-11.74427690842445
 30
0.0
 11
-227.521391348099
 21
-11.74421507236991
 31
0.0
1001
REVIT
1002
{
1070
     1
1000
251060
1002
}
1002
{
1070
     5
1000
248263
1002
}
1002
{
1070
     2
1000
-2000151
1002
}
  0
LINE
  5
A6E
330
6C
100
AcDbEntity
  8
0
 62
     0
370
     0
100
AcDbLine
 10
-227.521391348099
 20
-11.74421507236991
 30
0.0
 11
-227.5219287994991
 21
-11.74385319143425
 31
0.0
1001
REVIT
1002
{
1070
     1
1000
251060
1002
}
1002
{
1070
     5
1000
248263
1002
}
1002
{
1070
     2
1000
-2000151
1002
}
  0
LINE
  5
A6F
330
6C
100
AcDbEntity
  8
0
 62
     0
370
     0
100
AcDbLine
 10
-227.5219287994991
 20
-11.74385319143425
 30
0.0
 11
-227.5224304266531
 21
-11.74321525779715
 31
0.0
1001
REVIT
1002
{
1070
     1
1000
251060
1002
}
1002
{
1070
     5
1000
248263
1002
}
1002
{
1070
     2
1000
-2000151
1002
}
  0
LINE
  5
A70
330
6C
100
AcDbEntity
  8
0
 62
     0
370
     0
100
AcDbLine
 10
-227.5224304266531
 20
-11.74321525779715
 30
0.0
 11
-227.5228618026585
 21
-11.74234432415086
 31
0.0
1001
REVIT
1002
{
1070
     1
1000
251060
1002
}
1002
{
1070
     5
1000
248263
1002
}
1002
{
1070
     2
1000
-2000151
1002
}
  0
LINE
  5
A71
330
6C
100
AcDbEntity
  8
0
 62
     0
370
     0
100
AcDbLine
 10
-227.5228618026585
 20
-11.74234432415086
 30
0.0
 11
-227.5231931976821
 21
-11.74129968406558
 31
0.0
1001
REVIT
1002
{
1070
     1
1000
251060
1002
}
1002
{
1070
     5
1000
248263
1002
}
1002
{
1070
     2
1000
-2000151
1002
}
  0
LINE
  5
A72
330
6C
100
AcDbEntity
  8
0
 62
     0
370
     0
100
AcDbLine
 10
-227.5231931976821
 20
-11.74129968406558
 30
0.0
 11
-227.523401694284
 21
-11.740152848289
 31
0.0
1001
REVIT
1002
{
1070
     1
1000
251060
1002
}
1002
{
1070
     5
1000
248263
1002
}
1002
{
1070
     2
1000
-2000151
1002
}
  0
LINE
  5
A73
330
6C
100
AcDbEntity
  8
0
 62
     0
370
     0
100
AcDbLine
 10
-227.523401694284
 20
-11.740152848289
 30
0.0
 11
-227.5234728391616
 21
-11.73898258589961
 31
0.0
1001
REVIT
1002
{
1070
     1
1000
251060
1002
}
1002
{
1070
     5
1000
248263
1002
}
1002
{
1070
     2
1000
-2000151
1002
}
  0
LINE
  5
A74
330
6C
100
AcDbEntity
  8
0
 62
     0
370
     0
100
AcDbLine
 10
-227.5193231290805
 20
-11.74064689023365
 30
0.0
 11
-227.5193933848914
 21
-11.74175340910697
 31
0.0
1001
REVIT
1002
{
1070
     1
1000
251060
1002
}
1002
{
1070
     5
1000
248263
1002
}
1002
{
1070
     2
1000
-2000151
1002
}
  0
LINE
  5
A75
330
6C
100
AcDbEntity
  8
0
 62
     0
370
     0
100
AcDbLine
 10
-227.5193933848914
 20
-11.74175340910697
 30
0.0
 11
-227.5195994525239
 21
-11.74272882938105
 31
0.0
1001
REVIT
1002
{
1070
     1
1000
251060
1002
}
1002
{
1070
     5
1000
248263
1002
}
1002
{
1070
     2
1000
-2000151
1002
}
  0
LINE
  5
A76
330
6C
100
AcDbEntity
  8
0
 62
     0
370
     0
100
AcDbLine
 10
-227.5195994525239
 20
-11.74272882938105
 30
0.0
 11
-227.5199275295278
 21
-11.74350709383561
 31
0.0
1001
REVIT
1002
{
1070
     1
1000
251060
1002
}
1002
{
1070
     5
1000
248263
1002
}
1002
{
1070
     2
1000
-2000151
1002
}
  0
LINE
  5
A77
330
6C
100
AcDbEntity
  8
0
 62
     0
370
     0
100
AcDbLine
 10
-227.5199275295278
 20
-11.74350709383561
 30
0.0
 11
-227.5203555875307
 21
-11.74403522281079
 31
0.0
1001
REVIT
1002
{
1070
     1
1000
251060
1002
}
1002
{
1070
     5
1000
248263
1002
}
1002
{
1070
     2
1000
-2000151
1002
}
  0
LINE
  5
A78
330
6C
100
AcDbEntity
  8
0
 62
     0
370
     0
100
AcDbLine
 10
-227.5203555875307
 20
-11.74403522281079
 30
0.0
 11
-227.5203555875307
 21
-11.74403522281079
 31
0.0
1001
REVIT
1002
{
1070
     1
1000
251060
1002
}
1002
{
1070
     5
1000
248263
1002
}
1002
{
1070
     2
1000
-2000151
1002
}
  0
LINE
  5
A86
330
6C
100
AcDbEntity
  8
0
 62
     0
370
     0
100
AcDbLine
 10
-227.5101908062889
 20
-11.71209400907704
 30
0.0
 11
-227.5102048666078
 21
-11.7114104973628
 31
0.0
1001
REVIT
1002
{
1070
     1
1000
251060
1002
}
1002
{
1070
     5
1000
248263
1002
}
1002
{
1070
     2
1000
-2000151
1002
}
  0
LINE
  5
A87
330
6C
100
AcDbEntity
  8
0
 62
     0
370
     0
100
AcDbLine
 10
-227.5210431398035
 20
-11.74085248453951
 30
0.0
 11
-227.5211135266358
 21
-11.73969055559479
 31
0.0
1001
REVIT
1002
{
1070
     1
1000
251060
1002
}
1002
{
1070
     5
1000
248263
1002
}
1002
{
1070
     2
1000
-2000151
1002
}
  0
LINE
  5
A88
330
6C
100
AcDbEntity
  8
0
 62
     0
370
     0
100
AcDbLine
 10
-227.5211135266358
 20
-11.73969055559479
 30
0.0
 11
-227.521319978498
 21
-11.73855081261452
 31
0.0
1001
REVIT
1002
{
1070
     1
1000
251060
1002
}
1002
{
1070
     5
1000
248263
1002
}
1002
{
1070
     2
1000
-2000151
1002
}
  0
LINE
  5
A89
330
6C
100
AcDbEntity
  8
0
 62
     0
370
     0
100
AcDbLine
 10
-227.521319978498
 20
-11.73855081261452
 30
0.0
 11
-227.5216486670129
 21
-11.73751031909486
 31
0.0
1001
REVIT
1002
{
1070
     1
1000
251060
1002
}
1002
{
1070
     5
1000
248263
1002
}
1002
{
1070
     2
1000
-2000151
1002
}
  0
LINE
  5
A8A
330
6C
100
AcDbEntity
  8
0
 62
     0
370
     0
100
AcDbLine
 10
-227.5216486670129
 20
-11.73751031909486
 30
0.0
 11
-227.5220775224863
 21
-11.73663966146283
 31
0.0
1001
REVIT
1002
{
1070
     1
1000
251060
1002
}
1002
{
1070
     5
1000
248263
1002
}
1002
{
1070
     2
1000
-2000151
1002
}
  0
LINE
  5
A8B
330
6C
100
AcDbEntity
  8
0
 62
     0
370
     0
100
AcDbLine
 10
-227.5220775224863
 20
-11.73663966146283
 30
0.0
 11
-227.5225776501407
 21
-11.73599822515452
 31
0.0
1001
REVIT
1002
{
1070
     1
1000
251060
1002
}
1002
{
1070
     5
1000
248263
1002
}
1002
{
1070
     2
1000
-2000151
1002
}
  0
LINE
  5
A8C
330
6C
100
AcDbEntity
  8
0
 62
     0
370
     0
100
AcDbLine
 10
-227.5225776501407
 20
-11.73599822515452
 30
0.0
 11
-227.5226898352618
 21
-11.73590172250098
 31
0.0
1001
REVIT
1002
{
1070
     1
1000
251060
1002
}
1002
{
1070
     5
1000
248263
1002
}
1002
{
1070
     2
1000
-2000151
1002
}
  0
LINE
  5
A8D
330
6C
100
AcDbEntity
  8
0
 62
     0
370
     0
100
AcDbLine
 10
-227.5217932788157
 20
-11.74394444126954
 30
0.0
 11
-227.5216486670129
 21
-11.74371061069033
 31
0.0
1001
REVIT
1002
{
1070
     1
1000
251060
1002
}
1002
{
1070
     5
1000
248263
1002
}
1002
{
1070
     2
1000
-2000151
1002
}
  0
LINE
  5
A8E
330
6C
100
AcDbEntity
  8
0
 62
     0
370
     0
100
AcDbLine
 10
-227.5216486670129
 20
-11.74371061069033
 30
0.0
 11
-227.5213199784978
 21
-11.74293286037064
 31
0.0
1001
REVIT
1002
{
1070
     1
1000
251060
1002
}
1002
{
1070
     5
1000
248263
1002
}
1002
{
1070
     2
1000
-2000151
1002
}
  0
LINE
  5
A8F
330
6C
100
AcDbEntity
  8
0
 62
     0
370
     0
100
AcDbLine
 10
-227.5213199784978
 20
-11.74293286037064
 30
0.0
 11
-227.5211135266358
 21
-11.74195814847723
 31
0.0
1001
REVIT
1002
{
1070
     1
1000
251060
1002
}
1002
{
1070
     5
1000
248263
1002
}
1002
{
1070
     2
1000
-2000151
1002
}
  0
LINE
  5
A90
330
6C
100
AcDbEntity
  8
0
 62
     0
370
     0
100
AcDbLine
 10
-227.5211135266358
 20
-11.74195814847723
 30
0.0
 11
-227.5210431398035
 21
-11.74085248453951
 31
0.0
1001
REVIT
1002
{
1070
     1
1000
251060
1002
}
1002
{
1070
     5
1000
248263
1002
}
1002
{
1070
     2
1000
-2000151
1002
}
  0
LINE
  5
A94
330
6C
100
AcDbEntity
  8
0
 62
     0
370
     0
100
AcDbLine
 10
-227.5347377603507
 20
-11.70203822039378
 30
0.0
 11
-227.5347226493431
 21
-11.70134423885219
 31
0.0
1001
REVIT
1002
{
1070
     1
1000
251060
1002
}
1002
{
1070
     5
1000
248263
1002
}
1002
{
1070
     2
1000
-2000151
1002
}
  0
LINE
  5
A95
330
6C
100
AcDbEntity
  8
0
 62
     0
370
     0
100
AcDbLine
 10
-227.5320444914051
 20
-11.71716068292885
 30
0.0
 11
-227.532014093903
 21
-11.71765519768025
 31
0.0
1001
REVIT
1002
{
1070
     1
1000
251060
1002
}
1002
{
1070
     5
1000
248263
1002
}
1002
{
1070
     2
1000
-2000151
1002
}
1002
{
1070
     3
1000
247327
1002
}
  0
LINE
  5
A96
330
6C
100
AcDbEntity
  8
0
 62
     0
370
     0
100
AcDbLine
 10
-227.532014093903
 20
-11.71765519768025
 30
0.0
 11
-227.5319249890884
 21
-11.7181419572165
 31
0.0
1001
REVIT
1002
{
1070
     1
1000
251060
1002
}
1002
{
1070
     5
1000
248263
1002
}
1002
{
1070
     2
1000
-2000151
1002
}
1002
{
1070
     3
1000
247327
1002
}
  0
LINE
  5
A97
330
6C
100
AcDbEntity
  8
0
 62
     0
370
     0
100
AcDbLine
 10
-227.5319249890884
 20
-11.7181419572165
 30
0.0
 11
-227.5317832934145
 21
-11.71858767884061
 31
0.0
1001
REVIT
1002
{
1070
     1
1000
251060
1002
}
1002
{
1070
     5
1000
248263
1002
}
1002
{
1070
     2
1000
-2000151
1002
}
1002
{
1070
     3
1000
247327
1002
}
  0
LINE
  5
A98
330
6C
100
AcDbEntity
  8
0
 62
     0
370
     0
100
AcDbLine
 10
-227.5317832934145
 20
-11.71858767884061
 30
0.0
 11
-227.5315987234053
 21
-11.7189619280703
 31
0.0
1001
REVIT
1002
{
1070
     1
1000
251060
1002
}
1002
{
1070
     5
1000
248263
1002
}
1002
{
1070
     2
1000
-2000151
1002
}
1002
{
1070
     3
1000
247327
1002
}
  0
LINE
  5
A99
330
6C
100
AcDbEntity
  8
0
 62
     0
370
     0
100
AcDbLine
 10
-227.5315987234053
 20
-11.7189619280703
 30
0.0
 11
-227.5313839173116
 21
-11.71923920856351
 31
0.0
1001
REVIT
1002
{
1070
     1
1000
251060
1002
}
1002
{
1070
     5
1000
248263
1002
}
1002
{
1070
     2
1000
-2000151
1002
}
1002
{
1070
     3
1000
247327
1002
}
  0
LINE
  5
A9A
330
6C
100
AcDbEntity
  8
0
 62
     0
370
     0
100
AcDbLine
 10
-227.5313839173116
 20
-11.71923920856351
 30
0.0
 11
-227.5311535577114
 21
-11.71940069738441
 31
0.0
1001
REVIT
1002
{
1070
     1
1000
251060
1002
}
1002
{
1070
     5
1000
248263
1002
}
1002
{
1070
     2
1000
-2000151
1002
}
1002
{
1070
     3
1000
247327
1002
}
  0
LINE
  5
A9B
330
6C
100
AcDbEntity
  8
0
 62
     0
370
     0
100
AcDbLine
 10
-227.5311535577114
 20
-11.71940069738441
 30
0.0
 11
-227.5309233591714
 21
-11.71943550801522
 31
0.0
1001
REVIT
1002
{
1070
     1
1000
251060
1002
}
1002
{
1070
     5
1000
248263
1002
}
1002
{
1070
     2
1000
-2000151
1002
}
1002
{
1070
     3
1000
247327
1002
}
  0
LINE
  5
A9C
330
6C
100
AcDbEntity
  8
0
 62
     0
370
     0
100
AcDbLine
 10
-227.5309233591714
 20
-11.71943550801522
 30
0.0
 11
-227.5307089931033
 21
-11.71934140039371
 31
0.0
1001
REVIT
1002
{
1070
     1
1000
251060
1002
}
1002
{
1070
     5
1000
248263
1002
}
1002
{
1070
     2
1000
-2000151
1002
}
1002
{
1070
     3
1000
247327
1002
}
  0
LINE
  5
A9D
330
6C
100
AcDbEntity
  8
0
 62
     0
370
     0
100
AcDbLine
 10
-227.5307089931033
 20
-11.71934140039371
 30
0.0
 11
-227.5305250241805
 21
-11.71912489816129
 31
0.0
1001
REVIT
1002
{
1070
     1
1000
251060
1002
}
1002
{
1070
     5
1000
248263
1002
}
1002
{
1070
     2
1000
-2000151
1002
}
1002
{
1070
     3
1000
247327
1002
}
  0
LINE
  5
A9E
330
6C
100
AcDbEntity
  8
0
 62
     0
370
     0
100
AcDbLine
 10
-227.5305250241805
 20
-11.71912489816129
 30
0.0
 11
-227.5303839295939
 21
-11.71880081460633
 31
0.0
1001
REVIT
1002
{
1070
     1
1000
251060
1002
}
1002
{
1070
     5
1000
248263
1002
}
1002
{
1070
     2
1000
-2000151
1002
}
1002
{
1070
     3
1000
247327
1002
}
  0
LINE
  5
A9F
330
6C
100
AcDbEntity
  8
0
 62
     0
370
     0
100
AcDbLine
 10
-227.5303839295939
 20
-11.71880081460633
 30
0.0
 11
-227.5302952648061
 21
-11.71839122745575
 31
0.0
1001
REVIT
1002
{
1070
     1
1000
251060
1002
}
1002
{
1070
     5
1000
248263
1002
}
1002
{
1070
     2
1000
-2000151
1002
}
1002
{
1070
     3
1000
247327
1002
}
  0
LINE
  5
AA0
330
6C
100
AcDbEntity
  8
0
 62
     0
370
     0
100
AcDbLine
 10
-227.5302952648061
 20
-11.71839122745575
 30
0.0
 11
-227.5302650283649
 21
-11.71792397652723
 31
0.0
1001
REVIT
1002
{
1070
     1
1000
251060
1002
}
1002
{
1070
     5
1000
248263
1002
}
1002
{
1070
     2
1000
-2000151
1002
}
1002
{
1070
     3
1000
247327
1002
}
  0
LINE
  5
AA1
330
6C
100
AcDbEntity
  8
0
 62
     0
370
     0
100
AcDbLine
 10
-227.5302650283649
 20
-11.71792397652723
 30
0.0
 11
-227.530295264806
 21
-11.71743078599635
 31
0.0
1001
REVIT
1002
{
1070
     1
1000
251060
1002
}
1002
{
1070
     5
1000
248263
1002
}
1002
{
1070
     2
1000
-2000151
1002
}
1002
{
1070
     3
1000
247327
1002
}
  0
LINE
  5
AA2
330
6C
100
AcDbEntity
  8
0
 62
     0
370
     0
100
AcDbLine
 10
-227.530295264806
 20
-11.71743078599635
 30
0.0
 11
-227.530383929594
 21
-11.71694513402896
 31
0.0
1001
REVIT
1002
{
1070
     1
1000
251060
1002
}
1002
{
1070
     5
1000
248263
1002
}
1002
{
1070
     2
1000
-2000151
1002
}
1002
{
1070
     3
1000
247327
1002
}
  0
LINE
  5
AA3
330
6C
100
AcDbEntity
  8
0
 62
     0
370
     0
100
AcDbLine
 10
-227.530383929594
 20
-11.71694513402896
 30
0.0
 11
-227.5305250241805
 21
-11.71650000654967
 31
0.0
1001
REVIT
1002
{
1070
     1
1000
251060
1002
}
1002
{
1070
     5
1000
248263
1002
}
1002
{
1070
     2
1000
-2000151
1002
}
1002
{
1070
     3
1000
247327
1002
}
  0
LINE
  5
AA4
330
6C
100
AcDbEntity
  8
0
 62
     0
370
     0
100
AcDbLine
 10
-227.5305250241805
 20
-11.71650000654967
 30
0.0
 11
-227.5307089931035
 21
-11.7161256788408
 31
0.0
1001
REVIT
1002
{
1070
     1
1000
251060
1002
}
1002
{
1070
     5
1000
248263
1002
}
1002
{
1070
     2
1000
-2000151
1002
}
1002
{
1070
     3
1000
247327
1002
}
  0
LINE
  5
AA5
330
6C
100
AcDbEntity
  8
0
 62
     0
370
     0
100
AcDbLine
 10
-227.5307089931035
 20
-11.7161256788408
 30
0.0
 11
-227.5309233591712
 21
-11.71584766827365
 31
0.0
1001
REVIT
1002
{
1070
     1
1000
251060
1002
}
1002
{
1070
     5
1000
248263
1002
}
1002
{
1070
     2
1000
-2000151
1002
}
1002
{
1070
     3
1000
247327
1002
}
  0
LINE
  5
AA6
330
6C
100
AcDbEntity
  8
0
 62
     0
370
     0
100
AcDbLine
 10
-227.5309233591712
 20
-11.71584766827365
 30
0.0
 11
-227.5311535577111
 21
-11.71568499340694
 31
0.0
1001
REVIT
1002
{
1070
     1
1000
251060
1002
}
1002
{
1070
     5
1000
248263
1002
}
1002
{
1070
     2
1000
-2000151
1002
}
1002
{
1070
     3
1000
247327
1002
}
  0
LINE
  5
AA7
330
6C
100
AcDbEntity
  8
0
 62
     0
370
     0
100
AcDbLine
 10
-227.5311535577111
 20
-11.71568499340694
 30
0.0
 11
-227.5313839173118
 21
-11.71564885855784
 31
0.0
1001
REVIT
1002
{
1070
     1
1000
251060
1002
}
1002
{
1070
     5
1000
248263
1002
}
1002
{
1070
     2
1000
-2000151
1002
}
1002
{
1070
     3
1000
247327
1002
}
  0
LINE
  5
AA8
330
6C
100
AcDbEntity
  8
0
 62
     0
370
     0
100
AcDbLine
 10
-227.5313839173118
 20
-11.71564885855784
 30
0.0
 11
-227.531598723405
 21
-11.71574185861097
 31
0.0
1001
REVIT
1002
{
1070
     1
1000
251060
1002
}
1002
{
1070
     5
1000
248263
1002
}
1002
{
1070
     2
1000
-2000151
1002
}
1002
{
1070
     3
1000
247327
1002
}
  0
LINE
  5
AA9
330
6C
100
AcDbEntity
  8
0
 62
     0
370
     0
100
AcDbLine
 10
-227.531598723405
 20
-11.71574185861097
 30
0.0
 11
-227.5317832934146
 21
-11.71595776669681
 31
0.0
1001
REVIT
1002
{
1070
     1
1000
251060
1002
}
1002
{
1070
     5
1000
248263
1002
}
1002
{
1070
     2
1000
-2000151
1002
}
1002
{
1070
     3
1000
247327
1002
}
  0
LINE
  5
AAA
330
6C
100
AcDbEntity
  8
0
 62
     0
370
     0
100
AcDbLine
 10
-227.5317832934146
 20
-11.71595776669681
 30
0.0
 11
-227.5319249890882
 21
-11.71628192872873
 31
0.0
1001
REVIT
1002
{
1070
     1
1000
251060
1002
}
1002
{
1070
     5
1000
248263
1002
}
1002
{
1070
     2
1000
-2000151
1002
}
1002
{
1070
     3
1000
247327
1002
}
  0
LINE
  5
AAB
330
6C
100
AcDbEntity
  8
0
 62
     0
370
     0
100
AcDbLine
 10
-227.5319249890882
 20
-11.71628192872873
 30
0.0
 11
-227.5320140939031
 21
-11.71669224595277
 31
0.0
1001
REVIT
1002
{
1070
     1
1000
251060
1002
}
1002
{
1070
     5
1000
248263
1002
}
1002
{
1070
     2
1000
-2000151
1002
}
1002
{
1070
     3
1000
247327
1002
}
  0
LINE
  5
AAC
330
6C
100
AcDbEntity
  8
0
 62
     0
370
     0
100
AcDbLine
 10
-227.5320140939031
 20
-11.71669224595277
 30
0.0
 11
-227.5320444914051
 21
-11.71716068292885
 31
0.0
1001
REVIT
1002
{
1070
     1
1000
251060
1002
}
1002
{
1070
     5
1000
248263
1002
}
1002
{
1070
     2
1000
-2000151
1002
}
1002
{
1070
     3
1000
247327
1002
}
  0
LINE
  5
AAD
330
6C
100
AcDbEntity
  8
0
 62
     0
370
     0
100
AcDbLine
 10
-227.5320444914051
 20
-11.75102172793033
 30
0.0
 11
-227.532014093903
 21
-11.75151468168813
 31
0.0
1001
REVIT
1002
{
1070
     1
1000
251060
1002
}
1002
{
1070
     5
1000
248263
1002
}
1002
{
1070
     2
1000
-2000151
1002
}
1002
{
1070
     3
1000
247327
1002
}
  0
LINE
  5
AAE
330
6C
100
AcDbEntity
  8
0
 62
     0
370
     0
100
AcDbLine
 10
-227.532014093903
 20
-11.75151468168813
 30
0.0
 11
-227.5319249890884
 21
-11.75199686545216
 31
0.0
1001
REVIT
1002
{
1070
     1
1000
251060
1002
}
1002
{
1070
     5
1000
248263
1002
}
1002
{
1070
     2
1000
-2000151
1002
}
1002
{
1070
     3
1000
247327
1002
}
  0
LINE
  5
AAF
330
6C
100
AcDbEntity
  8
0
 62
     0
370
     0
100
AcDbLine
 10
-227.5319249890884
 20
-11.75199686545216
 30
0.0
 11
-227.5317832934145
 21
-11.75243531062181
 31
0.0
1001
REVIT
1002
{
1070
     1
1000
251060
1002
}
1002
{
1070
     5
1000
248263
1002
}
1002
{
1070
     2
1000
-2000151
1002
}
1002
{
1070
     3
1000
247327
1002
}
  0
LINE
  5
AB0
330
6C
100
AcDbEntity
  8
0
 62
     0
370
     0
100
AcDbLine
 10
-227.5317832934145
 20
-11.75243531062181
 30
0.0
 11
-227.5315987234053
 21
-11.75280008168444
 31
0.0
1001
REVIT
1002
{
1070
     1
1000
251060
1002
}
1002
{
1070
     5
1000
248263
1002
}
1002
{
1070
     2
1000
-2000151
1002
}
1002
{
1070
     3
1000
247327
1002
}
  0
LINE
  5
AB1
330
6C
100
AcDbEntity
  8
0
 62
     0
370
     0
100
AcDbLine
 10
-227.5315987234053
 20
-11.75280008168444
 30
0.0
 11
-227.5313839173116
 21
-11.75306633130624
 31
0.0
1001
REVIT
1002
{
1070
     1
1000
251060
1002
}
1002
{
1070
     5
1000
248263
1002
}
1002
{
1070
     2
1000
-2000151
1002
}
1002
{
1070
     3
1000
247327
1002
}
  0
LINE
  5
AB2
330
6C
100
AcDbEntity
  8
0
 62
     0
370
     0
100
AcDbLine
 10
-227.5313839173116
 20
-11.75306633130624
 30
0.0
 11
-227.5311535577114
 21
-11.75321599054126
 31
0.0
1001
REVIT
1002
{
1070
     1
1000
251060
1002
}
1002
{
1070
     5
1000
248263
1002
}
1002
{
1070
     2
1000
-2000151
1002
}
1002
{
1070
     3
1000
247327
1002
}
  0
LINE
  5
AB3
330
6C
100
AcDbEntity
  8
0
 62
     0
370
     0
100
AcDbLine
 10
-227.5311535577114
 20
-11.75321599054126
 30
0.0
 11
-227.5309233591714
 21
-11.75323897985707
 31
0.0
1001
REVIT
1002
{
1070
     1
1000
251060
1002
}
1002
{
1070
     5
1000
248263
1002
}
1002
{
1070
     2
1000
-2000151
1002
}
1002
{
1070
     3
1000
247327
1002
}
  0
LINE
  5
AB4
330
6C
100
AcDbEntity
  8
0
 62
     0
370
     0
100
AcDbLine
 10
-227.5309233591714
 20
-11.75323897985707
 30
0.0
 11
-227.5307089931033
 21
-11.75313386396065
 31
0.0
1001
REVIT
1002
{
1070
     1
1000
251060
1002
}
1002
{
1070
     5
1000
248263
1002
}
1002
{
1070
     2
1000
-2000151
1002
}
1002
{
1070
     3
1000
247327
1002
}
  0
LINE
  5
AB5
330
6C
100
AcDbEntity
  8
0
 62
     0
370
     0
100
AcDbLine
 10
-227.5307089931033
 20
-11.75313386396065
 30
0.0
 11
-227.5305250241805
 21
-11.75290791442858
 31
0.0
1001
REVIT
1002
{
1070
     1
1000
251060
1002
}
1002
{
1070
     5
1000
248263
1002
}
1002
{
1070
     2
1000
-2000151
1002
}
1002
{
1070
     3
1000
247327
1002
}
  0
LINE
  5
AB6
330
6C
100
AcDbEntity
  8
0
 62
     0
370
     0
100
AcDbLine
 10
-227.5305250241805
 20
-11.75290791442858
 30
0.0
 11
-227.5303839295939
 21
-11.75257658528661
 31
0.0
1001
REVIT
1002
{
1070
     1
1000
251060
1002
}
1002
{
1070
     5
1000
248263
1002
}
1002
{
1070
     2
1000
-2000151
1002
}
1002
{
1070
     3
1000
247327
1002
}
  0
LINE
  5
AB7
330
6C
100
AcDbEntity
  8
0
 62
     0
370
     0
100
AcDbLine
 10
-227.5303839295939
 20
-11.75257658528661
 30
0.0
 11
-227.5302952648061
 21
-11.75216244496038
 31
0.0
1001
REVIT
1002
{
1070
     1
1000
251060
1002
}
1002
{
1070
     5
1000
248263
1002
}
1002
{
1070
     2
1000
-2000151
1002
}
1002
{
1070
     3
1000
247327
1002
}
  0
LINE
  5
AB8
330
6C
100
AcDbEntity
  8
0
 62
     0
370
     0
100
AcDbLine
 10
-227.5302952648061
 20
-11.75216244496038
 30
0.0
 11
-227.5302650283649
 21
-11.75169364130918
 31
0.0
1001
REVIT
1002
{
1070
     1
1000
251060
1002
}
1002
{
1070
     5
1000
248263
1002
}
1002
{
1070
     2
1000
-2000151
1002
}
1002
{
1070
     3
1000
247327
1002
}
  0
LINE
  5
AB9
330
6C
100
AcDbEntity
  8
0
 62
     0
370
     0
100
AcDbLine
 10
-227.5302650283649
 20
-11.75169364130918
 30
0.0
 11
-227.530295264806
 21
-11.75120200350098
 31
0.0
1001
REVIT
1002
{
1070
     1
1000
251060
1002
}
1002
{
1070
     5
1000
248263
1002
}
1002
{
1070
     2
1000
-2000151
1002
}
1002
{
1070
     3
1000
247327
1002
}
  0
LINE
  5
ABA
330
6C
100
AcDbEntity
  8
0
 62
     0
370
     0
100
AcDbLine
 10
-227.530295264806
 20
-11.75120200350098
 30
0.0
 11
-227.530383929594
 21
-11.75072090470923
 31
0.0
1001
REVIT
1002
{
1070
     1
1000
251060
1002
}
1002
{
1070
     5
1000
248263
1002
}
1002
{
1070
     2
1000
-2000151
1002
}
1002
{
1070
     3
1000
247327
1002
}
  0
LINE
  5
ABB
330
6C
100
AcDbEntity
  8
0
 62
     0
370
     0
100
AcDbLine
 10
-227.530383929594
 20
-11.75072090470923
 30
0.0
 11
-227.5305250241805
 21
-11.75028302281697
 31
0.0
1001
REVIT
1002
{
1070
     1
1000
251060
1002
}
1002
{
1070
     5
1000
248263
1002
}
1002
{
1070
     2
1000
-2000151
1002
}
1002
{
1070
     3
1000
247327
1002
}
  0
LINE
  5
ABC
330
6C
100
AcDbEntity
  8
0
 62
     0
370
     0
100
AcDbLine
 10
-227.5305250241805
 20
-11.75028302281697
 30
0.0
 11
-227.5307089931035
 21
-11.74991814240775
 31
0.0
1001
REVIT
1002
{
1070
     1
1000
251060
1002
}
1002
{
1070
     5
1000
248263
1002
}
1002
{
1070
     2
1000
-2000151
1002
}
1002
{
1070
     3
1000
247327
1002
}
  0
LINE
  5
ABD
330
6C
100
AcDbEntity
  8
0
 62
     0
370
     0
100
AcDbLine
 10
-227.5307089931035
 20
-11.74991814240775
 30
0.0
 11
-227.5309233591712
 21
-11.74965114011551
 31
0.0
1001
REVIT
1002
{
1070
     1
1000
251060
1002
}
1002
{
1070
     5
1000
248263
1002
}
1002
{
1070
     2
1000
-2000151
1002
}
1002
{
1070
     3
1000
247327
1002
}
  0
LINE
  5
ABE
330
6C
100
AcDbEntity
  8
0
 62
     0
370
     0
100
AcDbLine
 10
-227.5309233591712
 20
-11.74965114011551
 30
0.0
 11
-227.5311535577111
 21
-11.74950028656379
 31
0.0
1001
REVIT
1002
{
1070
     1
1000
251060
1002
}
1002
{
1070
     5
1000
248263
1002
}
1002
{
1070
     2
1000
-2000151
1002
}
1002
{
1070
     3
1000
247327
1002
}
  0
LINE
  5
ABF
330
6C
100
AcDbEntity
  8
0
 62
     0
370
     0
100
AcDbLine
 10
-227.5311535577111
 20
-11.74950028656379
 30
0.0
 11
-227.5313839173118
 21
-11.74947598130057
 31
0.0
1001
REVIT
1002
{
1070
     1
1000
251060
1002
}
1002
{
1070
     5
1000
248263
1002
}
1002
{
1070
     2
1000
-2000151
1002
}
1002
{
1070
     3
1000
247327
1002
}
  0
LINE
  5
AC0
330
6C
100
AcDbEntity
  8
0
 62
     0
370
     0
100
AcDbLine
 10
-227.5313839173118
 20
-11.74947598130057
 30
0.0
 11
-227.531598723405
 21
-11.74958001222511
 31
0.0
1001
REVIT
1002
{
1070
     1
1000
251060
1002
}
1002
{
1070
     5
1000
248263
1002
}
1002
{
1070
     2
1000
-2000151
1002
}
1002
{
1070
     3
1000
247327
1002
}
  0
LINE
  5
AC1
330
6C
100
AcDbEntity
  8
0
 62
     0
370
     0
100
AcDbLine
 10
-227.531598723405
 20
-11.74958001222511
 30
0.0
 11
-227.5317832934146
 21
-11.74980539847802
 31
0.0
1001
REVIT
1002
{
1070
     1
1000
251060
1002
}
1002
{
1070
     5
1000
248263
1002
}
1002
{
1070
     2
1000
-2000151
1002
}
1002
{
1070
     3
1000
247327
1002
}
  0
LINE
  5
AC2
330
6C
100
AcDbEntity
  8
0
 62
     0
370
     0
100
AcDbLine
 10
-227.5317832934146
 20
-11.74980539847802
 30
0.0
 11
-227.5319249890882
 21
-11.75013683696439
 31
0.0
1001
REVIT
1002
{
1070
     1
1000
251060
1002
}
1002
{
1070
     5
1000
248263
1002
}
1002
{
1070
     2
1000
-2000151
1002
}
1002
{
1070
     3
1000
247327
1002
}
  0
LINE
  5
AC3
330
6C
100
AcDbEntity
  8
0
 62
     0
370
     0
100
AcDbLine
 10
-227.5319249890882
 20
-11.75013683696439
 30
0.0
 11
-227.5320140939031
 21
-11.75055172996065
 31
0.0
1001
REVIT
1002
{
1070
     1
1000
251060
1002
}
1002
{
1070
     5
1000
248263
1002
}
1002
{
1070
     2
1000
-2000151
1002
}
1002
{
1070
     3
1000
247327
1002
}
  0
LINE
  5
AC4
330
6C
100
AcDbEntity
  8
0
 62
     0
370
     0
100
AcDbLine
 10
-227.5320140939031
 20
-11.75055172996065
 30
0.0
 11
-227.5320444914051
 21
-11.75102172793033
 31
0.0
1001
REVIT
1002
{
1070
     1
1000
251060
1002
}
1002
{
1070
     5
1000
248263
1002
}
1002
{
1070
     2
1000
-2000151
1002
}
1002
{
1070
     3
1000
247327
1002
}
  0
LINE
  5
AC5
330
6C
100
AcDbEntity
  8
0
 62
     0
370
     0
100
AcDbLine
 10
-227.5094076358197
 20
-11.72687067216032
 30
0.0
 11
-227.509435984599
 21
-11.72639352332728
 31
0.0
1001
REVIT
1002
{
1070
     1
1000
251060
1002
}
1002
{
1070
     5
1000
248263
1002
}
1002
{
1070
     2
1000
-2000151
1002
}
1002
{
1070
     3
1000
247327
1002
}
  0
LINE
  5
AC6
330
6C
100
AcDbEntity
  8
0
 62
     0
370
     0
100
AcDbLine
 10
-227.509435984599
 20
-11.72639352332728
 30
0.0
 11
-227.5095191135656
 21
-11.72592444769546
 31
0.0
1001
REVIT
1002
{
1070
     1
1000
251060
1002
}
1002
{
1070
     5
1000
248263
1002
}
1002
{
1070
     2
1000
-2000151
1002
}
1002
{
1070
     3
1000
247327
1002
}
  0
LINE
  5
AC7
330
6C
100
AcDbEntity
  8
0
 62
     0
370
     0
100
AcDbLine
 10
-227.5095191135656
 20
-11.72592444769546
 30
0.0
 11
-227.5096513973902
 21
-11.72549530899787
 31
0.0
1001
REVIT
1002
{
1070
     1
1000
251060
1002
}
1002
{
1070
     5
1000
248263
1002
}
1002
{
1070
     2
1000
-2000151
1002
}
1002
{
1070
     3
1000
247327
1002
}
  0
LINE
  5
AC8
330
6C
100
AcDbEntity
  8
0
 62
     0
370
     0
100
AcDbLine
 10
-227.5096513973902
 20
-11.72549530899787
 30
0.0
 11
-227.5098238755246
 21
-11.725135297389
 31
0.0
1001
REVIT
1002
{
1070
     1
1000
251060
1002
}
1002
{
1070
     5
1000
248263
1002
}
1002
{
1070
     2
1000
-2000151
1002
}
1002
{
1070
     3
1000
247327
1002
}
  0
LINE
  5
AC9
330
6C
100
AcDbEntity
  8
0
 62
     0
370
     0
100
AcDbLine
 10
-227.5098238755246
 20
-11.725135297389
 30
0.0
 11
-227.5100248483229
 21
-11.72486895492382
 31
0.0
1001
REVIT
1002
{
1070
     1
1000
251060
1002
}
1002
{
1070
     5
1000
248263
1002
}
1002
{
1070
     2
1000
-2000151
1002
}
1002
{
1070
     3
1000
247327
1002
}
  0
LINE
  5
ACA
330
6C
100
AcDbEntity
  8
0
 62
     0
370
     0
100
AcDbLine
 10
-227.5100248483229
 20
-11.72486895492382
 30
0.0
 11
-227.5102406597763
 21
-11.72471450103332
 31
0.0
1001
REVIT
1002
{
1070
     1
1000
251060
1002
}
1002
{
1070
     5
1000
248263
1002
}
1002
{
1070
     2
1000
-2000151
1002
}
1002
{
1070
     3
1000
247327
1002
}
  0
LINE
  5
ACB
330
6C
100
AcDbEntity
  8
0
 62
     0
370
     0
100
AcDbLine
 10
-227.5102406597763
 20
-11.72471450103332
 30
0.0
 11
-227.5104566174277
 21
-11.72468257260738
 31
0.0
1001
REVIT
1002
{
1070
     1
1000
251060
1002
}
1002
{
1070
     5
1000
248263
1002
}
1002
{
1070
     2
1000
-2000151
1002
}
1002
{
1070
     3
1000
247327
1002
}
  0
LINE
  5
ACC
330
6C
100
AcDbEntity
  8
0
 62
     0
370
     0
100
AcDbLine
 10
-227.5104566174277
 20
-11.72468257260738
 30
0.0
 11
-227.5106579896446
 21
-11.72477546939094
 31
0.0
1001
REVIT
1002
{
1070
     1
1000
251060
1002
}
1002
{
1070
     5
1000
248263
1002
}
1002
{
1070
     2
1000
-2000151
1002
}
1002
{
1070
     3
1000
247327
1002
}
  0
LINE
  5
ACD
330
6C
100
AcDbEntity
  8
0
 62
     0
370
     0
100
AcDbLine
 10
-227.5106579896446
 20
-11.72477546939094
 30
0.0
 11
-227.5108310133958
 21
-11.72498696404888
 31
0.0
1001
REVIT
1002
{
1070
     1
1000
251060
1002
}
1002
{
1070
     5
1000
248263
1002
}
1002
{
1070
     2
1000
-2000151
1002
}
1002
{
1070
     3
1000
247327
1002
}
  0
LINE
  5
ACE
330
6C
100
AcDbEntity
  8
0
 62
     0
370
     0
100
AcDbLine
 10
-227.5108310133958
 20
-11.72498696404888
 30
0.0
 11
-227.5109638428375
 21
-11.72530269875334
 31
0.0
1001
REVIT
1002
{
1070
     1
1000
251060
1002
}
1002
{
1070
     5
1000
248263
1002
}
1002
{
1070
     2
1000
-2000151
1002
}
1002
{
1070
     3
1000
247327
1002
}
  0
LINE
  5
ACF
330
6C
100
AcDbEntity
  8
0
 62
     0
370
     0
100
AcDbLine
 10
-227.5109638428375
 20
-11.72530269875334
 30
0.0
 11
-227.5110473712239
 21
-11.72570114876232
 31
0.0
1001
REVIT
1002
{
1070
     1
1000
251060
1002
}
1002
{
1070
     5
1000
248263
1002
}
1002
{
1070
     2
1000
-2000151
1002
}
1002
{
1070
     3
1000
247327
1002
}
  0
LINE
  5
AD0
330
6C
100
AcDbEntity
  8
0
 62
     0
370
     0
100
AcDbLine
 10
-227.5110473712239
 20
-11.72570114876232
 30
0.0
 11
-227.511075866201
 21
-11.72615509136863
 31
0.0
1001
REVIT
1002
{
1070
     1
1000
251060
1002
}
1002
{
1070
     5
1000
248263
1002
}
1002
{
1070
     2
1000
-2000151
1002
}
1002
{
1070
     3
1000
247327
1002
}
  0
LINE
  5
AD1
330
6C
100
AcDbEntity
  8
0
 62
     0
370
     0
100
AcDbLine
 10
-227.511075866201
 20
-11.72615509136863
 30
0.0
 11
-227.5110473712241
 21
-11.72663347958938
 31
0.0
1001
REVIT
1002
{
1070
     1
1000
251060
1002
}
1002
{
1070
     5
1000
248263
1002
}
1002
{
1070
     2
1000
-2000151
1002
}
1002
{
1070
     3
1000
247327
1002
}
  0
LINE
  5
AD2
330
6C
100
AcDbEntity
  8
0
 62
     0
370
     0
100
AcDbLine
 10
-227.5110473712241
 20
-11.72663347958938
 30
0.0
 11
-227.5109638428374
 21
-11.72710358793724
 31
0.0
1001
REVIT
1002
{
1070
     1
1000
251060
1002
}
1002
{
1070
     5
1000
248263
1002
}
1002
{
1070
     2
1000
-2000151
1002
}
1002
{
1070
     3
1000
247327
1002
}
  0
LINE
  5
AD3
330
6C
100
AcDbEntity
  8
0
 62
     0
370
     0
100
AcDbLine
 10
-227.5109638428374
 20
-11.72710358793724
 30
0.0
 11
-227.5108310133958
 21
-11.72753327596363
 31
0.0
1001
REVIT
1002
{
1070
     1
1000
251060
1002
}
1002
{
1070
     5
1000
248263
1002
}
1002
{
1070
     2
1000
-2000151
1002
}
1002
{
1070
     3
1000
247327
1002
}
  0
LINE
  5
AD4
330
6C
100
AcDbEntity
  8
0
 62
     0
370
     0
100
AcDbLine
 10
-227.5108310133958
 20
-11.72753327596363
 30
0.0
 11
-227.5106579896444
 21
-11.72789320632239
 31
0.0
1001
REVIT
1002
{
1070
     1
1000
251060
1002
}
1002
{
1070
     5
1000
248263
1002
}
1002
{
1070
     2
1000
-2000151
1002
}
1002
{
1070
     3
1000
247327
1002
}
  0
LINE
  5
AD5
330
6C
100
AcDbEntity
  8
0
 62
     0
370
     0
100
AcDbLine
 10
-227.5106579896444
 20
-11.72789320632239
 30
0.0
 11
-227.5104566174277
 21
-11.72815885873019
 31
0.0
1001
REVIT
1002
{
1070
     1
1000
251060
1002
}
1002
{
1070
     5
1000
248263
1002
}
1002
{
1070
     2
1000
-2000151
1002
}
1002
{
1070
     3
1000
247327
1002
}
  0
LINE
  5
AD6
330
6C
100
AcDbEntity
  8
0
 62
     0
370
     0
100
AcDbLine
 10
-227.5104566174277
 20
-11.72815885873019
 30
0.0
 11
-227.5102406597768
 21
-11.72831219865648
 31
0.0
1001
REVIT
1002
{
1070
     1
1000
251060
1002
}
1002
{
1070
     5
1000
248263
1002
}
1002
{
1070
     2
1000
-2000151
1002
}
1002
{
1070
     3
1000
247327
1002
}
  0
LINE
  5
AD7
330
6C
100
AcDbEntity
  8
0
 62
     0
370
     0
100
AcDbLine
 10
-227.5102406597768
 20
-11.72831219865648
 30
0.0
 11
-227.5100248483228
 21
-11.72834288769665
 31
0.0
1001
REVIT
1002
{
1070
     1
1000
251060
1002
}
1002
{
1070
     5
1000
248263
1002
}
1002
{
1070
     2
1000
-2000151
1002
}
1002
{
1070
     3
1000
247327
1002
}
  0
LINE
  5
AD8
330
6C
100
AcDbEntity
  8
0
 62
     0
370
     0
100
AcDbLine
 10
-227.5100248483228
 20
-11.72834288769665
 30
0.0
 11
-227.5098238755248
 21
-11.72824895819746
 31
0.0
1001
REVIT
1002
{
1070
     1
1000
251060
1002
}
1002
{
1070
     5
1000
248263
1002
}
1002
{
1070
     2
1000
-2000151
1002
}
1002
{
1070
     3
1000
247327
1002
}
  0
LINE
  5
AD9
330
6C
100
AcDbEntity
  8
0
 62
     0
370
     0
100
AcDbLine
 10
-227.5098238755248
 20
-11.72824895819746
 30
0.0
 11
-227.50965139739
 21
-11.72803691420918
 31
0.0
1001
REVIT
1002
{
1070
     1
1000
251060
1002
}
1002
{
1070
     5
1000
248263
1002
}
1002
{
1070
     2
1000
-2000151
1002
}
1002
{
1070
     3
1000
247327
1002
}
  0
LINE
  5
ADA
330
6C
100
AcDbEntity
  8
0
 62
     0
370
     0
100
AcDbLine
 10
-227.50965139739
 20
-11.72803691420918
 30
0.0
 11
-227.5095191135658
 21
-11.72772126075289
 31
0.0
1001
REVIT
1002
{
1070
     1
1000
251060
1002
}
1002
{
1070
     5
1000
248263
1002
}
1002
{
1070
     2
1000
-2000151
1002
}
1002
{
1070
     3
1000
247327
1002
}
  0
LINE
  5
ADB
330
6C
100
AcDbEntity
  8
0
 62
     0
370
     0
100
AcDbLine
 10
-227.5095191135658
 20
-11.72772126075289
 30
0.0
 11
-227.5094359845989
 21
-11.72732350080089
 31
0.0
1001
REVIT
1002
{
1070
     1
1000
251060
1002
}
1002
{
1070
     5
1000
248263
1002
}
1002
{
1070
     2
1000
-2000151
1002
}
1002
{
1070
     3
1000
247327
1002
}
  0
LINE
  5
ADC
330
6C
100
AcDbEntity
  8
0
 62
     0
370
     0
100
AcDbLine
 10
-227.5094359845989
 20
-11.72732350080089
 30
0.0
 11
-227.5094076358197
 21
-11.72687067216032
 31
0.0
1001
REVIT
1002
{
1070
     1
1000
251060
1002
}
1002
{
1070
     5
1000
248263
1002
}
1002
{
1070
     2
1000
-2000151
1002
}
1002
{
1070
     3
1000
247327
1002
}
  0
LINE
  5
ADD
330
6C
100
AcDbEntity
  8
0
 62
     0
370
     0
100
AcDbLine
 10
-227.5094076358196
 20
-11.75956925366225
 30
0.0
 11
-227.509435984599
 21
-11.75909356061539
 31
0.0
1001
REVIT
1002
{
1070
     1
1000
251060
1002
}
1002
{
1070
     5
1000
248263
1002
}
1002
{
1070
     2
1000
-2000151
1002
}
1002
{
1070
     3
1000
247327
1002
}
  0
LINE
  5
ADE
330
6C
100
AcDbEntity
  8
0
 62
     0
370
     0
100
AcDbLine
 10
-227.509435984599
 20
-11.75909356061539
 30
0.0
 11
-227.5095191135656
 21
-11.75862875387989
 31
0.0
1001
REVIT
1002
{
1070
     1
1000
251060
1002
}
1002
{
1070
     5
1000
248263
1002
}
1002
{
1070
     2
1000
-2000151
1002
}
1002
{
1070
     3
1000
247327
1002
}
  0
LINE
  5
ADF
330
6C
100
AcDbEntity
  8
0
 62
     0
370
     0
100
AcDbLine
 10
-227.5095191135656
 20
-11.75862875387989
 30
0.0
 11
-227.5096513973902
 21
-11.75820640831294
 31
0.0
1001
REVIT
1002
{
1070
     1
1000
251060
1002
}
1002
{
1070
     5
1000
248263
1002
}
1002
{
1070
     2
1000
-2000151
1002
}
1002
{
1070
     3
1000
247327
1002
}
  0
LINE
  5
AE0
330
6C
100
AcDbEntity
  8
0
 62
     0
370
     0
100
AcDbLine
 10
-227.5096513973902
 20
-11.75820640831294
 30
0.0
 11
-227.5098238755246
 21
-11.7578552539208
 31
0.0
1001
REVIT
1002
{
1070
     1
1000
251060
1002
}
1002
{
1070
     5
1000
248263
1002
}
1002
{
1070
     2
1000
-2000151
1002
}
1002
{
1070
     3
1000
247327
1002
}
  0
LINE
  5
AE1
330
6C
100
AcDbEntity
  8
0
 62
     0
370
     0
100
AcDbLine
 10
-227.5098238755246
 20
-11.7578552539208
 30
0.0
 11
-227.5100248483229
 21
-11.75759923195005
 31
0.0
1001
REVIT
1002
{
1070
     1
1000
251060
1002
}
1002
{
1070
     5
1000
248263
1002
}
1002
{
1070
     2
1000
-2000151
1002
}
1002
{
1070
     3
1000
247327
1002
}
  0
LINE
  5
AE2
330
6C
100
AcDbEntity
  8
0
 62
     0
370
     0
100
AcDbLine
 10
-227.5100248483229
 20
-11.75759923195005
 30
0.0
 11
-227.5102406597763
 21
-11.75745586055892
 31
0.0
1001
REVIT
1002
{
1070
     1
1000
251060
1002
}
1002
{
1070
     5
1000
248263
1002
}
1002
{
1070
     2
1000
-2000151
1002
}
1002
{
1070
     3
1000
247327
1002
}
  0
LINE
  5
AE3
330
6C
100
AcDbEntity
  8
0
 62
     0
370
     0
100
AcDbLine
 10
-227.5102406597763
 20
-11.75745586055892
 30
0.0
 11
-227.5104566174277
 21
-11.75743502213999
 31
0.0
1001
REVIT
1002
{
1070
     1
1000
251060
1002
}
1002
{
1070
     5
1000
248263
1002
}
1002
{
1070
     2
1000
-2000151
1002
}
1002
{
1070
     3
1000
247327
1002
}
  0
LINE
  5
AE4
330
6C
100
AcDbEntity
  8
0
 62
     0
370
     0
100
AcDbLine
 10
-227.5104566174277
 20
-11.75743502213999
 30
0.0
 11
-227.5106579896446
 21
-11.75753825992922
 31
0.0
1001
REVIT
1002
{
1070
     1
1000
251060
1002
}
1002
{
1070
     5
1000
248263
1002
}
1002
{
1070
     2
1000
-2000151
1002
}
1002
{
1070
     3
1000
247327
1002
}
  0
LINE
  5
AE5
330
6C
100
AcDbEntity
  8
0
 62
     0
370
     0
100
AcDbLine
 10
-227.5106579896446
 20
-11.75753825992922
 30
0.0
 11
-227.5108310133958
 21
-11.75775863982278
 31
0.0
1001
REVIT
1002
{
1070
     1
1000
251060
1002
}
1002
{
1070
     5
1000
248263
1002
}
1002
{
1070
     2
1000
-2000151
1002
}
1002
{
1070
     3
1000
247327
1002
}
  0
LINE
  5
AE6
330
6C
100
AcDbEntity
  8
0
 62
     0
370
     0
100
AcDbLine
 10
-227.5108310133958
 20
-11.75775863982278
 30
0.0
 11
-227.5109638428375
 21
-11.75808119567678
 31
0.0
1001
REVIT
1002
{
1070
     1
1000
251060
1002
}
1002
{
1070
     5
1000
248263
1002
}
1002
{
1070
     2
1000
-2000151
1002
}
1002
{
1070
     3
1000
247327
1002
}
  0
LINE
  5
AE7
330
6C
100
AcDbEntity
  8
0
 62
     0
370
     0
100
AcDbLine
 10
-227.5109638428375
 20
-11.75808119567678
 30
0.0
 11
-227.5110473712239
 21
-11.75848393509338
 31
0.0
1001
REVIT
1002
{
1070
     1
1000
251060
1002
}
1002
{
1070
     5
1000
248263
1002
}
1002
{
1070
     2
1000
-2000151
1002
}
1002
{
1070
     3
1000
247327
1002
}
  0
LINE
  5
AE8
330
6C
100
AcDbEntity
  8
0
 62
     0
370
     0
100
AcDbLine
 10
-227.5110473712239
 20
-11.75848393509338
 30
0.0
 11
-227.511075866201
 21
-11.75893934099351
 31
0.0
1001
REVIT
1002
{
1070
     1
1000
251060
1002
}
1002
{
1070
     5
1000
248263
1002
}
1002
{
1070
     2
1000
-2000151
1002
}
1002
{
1070
     3
1000
247327
1002
}
  0
LINE
  5
AE9
330
6C
100
AcDbEntity
  8
0
 62
     0
370
     0
100
AcDbLine
 10
-227.511075866201
 20
-11.75893934099351
 30
0.0
 11
-227.5110473712241
 21
-11.75941626592044
 31
0.0
1001
REVIT
1002
{
1070
     1
1000
251060
1002
}
1002
{
1070
     5
1000
248263
1002
}
1002
{
1070
     2
1000
-2000151
1002
}
1002
{
1070
     3
1000
247327
1002
}
  0
LINE
  5
AEA
330
6C
100
AcDbEntity
  8
0
 62
     0
370
     0
100
AcDbLine
 10
-227.5110473712241
 20
-11.75941626592044
 30
0.0
 11
-227.5109638428374
 21
-11.75988208486069
 31
0.0
1001
REVIT
1002
{
1070
     1
1000
251060
1002
}
1002
{
1070
     5
1000
248263
1002
}
1002
{
1070
     2
1000
-2000151
1002
}
1002
{
1070
     3
1000
247327
1002
}
  0
LINE
  5
AEB
330
6C
100
AcDbEntity
  8
0
 62
     0
370
     0
100
AcDbLine
 10
-227.5109638428374
 20
-11.75988208486069
 30
0.0
 11
-227.5108310133958
 21
-11.76030495173752
 31
0.0
1001
REVIT
1002
{
1070
     1
1000
251060
1002
}
1002
{
1070
     5
1000
248263
1002
}
1002
{
1070
     2
1000
-2000151
1002
}
1002
{
1070
     3
1000
247327
1002
}
  0
LINE
  5
AEC
330
6C
100
AcDbEntity
  8
0
 62
     0
370
     0
100
AcDbLine
 10
-227.5108310133958
 20
-11.76030495173752
 30
0.0
 11
-227.5106579896444
 21
-11.76065599686067
 31
0.0
1001
REVIT
1002
{
1070
     1
1000
251060
1002
}
1002
{
1070
     5
1000
248263
1002
}
1002
{
1070
     2
1000
-2000151
1002
}
1002
{
1070
     3
1000
247327
1002
}
  0
LINE
  5
AED
330
6C
100
AcDbEntity
  8
0
 62
     0
370
     0
100
AcDbLine
 10
-227.5106579896444
 20
-11.76065599686067
 30
0.0
 11
-227.5104566174277
 21
-11.76091130826279
 31
0.0
1001
REVIT
1002
{
1070
     1
1000
251060
1002
}
1002
{
1070
     5
1000
248263
1002
}
1002
{
1070
     2
1000
-2000151
1002
}
1002
{
1070
     3
1000
247327
1002
}
  0
LINE
  5
AEE
330
6C
100
AcDbEntity
  8
0
 62
     0
370
     0
100
AcDbLine
 10
-227.5104566174277
 20
-11.76091130826279
 30
0.0
 11
-227.5102406597768
 21
-11.76105355818209
 31
0.0
1001
REVIT
1002
{
1070
     1
1000
251060
1002
}
1002
{
1070
     5
1000
248263
1002
}
1002
{
1070
     2
1000
-2000151
1002
}
1002
{
1070
     3
1000
247327
1002
}
  0
LINE
  5
AEF
330
6C
100
AcDbEntity
  8
0
 62
     0
370
     0
100
AcDbLine
 10
-227.5102406597768
 20
-11.76105355818209
 30
0.0
 11
-227.5100248483228
 21
-11.76107316472288
 31
0.0
1001
REVIT
1002
{
1070
     1
1000
251060
1002
}
1002
{
1070
     5
1000
248263
1002
}
1002
{
1070
     2
1000
-2000151
1002
}
1002
{
1070
     3
1000
247327
1002
}
  0
LINE
  5
AF0
330
6C
100
AcDbEntity
  8
0
 62
     0
370
     0
100
AcDbLine
 10
-227.5100248483228
 20
-11.76107316472288
 30
0.0
 11
-227.5098238755248
 21
-11.76096891472924
 31
0.0
1001
REVIT
1002
{
1070
     1
1000
251060
1002
}
1002
{
1070
     5
1000
248263
1002
}
1002
{
1070
     2
1000
-2000151
1002
}
1002
{
1070
     3
1000
247327
1002
}
  0
LINE
  5
AF1
330
6C
100
AcDbEntity
  8
0
 62
     0
370
     0
100
AcDbLine
 10
-227.5098238755248
 20
-11.76096891472924
 30
0.0
 11
-227.50965139739
 21
-11.76074801352425
 31
0.0
1001
REVIT
1002
{
1070
     1
1000
251060
1002
}
1002
{
1070
     5
1000
248263
1002
}
1002
{
1070
     2
1000
-2000151
1002
}
1002
{
1070
     3
1000
247327
1002
}
  0
LINE
  5
AF2
330
6C
100
AcDbEntity
  8
0
 62
     0
370
     0
100
AcDbLine
 10
-227.50965139739
 20
-11.76074801352425
 30
0.0
 11
-227.5095191135658
 21
-11.76042556693731
 31
0.0
1001
REVIT
1002
{
1070
     1
1000
251060
1002
}
1002
{
1070
     5
1000
248263
1002
}
1002
{
1070
     2
1000
-2000151
1002
}
1002
{
1070
     3
1000
247327
1002
}
  0
LINE
  5
AF3
330
6C
100
AcDbEntity
  8
0
 62
     0
370
     0
100
AcDbLine
 10
-227.5095191135658
 20
-11.76042556693731
 30
0.0
 11
-227.5094359845989
 21
-11.76002353808899
 31
0.0
1001
REVIT
1002
{
1070
     1
1000
251060
1002
}
1002
{
1070
     5
1000
248263
1002
}
1002
{
1070
     2
1000
-2000151
1002
}
1002
{
1070
     3
1000
247327
1002
}
  0
LINE
  5
AF4
330
6C
100
AcDbEntity
  8
0
 62
     0
370
     0
100
AcDbLine
 10
-227.5094359845989
 20
-11.76002353808899
 30
0.0
 11
-227.5094076358196
 21
-11.75956925366225
 31
0.0
1001
REVIT
1002
{
1070
     1
1000
251060
1002
}
1002
{
1070
     5
1000
248263
1002
}
1002
{
1070
     2
1000
-2000151
1002
}
1002
{
1070
     3
1000
247327
1002
}
  0
LINE
  5
AF5
330
6C
100
AcDbEntity
  8
0
 62
     0
370
     0
100
AcDbLine
 10
-227.5329181212857
 20
-11.71727523672958
 30
0.0
 11
-227.5328876958366
 21
-11.71680698418936
 31
0.0
1001
REVIT
1002
{
1070
     1
1000
251060
1002
}
1002
{
1070
     5
1000
248263
1002
}
1002
{
1070
     2
1000
-2000151
1002
}
1002
{
1070
     3
1000
247327
1002
}
  0
LINE
  5
AF6
330
6C
100
AcDbEntity
  8
0
 62
     0
370
     0
100
AcDbLine
 10
-227.5328876958366
 20
-11.71680698418936
 30
0.0
 11
-227.532798509093
 21
-11.71639681761986
 31
0.0
1001
REVIT
1002
{
1070
     1
1000
251060
1002
}
1002
{
1070
     5
1000
248263
1002
}
1002
{
1070
     2
1000
-2000151
1002
}
1002
{
1070
     3
1000
247327
1002
}
  0
LINE
  5
AF7
330
6C
100
AcDbEntity
  8
0
 62
     0
370
     0
100
AcDbLine
 10
-227.532798509093
 20
-11.71639681761986
 30
0.0
 11
-227.5326566831153
 21
-11.71607276214289
 31
0.0
1001
REVIT
1002
{
1070
     1
1000
251060
1002
}
1002
{
1070
     5
1000
248263
1002
}
1002
{
1070
     2
1000
-2000151
1002
}
1002
{
1070
     3
1000
247327
1002
}
  0
LINE
  5
AF8
330
6C
100
AcDbEntity
  8
0
 62
     0
370
     0
100
AcDbLine
 10
-227.5326566831153
 20
-11.71607276214289
 30
0.0
 11
-227.5324719433371
 21
-11.71585690925518
 31
0.0
1001
REVIT
1002
{
1070
     1
1000
251060
1002
}
1002
{
1070
     5
1000
248263
1002
}
1002
{
1070
     2
1000
-2000151
1002
}
1002
{
1070
     3
1000
247327
1002
}
  0
LINE
  5
AF9
330
6C
100
AcDbEntity
  8
0
 62
     0
370
     0
100
AcDbLine
 10
-227.5324719433371
 20
-11.71585690925518
 30
0.0
 11
-227.5322569396109
 21
-11.71576390934054
 31
0.0
1001
REVIT
1002
{
1070
     1
1000
251060
1002
}
1002
{
1070
     5
1000
248263
1002
}
1002
{
1070
     2
1000
-2000151
1002
}
1002
{
1070
     3
1000
247327
1002
}
  0
LINE
  5
AFA
330
6C
100
AcDbEntity
  8
0
 62
     0
370
     0
100
AcDbLine
 10
-227.5322569396109
 20
-11.71576390934054
 30
0.0
 11
-227.5322569396109
 21
-11.71576390934054
 31
0.0
1001
REVIT
1002
{
1070
     1
1000
251060
1002
}
1002
{
1070
     5
1000
248263
1002
}
1002
{
1070
     2
1000
-2000151
1002
}
1002
{
1070
     3
1000
247327
1002
}
  0
LINE
  5
AFB
330
6C
100
AcDbEntity
  8
0
 62
     0
370
     0
100
AcDbLine
 10
-227.5317959575419
 20
-11.71954894735204
 30
0.0
 11
-227.5320263680046
 21
-11.71951419045547
 31
0.0
1001
REVIT
1002
{
1070
     1
1000
251060
1002
}
1002
{
1070
     5
1000
248263
1002
}
1002
{
1070
     2
1000
-2000151
1002
}
1002
{
1070
     3
1000
247327
1002
}
  0
LINE
  5
AFC
330
6C
100
AcDbEntity
  8
0
 62
     0
370
     0
100
AcDbLine
 10
-227.5320263680046
 20
-11.71951419045547
 30
0.0
 11
-227.5322569396109
 21
-11.71935280666142
 31
0.0
1001
REVIT
1002
{
1070
     1
1000
251060
1002
}
1002
{
1070
     5
1000
248263
1002
}
1002
{
1070
     2
1000
-2000151
1002
}
1002
{
1070
     3
1000
247327
1002
}
  0
LINE
  5
AFD
330
6C
100
AcDbEntity
  8
0
 62
     0
370
     0
100
AcDbLine
 10
-227.5322569396109
 20
-11.71935280666142
 30
0.0
 11
-227.5324719433374
 21
-11.71907567542355
 31
0.0
1001
REVIT
1002
{
1070
     1
1000
251060
1002
}
1002
{
1070
     5
1000
248263
1002
}
1002
{
1070
     2
1000
-2000151
1002
}
1002
{
1070
     3
1000
247327
1002
}
  0
LINE
  5
AFE
330
6C
100
AcDbEntity
  8
0
 62
     0
370
     0
100
AcDbLine
 10
-227.5324719433374
 20
-11.71907567542355
 30
0.0
 11
-227.5326566831151
 21
-11.71870160955798
 31
0.0
1001
REVIT
1002
{
1070
     1
1000
251060
1002
}
1002
{
1070
     5
1000
248263
1002
}
1002
{
1070
     2
1000
-2000151
1002
}
1002
{
1070
     3
1000
247327
1002
}
  0
LINE
  5
AFF
330
6C
100
AcDbEntity
  8
0
 62
     0
370
     0
100
AcDbLine
 10
-227.5326566831151
 20
-11.71870160955798
 30
0.0
 11
-227.5327985090931
 21
-11.71825609290707
 31
0.0
1001
REVIT
1002
{
1070
     1
1000
251060
1002
}
1002
{
1070
     5
1000
248263
1002
}
1002
{
1070
     2
1000
-2000151
1002
}
1002
{
1070
     3
1000
247327
1002
}
  0
LINE
  5
B00
330
6C
100
AcDbEntity
  8
0
 62
     0
370
     0
100
AcDbLine
 10
-227.5327985090931
 20
-11.71825609290707
 30
0.0
 11
-227.5328876958365
 21
-11.71776954592616
 31
0.0
1001
REVIT
1002
{
1070
     1
1000
251060
1002
}
1002
{
1070
     5
1000
248263
1002
}
1002
{
1070
     2
1000
-2000151
1002
}
1002
{
1070
     3
1000
247327
1002
}
  0
LINE
  5
B01
330
6C
100
AcDbEntity
  8
0
 62
     0
370
     0
100
AcDbLine
 10
-227.5328876958365
 20
-11.71776954592616
 30
0.0
 11
-227.5329181212857
 21
-11.71727523672958
 31
0.0
1001
REVIT
1002
{
1070
     1
1000
251060
1002
}
1002
{
1070
     5
1000
248263
1002
}
1002
{
1070
     2
1000
-2000151
1002
}
1002
{
1070
     3
1000
247327
1002
}
  0
LINE
  5
B02
330
6C
100
AcDbEntity
  8
0
 62
     0
370
     0
100
AcDbLine
 10
-227.5329181212857
 20
-11.75112256754364
 30
0.0
 11
-227.5328876958366
 21
-11.750652755274
 31
0.0
1001
REVIT
1002
{
1070
     1
1000
251060
1002
}
1002
{
1070
     5
1000
248263
1002
}
1002
{
1070
     2
1000
-2000151
1002
}
1002
{
1070
     3
1000
247327
1002
}
  0
LINE
  5
B03
330
6C
100
AcDbEntity
  8
0
 62
     0
370
     0
100
AcDbLine
 10
-227.5328876958366
 20
-11.750652755274
 30
0.0
 11
-227.532798509093
 21
-11.75023801663761
 31
0.0
1001
REVIT
1002
{
1070
     1
1000
251060
1002
}
1002
{
1070
     5
1000
248263
1002
}
1002
{
1070
     2
1000
-2000151
1002
}
1002
{
1070
     3
1000
247327
1002
}
  0
LINE
  5
B04
330
6C
100
AcDbEntity
  8
0
 62
     0
370
     0
100
AcDbLine
 10
-227.532798509093
 20
-11.75023801663761
 30
0.0
 11
-227.5326566831153
 21
-11.74990669059741
 31
0.0
1001
REVIT
1002
{
1070
     1
1000
251060
1002
}
1002
{
1070
     5
1000
248263
1002
}
1002
{
1070
     2
1000
-2000151
1002
}
1002
{
1070
     3
1000
247327
1002
}
  0
LINE
  5
B05
330
6C
100
AcDbEntity
  8
0
 62
     0
370
     0
100
AcDbLine
 10
-227.5326566831153
 20
-11.74990669059741
 30
0.0
 11
-227.5324719433371
 21
-11.74968136721454
 31
0.0
1001
REVIT
1002
{
1070
     1
1000
251060
1002
}
1002
{
1070
     5
1000
248263
1002
}
1002
{
1070
     2
1000
-2000151
1002
}
1002
{
1070
     3
1000
247327
1002
}
  0
LINE
  5
B06
330
6C
100
AcDbEntity
  8
0
 62
     0
370
     0
100
AcDbLine
 10
-227.5324719433371
 20
-11.74968136721454
 30
0.0
 11
-227.5322569396109
 21
-11.7495773453545
 31
0.0
1001
REVIT
1002
{
1070
     1
1000
251060
1002
}
1002
{
1070
     5
1000
248263
1002
}
1002
{
1070
     2
1000
-2000151
1002
}
1002
{
1070
     3
1000
247327
1002
}
  0
LINE
  5
B07
330
6C
100
AcDbEntity
  8
0
 62
     0
370
     0
100
AcDbLine
 10
-227.5322569396109
 20
-11.7495773453545
 30
0.0
 11
-227.5322569396109
 21
-11.7495773453545
 31
0.0
1001
REVIT
1002
{
1070
     1
1000
251060
1002
}
1002
{
1070
     5
1000
248263
1002
}
1002
{
1070
     2
1000
-2000151
1002
}
1002
{
1070
     3
1000
247327
1002
}
  0
LINE
  5
B09
330
6C
100
AcDbEntity
  8
0
 62
     0
370
     0
100
AcDbLine
 10
-227.5317959575419
 20
-11.75333875159326
 30
0.0
 11
-227.5320263680046
 21
-11.75331580645264
 31
0.0
1001
REVIT
1002
{
1070
     1
1000
251060
1002
}
1002
{
1070
     5
1000
248263
1002
}
1002
{
1070
     2
1000
-2000151
1002
}
1002
{
1070
     3
1000
247327
1002
}
  0
LINE
  5
B0A
330
6C
100
AcDbEntity
  8
0
 62
     0
370
     0
100
AcDbLine
 10
-227.5320263680046
 20
-11.75331580645264
 30
0.0
 11
-227.5322569396109
 21
-11.75316624267538
 31
0.0
1001
REVIT
1002
{
1070
     1
1000
251060
1002
}
1002
{
1070
     5
1000
248263
1002
}
1002
{
1070
     2
1000
-2000151
1002
}
1002
{
1070
     3
1000
247327
1002
}
  0
LINE
  5
B0B
330
6C
100
AcDbEntity
  8
0
 62
     0
370
     0
100
AcDbLine
 10
-227.5322569396109
 20
-11.75316624267538
 30
0.0
 11
-227.5324719433374
 21
-11.75290013338291
 31
0.0
1001
REVIT
1002
{
1070
     1
1000
251060
1002
}
1002
{
1070
     5
1000
248263
1002
}
1002
{
1070
     2
1000
-2000151
1002
}
1002
{
1070
     3
1000
247327
1002
}
  0
LINE
  5
B0C
330
6C
100
AcDbEntity
  8
0
 62
     0
370
     0
100
AcDbLine
 10
-227.5324719433374
 20
-11.75290013338291
 30
0.0
 11
-227.5326566831151
 21
-11.7525355380125
 31
0.0
1001
REVIT
1002
{
1070
     1
1000
251060
1002
}
1002
{
1070
     5
1000
248263
1002
}
1002
{
1070
     2
1000
-2000151
1002
}
1002
{
1070
     3
1000
247327
1002
}
  0
LINE
  5
B0D
330
6C
100
AcDbEntity
  8
0
 62
     0
370
     0
100
AcDbLine
 10
-227.5326566831151
 20
-11.7525355380125
 30
0.0
 11
-227.5327985090931
 21
-11.75209729192482
 31
0.0
1001
REVIT
1002
{
1070
     1
1000
251060
1002
}
1002
{
1070
     5
1000
248263
1002
}
1002
{
1070
     2
1000
-2000151
1002
}
1002
{
1070
     3
1000
247327
1002
}
  0
LINE
  5
B0E
330
6C
100
AcDbEntity
  8
0
 62
     0
370
     0
100
AcDbLine
 10
-227.5327985090931
 20
-11.75209729192482
 30
0.0
 11
-227.5328876958365
 21
-11.75161531701079
 31
0.0
1001
REVIT
1002
{
1070
     1
1000
251060
1002
}
1002
{
1070
     5
1000
248263
1002
}
1002
{
1070
     2
1000
-2000151
1002
}
1002
{
1070
     3
1000
247327
1002
}
  0
LINE
  5
B0F
330
6C
100
AcDbEntity
  8
0
 62
     0
370
     0
100
AcDbLine
 10
-227.5328876958365
 20
-11.75161531701079
 30
0.0
 11
-227.5329181212857
 21
-11.75112256754364
 31
0.0
1001
REVIT
1002
{
1070
     1
1000
251060
1002
}
1002
{
1070
     5
1000
248263
1002
}
1002
{
1070
     2
1000
-2000151
1002
}
1002
{
1070
     3
1000
247327
1002
}
  0
LINE
  5
B11
330
6C
100
AcDbEntity
  8
0
 62
     0
370
     0
100
AcDbLine
 10
-227.5108779358673
 20
-11.72844923977983
 30
0.0
 11
-227.5110939515469
 21
-11.7284185987551
 31
0.0
1001
REVIT
1002
{
1070
     1
1000
251060
1002
}
1002
{
1070
     5
1000
248263
1002
}
1002
{
1070
     2
1000
-2000151
1002
}
1002
{
1070
     3
1000
247327
1002
}
  0
LINE
  5
B12
330
6C
100
AcDbEntity
  8
0
 62
     0
370
     0
100
AcDbLine
 10
-227.5110939515469
 20
-11.7284185987551
 30
0.0
 11
-227.5113101135046
 21
-11.72826535492634
 31
0.0
1001
REVIT
1002
{
1070
     1
1000
251060
1002
}
1002
{
1070
     5
1000
248263
1002
}
1002
{
1070
     2
1000
-2000151
1002
}
1002
{
1070
     3
1000
247327
1002
}
  0
LINE
  5
B13
330
6C
100
AcDbEntity
  8
0
 62
     0
370
     0
100
AcDbLine
 10
-227.5113101135046
 20
-11.72826535492634
 30
0.0
 11
-227.5115116761777
 21
-11.7279998402342
 31
0.0
1001
REVIT
1002
{
1070
     1
1000
251060
1002
}
1002
{
1070
     5
1000
248263
1002
}
1002
{
1070
     2
1000
-2000151
1002
}
1002
{
1070
     3
1000
247327
1002
}
  0
LINE
  5
B14
330
6C
100
AcDbEntity
  8
0
 62
     0
370
     0
100
AcDbLine
 10
-227.5115116761777
 20
-11.7279998402342
 30
0.0
 11
-227.511684863534
 21
-11.72764007987178
 31
0.0
1001
REVIT
1002
{
1070
     1
1000
251060
1002
}
1002
{
1070
     5
1000
248263
1002
}
1002
{
1070
     2
1000
-2000151
1002
}
1002
{
1070
     3
1000
247327
1002
}
  0
LINE
  5
B15
330
6C
100
AcDbEntity
  8
0
 62
     0
370
     0
100
AcDbLine
 10
-227.511684863534
 20
-11.72764007987178
 30
0.0
 11
-227.5118178185489
 21
-11.72721058253497
 31
0.0
1001
REVIT
1002
{
1070
     1
1000
251060
1002
}
1002
{
1070
     5
1000
248263
1002
}
1002
{
1070
     2
1000
-2000151
1002
}
1002
{
1070
     3
1000
247327
1002
}
  0
LINE
  5
B16
330
6C
100
AcDbEntity
  8
0
 62
     0
370
     0
100
AcDbLine
 10
-227.5118178185489
 20
-11.72721058253497
 30
0.0
 11
-227.5119014258901
 21
-11.72674067252264
 31
0.0
1001
REVIT
1002
{
1070
     1
1000
251060
1002
}
1002
{
1070
     5
1000
248263
1002
}
1002
{
1070
     2
1000
-2000151
1002
}
1002
{
1070
     3
1000
247327
1002
}
  0
LINE
  5
B17
330
6C
100
AcDbEntity
  8
0
 62
     0
370
     0
100
AcDbLine
 10
-227.5119014258901
 20
-11.72674067252264
 30
0.0
 11
-227.5119299477998
 21
-11.72626247667944
 31
0.0
1001
REVIT
1002
{
1070
     1
1000
251060
1002
}
1002
{
1070
     5
1000
248263
1002
}
1002
{
1070
     2
1000
-2000151
1002
}
1002
{
1070
     3
1000
247327
1002
}
  0
LINE
  5
B18
330
6C
100
AcDbEntity
  8
0
 62
     0
370
     0
100
AcDbLine
 10
-227.5119299477998
 20
-11.72626247667944
 30
0.0
 11
-227.5119014258899
 21
-11.72580870728269
 31
0.0
1001
REVIT
1002
{
1070
     1
1000
251060
1002
}
1002
{
1070
     5
1000
248263
1002
}
1002
{
1070
     2
1000
-2000151
1002
}
1002
{
1070
     3
1000
247327
1002
}
  0
LINE
  5
B19
330
6C
100
AcDbEntity
  8
0
 62
     0
370
     0
100
AcDbLine
 10
-227.5119014258899
 20
-11.72580870728269
 30
0.0
 11
-227.511817818549
 21
-11.72541039942635
 31
0.0
1001
REVIT
1002
{
1070
     1
1000
251060
1002
}
1002
{
1070
     5
1000
248263
1002
}
1002
{
1070
     2
1000
-2000151
1002
}
1002
{
1070
     3
1000
247327
1002
}
  0
LINE
  5
B1A
330
6C
100
AcDbEntity
  8
0
 62
     0
370
     0
100
AcDbLine
 10
-227.511817818549
 20
-11.72541039942635
 30
0.0
 11
-227.5116848635339
 21
-11.72509476608283
 31
0.0
1001
REVIT
1002
{
1070
     1
1000
251060
1002
}
1002
{
1070
     5
1000
248263
1002
}
1002
{
1070
     2
1000
-2000151
1002
}
1002
{
1070
     3
1000
247327
1002
}
  0
LINE
  5
B1B
330
6C
100
AcDbEntity
  8
0
 62
     0
370
     0
100
AcDbLine
 10
-227.5116848635339
 20
-11.72509476608283
 30
0.0
 11
-227.5115116761779
 21
-11.72488332508954
 31
0.0
1001
REVIT
1002
{
1070
     1
1000
251060
1002
}
1002
{
1070
     5
1000
248263
1002
}
1002
{
1070
     2
1000
-2000151
1002
}
1002
{
1070
     3
1000
247327
1002
}
  0
LINE
  5
B1C
330
6C
100
AcDbEntity
  8
0
 62
     0
370
     0
100
AcDbLine
 10
-227.5115116761779
 20
-11.72488332508954
 30
0.0
 11
-227.5113101135044
 21
-11.72479043066968
 31
0.0
1001
REVIT
1002
{
1070
     1
1000
251060
1002
}
1002
{
1070
     5
1000
248263
1002
}
1002
{
1070
     2
1000
-2000151
1002
}
1002
{
1070
     3
1000
247327
1002
}
  0
LINE
  5
B1D
330
6C
100
AcDbEntity
  8
0
 62
     0
370
     0
100
AcDbLine
 10
-227.5113101135044
 20
-11.72479043066968
 30
0.0
 11
-227.5113101135044
 21
-11.72479043066968
 31
0.0
1001
REVIT
1002
{
1070
     1
1000
251060
1002
}
1002
{
1070
     5
1000
248263
1002
}
1002
{
1070
     2
1000
-2000151
1002
}
1002
{
1070
     3
1000
247327
1002
}
  0
LINE
  5
B1E
330
6C
100
AcDbEntity
  8
0
 62
     0
370
     0
100
AcDbLine
 10
-227.5108779358673
 20
-11.76116670310457
 30
0.0
 11
-227.5110939515469
 21
-11.76114713590199
 31
0.0
1001
REVIT
1002
{
1070
     1
1000
251060
1002
}
1002
{
1070
     5
1000
248263
1002
}
1002
{
1070
     2
1000
-2000151
1002
}
1002
{
1070
     3
1000
247327
1002
}
  0
LINE
  5
B1F
330
6C
100
AcDbEntity
  8
0
 62
     0
370
     0
100
AcDbLine
 10
-227.5110939515469
 20
-11.76114713590199
 30
0.0
 11
-227.5113101135046
 21
-11.76100497339418
 31
0.0
1001
REVIT
1002
{
1070
     1
1000
251060
1002
}
1002
{
1070
     5
1000
248263
1002
}
1002
{
1070
     2
1000
-2000151
1002
}
1002
{
1070
     3
1000
247327
1002
}
  0
LINE
  5
B20
330
6C
100
AcDbEntity
  8
0
 62
     0
370
     0
100
AcDbLine
 10
-227.5113101135046
 20
-11.76100497339418
 30
0.0
 11
-227.5115116761777
 21
-11.76074979160566
 31
0.0
1001
REVIT
1002
{
1070
     1
1000
251060
1002
}
1002
{
1070
     5
1000
248263
1002
}
1002
{
1070
     2
1000
-2000151
1002
}
1002
{
1070
     3
1000
247327
1002
}
  0
LINE
  5
B21
330
6C
100
AcDbEntity
  8
0
 62
     0
370
     0
100
AcDbLine
 10
-227.5115116761777
 20
-11.76074979160566
 30
0.0
 11
-227.5116848635339
 21
-11.76039890951534
 31
0.0
1001
REVIT
1002
{
1070
     1
1000
251060
1002
}
1002
{
1070
     5
1000
248263
1002
}
1002
{
1070
     2
1000
-2000151
1002
}
1002
{
1070
     3
1000
247327
1002
}
  0
LINE
  5
B22
330
6C
100
AcDbEntity
  8
0
 62
     0
370
     0
100
AcDbLine
 10
-227.5116848635339
 20
-11.76039890951534
 30
0.0
 11
-227.5118178185489
 21
-11.75997622798095
 31
0.0
1001
REVIT
1002
{
1070
     1
1000
251060
1002
}
1002
{
1070
     5
1000
248263
1002
}
1002
{
1070
     2
1000
-2000151
1002
}
1002
{
1070
     3
1000
247327
1002
}
  0
LINE
  5
B23
330
6C
100
AcDbEntity
  8
0
 62
     0
370
     0
100
AcDbLine
 10
-227.5118178185489
 20
-11.75997622798095
 30
0.0
 11
-227.5119014258901
 21
-11.75951060401316
 31
0.0
1001
REVIT
1002
{
1070
     1
1000
251060
1002
}
1002
{
1070
     5
1000
248263
1002
}
1002
{
1070
     2
1000
-2000151
1002
}
1002
{
1070
     3
1000
247327
1002
}
  0
LINE
  5
B24
330
6C
100
AcDbEntity
  8
0
 62
     0
370
     0
100
AcDbLine
 10
-227.5119014258901
 20
-11.75951060401316
 30
0.0
 11
-227.5119299477998
 21
-11.7590338703164
 31
0.0
1001
REVIT
1002
{
1070
     1
1000
251060
1002
}
1002
{
1070
     5
1000
248263
1002
}
1002
{
1070
     2
1000
-2000151
1002
}
1002
{
1070
     3
1000
247327
1002
}
  0
LINE
  5
B25
330
6C
100
AcDbEntity
  8
0
 62
     0
370
     0
100
AcDbLine
 10
-227.5119299477998
 20
-11.7590338703164
 30
0.0
 11
-227.5119014258899
 21
-11.75857863877321
 31
0.0
1001
REVIT
1002
{
1070
     1
1000
251060
1002
}
1002
{
1070
     5
1000
248263
1002
}
1002
{
1070
     2
1000
-2000151
1002
}
1002
{
1070
     3
1000
247327
1002
}
  0
LINE
  5
B26
330
6C
100
AcDbEntity
  8
0
 62
     0
370
     0
100
AcDbLine
 10
-227.5119014258899
 20
-11.75857863877321
 30
0.0
 11
-227.511817818549
 21
-11.75817604487232
 31
0.0
1001
REVIT
1002
{
1070
     1
1000
251060
1002
}
1002
{
1070
     5
1000
248263
1002
}
1002
{
1070
     2
1000
-2000151
1002
}
1002
{
1070
     3
1000
247327
1002
}
  0
LINE
  5
B27
330
6C
100
AcDbEntity
  8
0
 62
     0
370
     0
100
AcDbLine
 10
-227.511817818549
 20
-11.75817604487232
 30
0.0
 11
-227.5116848635339
 21
-11.75785359572639
 31
0.0
1001
REVIT
1002
{
1070
     1
1000
251060
1002
}
1002
{
1070
     5
1000
248263
1002
}
1002
{
1070
     2
1000
-2000151
1002
}
1002
{
1070
     3
1000
247327
1002
}
  0
LINE
  5
B28
330
6C
100
AcDbEntity
  8
0
 62
     0
370
     0
100
AcDbLine
 10
-227.5116848635339
 20
-11.75785359572639
 30
0.0
 11
-227.5115116761777
 21
-11.757633276461
 31
0.0
1001
REVIT
1002
{
1070
     1
1000
251060
1002
}
1002
{
1070
     5
1000
248263
1002
}
1002
{
1070
     2
1000
-2000151
1002
}
1002
{
1070
     3
1000
247327
1002
}
  0
LINE
  5
B29
330
6C
100
AcDbEntity
  8
0
 62
     0
370
     0
100
AcDbLine
 10
-227.5115116761777
 20
-11.757633276461
 30
0.0
 11
-227.5113101135044
 21
-11.75753004913753
 31
0.0
1001
REVIT
1002
{
1070
     1
1000
251060
1002
}
1002
{
1070
     5
1000
248263
1002
}
1002
{
1070
     2
1000
-2000151
1002
}
1002
{
1070
     3
1000
247327
1002
}
  0
LINE
  5
B2A
330
6C
100
AcDbEntity
  8
0
 62
     0
370
     0
100
AcDbLine
 10
-227.5113101135044
 20
-11.75753004913753
 30
0.0
 11
-227.5113101135044
 21
-11.75753004913753
 31
0.0
1001
REVIT
1002
{
1070
     1
1000
251060
1002
}
1002
{
1070
     5
1000
248263
1002
}
1002
{
1070
     2
1000
-2000151
1002
}
1002
{
1070
     3
1000
247327
1002
}
  0
LINE
  5
B2B
330
6C
100
AcDbEntity
  8
0
 62
     0
370
     0
100
AcDbLine
 10
-227.6295007155892
 20
-11.66767670482816
 30
0.0
 11
-227.6293906354206
 21
-11.66774315003419
 31
0.0
1001
REVIT
1002
{
1070
     1
1000
251060
1002
}
1002
{
1070
     5
1000
248263
1002
}
1002
{
1070
     2
1000
-2000151
1002
}
1002
{
1070
     3
1000
247327
1002
}
  0
LINE
  5
B2C
330
6C
100
AcDbEntity
  8
0
 62
     0
370
     0
100
AcDbLine
 10
-227.6293906354206
 20
-11.66774315003419
 30
0.0
 11
-227.6291141297823
 21
-11.6679998136651
 31
0.0
1001
REVIT
1002
{
1070
     1
1000
251060
1002
}
1002
{
1070
     5
1000
248263
1002
}
1002
{
1070
     2
1000
-2000151
1002
}
1002
{
1070
     3
1000
247327
1002
}
  0
LINE
  5
B2D
330
6C
100
AcDbEntity
  8
0
 62
     0
370
     0
100
AcDbLine
 10
-227.6291141297823
 20
-11.6679998136651
 30
0.0
 11
-227.6289088663547
 21
-11.66834049697328
 31
0.0
1001
REVIT
1002
{
1070
     1
1000
251060
1002
}
1002
{
1070
     5
1000
248263
1002
}
1002
{
1070
     2
1000
-2000151
1002
}
1002
{
1070
     3
1000
247327
1002
}
  0
LINE
  5
B2E
330
6C
100
AcDbEntity
  8
0
 62
     0
370
     0
100
AcDbLine
 10
-227.6289088663547
 20
-11.66834049697328
 30
0.0
 11
-227.6287877327793
 21
-11.66874386903738
 31
0.0
1001
REVIT
1002
{
1070
     1
1000
251060
1002
}
1002
{
1070
     5
1000
248263
1002
}
1002
{
1070
     2
1000
-2000151
1002
}
1002
{
1070
     3
1000
247327
1002
}
  0
LINE
  5
B2F
330
6C
100
AcDbEntity
  8
0
 62
     0
370
     0
100
AcDbLine
 10
-227.6287877327793
 20
-11.66874386903738
 30
0.0
 11
-227.6287583380557
 21
-11.66918465121439
 31
0.0
1001
REVIT
1002
{
1070
     1
1000
251060
1002
}
1002
{
1070
     5
1000
248263
1002
}
1002
{
1070
     2
1000
-2000151
1002
}
1002
{
1070
     3
1000
247327
1002
}
  0
LINE
  5
B30
330
6C
100
AcDbEntity
  8
0
 62
     0
370
     0
100
AcDbLine
 10
-227.6287583380557
 20
-11.66918465121439
 30
0.0
 11
-227.6288230258865
 21
-11.66963721752613
 31
0.0
1001
REVIT
1002
{
1070
     1
1000
251060
1002
}
1002
{
1070
     5
1000
248263
1002
}
1002
{
1070
     2
1000
-2000151
1002
}
1002
{
1070
     3
1000
247327
1002
}
  0
LINE
  5
B31
330
6C
100
AcDbEntity
  8
0
 62
     0
370
     0
100
AcDbLine
 10
-227.6288230258865
 20
-11.66963721752613
 30
0.0
 11
-227.6289780392369
 21
-11.67007101931116
 31
0.0
1001
REVIT
1002
{
1070
     1
1000
251060
1002
}
1002
{
1070
     5
1000
248263
1002
}
1002
{
1070
     2
1000
-2000151
1002
}
1002
{
1070
     3
1000
247327
1002
}
  0
LINE
  5
B32
330
6C
100
AcDbEntity
  8
0
 62
     0
370
     0
100
AcDbLine
 10
-227.6289780392369
 20
-11.67007101931116
 30
0.0
 11
-227.6292135549468
 21
-11.67045862669207
 31
0.0
1001
REVIT
1002
{
1070
     1
1000
251060
1002
}
1002
{
1070
     5
1000
248263
1002
}
1002
{
1070
     2
1000
-2000151
1002
}
1002
{
1070
     3
1000
247327
1002
}
  0
LINE
  5
B33
330
6C
100
AcDbEntity
  8
0
 62
     0
370
     0
100
AcDbLine
 10
-227.6292135549468
 20
-11.67045862669207
 30
0.0
 11
-227.6295146567453
 21
-11.67077555075739
 31
0.0
1001
REVIT
1002
{
1070
     1
1000
251060
1002
}
1002
{
1070
     5
1000
248263
1002
}
1002
{
1070
     2
1000
-2000151
1002
}
1002
{
1070
     3
1000
247327
1002
}
  0
LINE
  5
B34
330
6C
100
AcDbEntity
  8
0
 62
     0
370
     0
100
AcDbLine
 10
-227.6295146567453
 20
-11.67077555075739
 30
0.0
 11
-227.6298622890712
 21
-11.67100179460142
 31
0.0
1001
REVIT
1002
{
1070
     1
1000
251060
1002
}
1002
{
1070
     5
1000
248263
1002
}
1002
{
1070
     2
1000
-2000151
1002
}
1002
{
1070
     3
1000
247327
1002
}
  0
LINE
  5
B35
330
6C
100
AcDbEntity
  8
0
 62
     0
370
     0
100
AcDbLine
 10
-227.6298622890712
 20
-11.67100179460142
 30
0.0
 11
-227.6302344719551
 21
-11.67112311332123
 31
0.0
1001
REVIT
1002
{
1070
     1
1000
251060
1002
}
1002
{
1070
     5
1000
248263
1002
}
1002
{
1070
     2
1000
-2000151
1002
}
1002
{
1070
     3
1000
247327
1002
}
  0
LINE
  5
B36
330
6C
100
AcDbEntity
  8
0
 62
     0
370
     0
100
AcDbLine
 10
-227.6302344719551
 20
-11.67112311332123
 30
0.0
 11
-227.6306076972883
 21
-11.67113190402357
 31
0.0
1001
REVIT
1002
{
1070
     1
1000
251060
1002
}
1002
{
1070
     5
1000
248263
1002
}
1002
{
1070
     2
1000
-2000151
1002
}
1002
{
1070
     3
1000
247327
1002
}
  0
LINE
  5
B37
330
6C
100
AcDbEntity
  8
0
 62
     0
370
     0
100
AcDbLine
 10
-227.6306076972883
 20
-11.67113190402357
 30
0.0
 11
-227.6309584161714
 21
-11.67102767196287
 31
0.0
1001
REVIT
1002
{
1070
     1
1000
251060
1002
}
1002
{
1070
     5
1000
248263
1002
}
1002
{
1070
     2
1000
-2000151
1002
}
1002
{
1070
     3
1000
247327
1002
}
  0
LINE
  5
B38
330
6C
100
AcDbEntity
  8
0
 62
     0
370
     0
100
AcDbLine
 10
-227.6309584161714
 20
-11.67102767196287
 30
0.0
 11
-227.6309584161714
 21
-11.67102767196287
 31
0.0
1001
REVIT
1002
{
1070
     1
1000
251060
1002
}
1002
{
1070
     5
1000
248263
1002
}
1002
{
1070
     2
1000
-2000151
1002
}
1002
{
1070
     3
1000
247327
1002
}
  0
LINE
  5
B3A
330
6C
100
AcDbEntity
  8
0
 62
     0
370
     0
100
AcDbLine
 10
-227.6018970532633
 20
-11.68647604472744
 30
0.0
 11
-227.6015802043216
 21
-11.68671663376452
 31
0.0
1001
REVIT
1002
{
1070
     1
1000
251060
1002
}
1002
{
1070
     5
1000
248263
1002
}
1002
{
1070
     2
1000
-2000151
1002
}
1002
{
1070
     3
1000
247327
1002
}
  0
LINE
  5
B3B
330
6C
100
AcDbEntity
  8
0
 62
     0
370
     0
100
AcDbLine
 10
-227.6015802043216
 20
-11.68671663376452
 30
0.0
 11
-227.6013372194481
 21
-11.68705497429043
 31
0.0
1001
REVIT
1002
{
1070
     1
1000
251060
1002
}
1002
{
1070
     5
1000
248263
1002
}
1002
{
1070
     2
1000
-2000151
1002
}
1002
{
1070
     3
1000
247327
1002
}
  0
LINE
  5
B3C
330
6C
100
AcDbEntity
  8
0
 62
     0
370
     0
100
AcDbLine
 10
-227.6013372194481
 20
-11.68705497429043
 30
0.0
 11
-227.6011846374057
 21
-11.68746810560147
 31
0.0
1001
REVIT
1002
{
1070
     1
1000
251060
1002
}
1002
{
1070
     5
1000
248263
1002
}
1002
{
1070
     2
1000
-2000151
1002
}
1002
{
1070
     3
1000
247327
1002
}
  0
LINE
  5
B3D
330
6C
100
AcDbEntity
  8
0
 62
     0
370
     0
100
AcDbLine
 10
-227.6011846374057
 20
-11.68746810560147
 30
0.0
 11
-227.6011328494394
 21
-11.68792796077863
 31
0.0
1001
REVIT
1002
{
1070
     1
1000
251060
1002
}
1002
{
1070
     5
1000
248263
1002
}
1002
{
1070
     2
1000
-2000151
1002
}
1002
{
1070
     3
1000
247327
1002
}
  0
LINE
  5
B3E
330
6C
100
AcDbEntity
  8
0
 62
     0
370
     0
100
AcDbLine
 10
-227.6011328494394
 20
-11.68792796077863
 30
0.0
 11
-227.6011780911739
 21
-11.68836893952867
 31
0.0
1001
REVIT
1002
{
1070
     1
1000
251060
1002
}
1002
{
1070
     5
1000
248263
1002
}
1002
{
1070
     2
1000
-2000151
1002
}
1002
{
1070
     3
1000
247327
1002
}
  0
LINE
  5
B3F
330
6C
100
AcDbEntity
  8
0
 62
     0
370
     0
100
AcDbLine
 10
-227.6011780911739
 20
-11.68836893952867
 30
0.0
 11
-227.6013104706744
 21
-11.68879742835388
 31
0.0
1001
REVIT
1002
{
1070
     1
1000
251060
1002
}
1002
{
1070
     5
1000
248263
1002
}
1002
{
1070
     2
1000
-2000151
1002
}
1002
{
1070
     3
1000
247327
1002
}
  0
LINE
  5
B40
330
6C
100
AcDbEntity
  8
0
 62
     0
370
     0
100
AcDbLine
 10
-227.6013104706744
 20
-11.68879742835388
 30
0.0
 11
-227.601522227881
 21
-11.68918836430046
 31
0.0
1001
REVIT
1002
{
1070
     1
1000
251060
1002
}
1002
{
1070
     5
1000
248263
1002
}
1002
{
1070
     2
1000
-2000151
1002
}
1002
{
1070
     3
1000
247327
1002
}
  0
LINE
  5
B41
330
6C
100
AcDbEntity
  8
0
 62
     0
370
     0
100
AcDbLine
 10
-227.601522227881
 20
-11.68918836430046
 30
0.0
 11
-227.6018009556467
 21
-11.68951889683838
 31
0.0
1001
REVIT
1002
{
1070
     1
1000
251060
1002
}
1002
{
1070
     5
1000
248263
1002
}
1002
{
1070
     2
1000
-2000151
1002
}
1002
{
1070
     3
1000
247327
1002
}
  0
LINE
  5
B42
330
6C
100
AcDbEntity
  8
0
 62
     0
370
     0
100
AcDbLine
 10
-227.6018009556467
 20
-11.68951889683838
 30
0.0
 11
-227.6021303342009
 21
-11.68976972790329
 31
0.0
1001
REVIT
1002
{
1070
     1
1000
251060
1002
}
1002
{
1070
     5
1000
248263
1002
}
1002
{
1070
     2
1000
-2000151
1002
}
1002
{
1070
     3
1000
247327
1002
}
  0
LINE
  5
B43
330
6C
100
AcDbEntity
  8
0
 62
     0
370
     0
100
AcDbLine
 10
-227.6021303342009
 20
-11.68976972790329
 30
0.0
 11
-227.602491094629
 21
-11.68992623857491
 31
0.0
1001
REVIT
1002
{
1070
     1
1000
251060
1002
}
1002
{
1070
     5
1000
248263
1002
}
1002
{
1070
     2
1000
-2000151
1002
}
1002
{
1070
     3
1000
247327
1002
}
  0
LINE
  5
B44
330
6C
100
AcDbEntity
  8
0
 62
     0
370
     0
100
AcDbLine
 10
-227.602491094629
 20
-11.68992623857491
 30
0.0
 11
-227.602862152659
 21
-11.689979336628
 31
0.0
1001
REVIT
1002
{
1070
     1
1000
251060
1002
}
1002
{
1070
     5
1000
248263
1002
}
1002
{
1070
     2
1000
-2000151
1002
}
1002
{
1070
     3
1000
247327
1002
}
  0
LINE
  5
B45
330
6C
100
AcDbEntity
  8
0
 62
     0
370
     0
100
AcDbLine
 10
-227.602862152659
 20
-11.689979336628
 30
0.0
 11
-227.6032218445442
 21
-11.68992597685798
 31
0.0
1001
REVIT
1002
{
1070
     1
1000
251060
1002
}
1002
{
1070
     5
1000
248263
1002
}
1002
{
1070
     2
1000
-2000151
1002
}
1002
{
1070
     3
1000
247327
1002
}
  0
LINE
  5
B47
330
6C
100
AcDbEntity
  8
0
 62
     0
370
     0
100
AcDbLine
 10
-227.6035491917665
 20
-11.68976932623199
 30
0.0
 11
-227.6035491917665
 21
-11.68976932623199
 31
0.0
1001
REVIT
1002
{
1070
     1
1000
251060
1002
}
1002
{
1070
     5
1000
248263
1002
}
1002
{
1070
     2
1000
-2000151
1002
}
1002
{
1070
     3
1000
247327
1002
}
  0
LINE
  5
B48
330
6C
100
AcDbEntity
  8
0
 62
     0
370
     0
100
AcDbLine
 10
-227.5819653035675
 20
-11.66000640104148
 30
0.0
 11
-227.5816423735366
 21
-11.66024523314797
 31
0.0
1001
REVIT
1002
{
1070
     1
1000
251060
1002
}
1002
{
1070
     5
1000
248263
1002
}
1002
{
1070
     2
1000
-2000151
1002
}
1002
{
1070
     3
1000
247327
1002
}
  0
LINE
  5
B49
330
6C
100
AcDbEntity
  8
0
 62
     0
370
     0
100
AcDbLine
 10
-227.5816423735366
 20
-11.66024523314797
 30
0.0
 11
-227.5813947249986
 21
-11.66058369731387
 31
0.0
1001
REVIT
1002
{
1070
     1
1000
251060
1002
}
1002
{
1070
     5
1000
248263
1002
}
1002
{
1070
     2
1000
-2000151
1002
}
1002
{
1070
     3
1000
247327
1002
}
  0
LINE
  5
B4A
330
6C
100
AcDbEntity
  8
0
 62
     0
370
     0
100
AcDbLine
 10
-227.5813947249986
 20
-11.66058369731387
 30
0.0
 11
-227.5812392146914
 21
-11.66099882499328
 31
0.0
1001
REVIT
1002
{
1070
     1
1000
251060
1002
}
1002
{
1070
     5
1000
248263
1002
}
1002
{
1070
     2
1000
-2000151
1002
}
1002
{
1070
     3
1000
247327
1002
}
  0
LINE
  5
B4B
330
6C
100
AcDbEntity
  8
0
 62
     0
370
     0
100
AcDbLine
 10
-227.5812392146914
 20
-11.66099882499328
 30
0.0
 11
-227.5811864336789
 21
-11.66146241356482
 31
0.0
1001
REVIT
1002
{
1070
     1
1000
251060
1002
}
1002
{
1070
     5
1000
248263
1002
}
1002
{
1070
     2
1000
-2000151
1002
}
1002
{
1070
     3
1000
247327
1002
}
  0
LINE
  5
B4C
330
6C
100
AcDbEntity
  8
0
 62
     0
370
     0
100
AcDbLine
 10
-227.5811864336789
 20
-11.66146241356482
 30
0.0
 11
-227.5812325452942
 21
-11.66190818695294
 31
0.0
1001
REVIT
1002
{
1070
     1
1000
251060
1002
}
1002
{
1070
     5
1000
248263
1002
}
1002
{
1070
     2
1000
-2000151
1002
}
1002
{
1070
     3
1000
247327
1002
}
  0
LINE
  5
B4D
330
6C
100
AcDbEntity
  8
0
 62
     0
370
     0
100
AcDbLine
 10
-227.5812325452942
 20
-11.66190818695294
 30
0.0
 11
-227.5813674676064
 21
-11.66234246548661
 31
0.0
1001
REVIT
1002
{
1070
     1
1000
251060
1002
}
1002
{
1070
     5
1000
248263
1002
}
1002
{
1070
     2
1000
-2000151
1002
}
1002
{
1070
     3
1000
247327
1002
}
  0
LINE
  5
B4E
330
6C
100
AcDbEntity
  8
0
 62
     0
370
     0
100
AcDbLine
 10
-227.5813674676064
 20
-11.66234246548661
 30
0.0
 11
-227.5815832911917
 21
-11.66273984689692
 31
0.0
1001
REVIT
1002
{
1070
     1
1000
251060
1002
}
1002
{
1070
     5
1000
248263
1002
}
1002
{
1070
     2
1000
-2000151
1002
}
1002
{
1070
     3
1000
247327
1002
}
  0
LINE
  5
B4F
330
6C
100
AcDbEntity
  8
0
 62
     0
370
     0
100
AcDbLine
 10
-227.5815832911917
 20
-11.66273984689692
 30
0.0
 11
-227.5818673702211
 21
-11.66307710327235
 31
0.0
1001
REVIT
1002
{
1070
     1
1000
251060
1002
}
1002
{
1070
     5
1000
248263
1002
}
1002
{
1070
     2
1000
-2000151
1002
}
1002
{
1070
     3
1000
247327
1002
}
  0
LINE
  5
B50
330
6C
100
AcDbEntity
  8
0
 62
     0
370
     0
100
AcDbLine
 10
-227.5818673702211
 20
-11.66307710327235
 30
0.0
 11
-227.582203071149
 21
-11.66333454337795
 31
0.0
1001
REVIT
1002
{
1070
     1
1000
251060
1002
}
1002
{
1070
     5
1000
248263
1002
}
1002
{
1070
     2
1000
-2000151
1002
}
1002
{
1070
     3
1000
247327
1002
}
  0
LINE
  5
B51
330
6C
100
AcDbEntity
  8
0
 62
     0
370
     0
100
AcDbLine
 10
-227.582203071149
 20
-11.66333454337795
 30
0.0
 11
-227.5825707548219
 21
-11.66349716242572
 31
0.0
1001
REVIT
1002
{
1070
     1
1000
251060
1002
}
1002
{
1070
     5
1000
248263
1002
}
1002
{
1070
     2
1000
-2000151
1002
}
1002
{
1070
     3
1000
247327
1002
}
  0
LINE
  5
B52
330
6C
100
AcDbEntity
  8
0
 62
     0
370
     0
100
AcDbLine
 10
-227.5825707548219
 20
-11.66349716242572
 30
0.0
 11
-227.5829489321352
 21
-11.66355551215293
 31
0.0
1001
REVIT
1002
{
1070
     1
1000
251060
1002
}
1002
{
1070
     5
1000
248263
1002
}
1002
{
1070
     2
1000
-2000151
1002
}
1002
{
1070
     3
1000
247327
1002
}
  0
LINE
  5
B53
330
6C
100
AcDbEntity
  8
0
 62
     0
370
     0
100
AcDbLine
 10
-227.5829489321352
 20
-11.66355551215293
 30
0.0
 11
-227.5833155236929
 21
-11.66350624179577
 31
0.0
1001
REVIT
1002
{
1070
     1
1000
251060
1002
}
1002
{
1070
     5
1000
248263
1002
}
1002
{
1070
     2
1000
-2000151
1002
}
1002
{
1070
     3
1000
247327
1002
}
  0
LINE
  5
B54
330
6C
100
AcDbEntity
  8
0
 62
     0
370
     0
100
AcDbLine
 10
-227.5833155236929
 20
-11.66350624179577
 30
0.0
 11
-227.5836491487749
 21
-11.6633522808361
 31
0.0
1001
REVIT
1002
{
1070
     1
1000
251060
1002
}
1002
{
1070
     5
1000
248263
1002
}
1002
{
1070
     2
1000
-2000151
1002
}
1002
{
1070
     3
1000
247327
1002
}
  0
LINE
  5
B57
330
6C
100
AcDbEntity
  8
0
 62
     0
370
     0
100
AcDbLine
 10
-227.5400620368646
 20
-11.65324510467995
 30
0.0
 11
-227.5397261358754
 21
-11.65348763052219
 31
0.0
1001
REVIT
1002
{
1070
     1
1000
251060
1002
}
1002
{
1070
     5
1000
248263
1002
}
1002
{
1070
     2
1000
-2000151
1002
}
1002
{
1070
     3
1000
247327
1002
}
  0
LINE
  5
B58
330
6C
100
AcDbEntity
  8
0
 62
     0
370
     0
100
AcDbLine
 10
-227.5397261358754
 20
-11.65348763052219
 30
0.0
 11
-227.5394685396907
 21
-11.65383201789108
 31
0.0
1001
REVIT
1002
{
1070
     1
1000
251060
1002
}
1002
{
1070
     5
1000
248263
1002
}
1002
{
1070
     2
1000
-2000151
1002
}
1002
{
1070
     3
1000
247327
1002
}
  0
LINE
  5
B59
330
6C
100
AcDbEntity
  8
0
 62
     0
370
     0
100
AcDbLine
 10
-227.5394685396907
 20
-11.65383201789108
 30
0.0
 11
-227.53930678335
 21
-11.65425489627223
 31
0.0
1001
REVIT
1002
{
1070
     1
1000
251060
1002
}
1002
{
1070
     5
1000
248263
1002
}
1002
{
1070
     2
1000
-2000151
1002
}
1002
{
1070
     3
1000
247327
1002
}
  0
LINE
  5
B5A
330
6C
100
AcDbEntity
  8
0
 62
     0
370
     0
100
AcDbLine
 10
-227.53930678335
 20
-11.65425489627223
 30
0.0
 11
-227.5392518841774
 21
-11.65472753570381
 31
0.0
1001
REVIT
1002
{
1070
     1
1000
251060
1002
}
1002
{
1070
     5
1000
248263
1002
}
1002
{
1070
     2
1000
-2000151
1002
}
1002
{
1070
     3
1000
247327
1002
}
  0
LINE
  5
B5B
330
6C
100
AcDbEntity
  8
0
 62
     0
370
     0
100
AcDbLine
 10
-227.5392518841774
 20
-11.65472753570381
 30
0.0
 11
-227.5392998512722
 21
-11.65518232779581
 31
0.0
1001
REVIT
1002
{
1070
     1
1000
251060
1002
}
1002
{
1070
     5
1000
248263
1002
}
1002
{
1070
     2
1000
-2000151
1002
}
1002
{
1070
     3
1000
247327
1002
}
  0
LINE
  5
B5C
330
6C
100
AcDbEntity
  8
0
 62
     0
370
     0
100
AcDbLine
 10
-227.5392998512722
 20
-11.65518232779581
 30
0.0
 11
-227.5394401973884
 21
-11.65562568459208
 31
0.0
1001
REVIT
1002
{
1070
     1
1000
251060
1002
}
1002
{
1070
     5
1000
248263
1002
}
1002
{
1070
     2
1000
-2000151
1002
}
1002
{
1070
     3
1000
247327
1002
}
  0
LINE
  5
B5D
330
6C
100
AcDbEntity
  8
0
 62
     0
370
     0
100
AcDbLine
 10
-227.5394401973884
 20
-11.65562568459208
 30
0.0
 11
-227.5396646944862
 21
-11.65603167179916
 31
0.0
1001
REVIT
1002
{
1070
     1
1000
251060
1002
}
1002
{
1070
     5
1000
248263
1002
}
1002
{
1070
     2
1000
-2000151
1002
}
1002
{
1070
     3
1000
247327
1002
}
  0
LINE
  5
B5E
330
6C
100
AcDbEntity
  8
0
 62
     0
370
     0
100
AcDbLine
 10
-227.5396646944862
 20
-11.65603167179916
 30
0.0
 11
-227.5399601875966
 21
-11.65637655783171
 31
0.0
1001
REVIT
1002
{
1070
     1
1000
251060
1002
}
1002
{
1070
     5
1000
248263
1002
}
1002
{
1070
     2
1000
-2000151
1002
}
1002
{
1070
     3
1000
247327
1002
}
  0
LINE
  5
B5F
330
6C
100
AcDbEntity
  8
0
 62
     0
370
     0
100
AcDbLine
 10
-227.5399601875966
 20
-11.65637655783171
 30
0.0
 11
-227.5403093738679
 21
-11.65664020582021
 31
0.0
1001
REVIT
1002
{
1070
     1
1000
251060
1002
}
1002
{
1070
     5
1000
248263
1002
}
1002
{
1070
     2
1000
-2000151
1002
}
1002
{
1070
     3
1000
247327
1002
}
  0
LINE
  5
B60
330
6C
100
AcDbEntity
  8
0
 62
     0
370
     0
100
AcDbLine
 10
-227.5403093738679
 20
-11.65664020582021
 30
0.0
 11
-227.5406918244181
 21
-11.65680724943935
 31
0.0
1001
REVIT
1002
{
1070
     1
1000
251060
1002
}
1002
{
1070
     5
1000
248263
1002
}
1002
{
1070
     2
1000
-2000151
1002
}
1002
{
1070
     3
1000
247327
1002
}
  0
LINE
  5
B61
330
6C
100
AcDbEntity
  8
0
 62
     0
370
     0
100
AcDbLine
 10
-227.5406918244181
 20
-11.65680724943935
 30
0.0
 11
-227.541085186649
 21
-11.65686798388383
 31
0.0
1001
REVIT
1002
{
1070
     1
1000
251060
1002
}
1002
{
1070
     5
1000
248263
1002
}
1002
{
1070
     2
1000
-2000151
1002
}
1002
{
1070
     3
1000
247327
1002
}
  0
LINE
  5
B62
330
6C
100
AcDbEntity
  8
0
 62
     0
370
     0
100
AcDbLine
 10
-227.541085186649
 20
-11.65686798388383
 30
0.0
 11
-227.5414664946248
 21
-11.65681892140809
 31
0.0
1001
REVIT
1002
{
1070
     1
1000
251060
1002
}
1002
{
1070
     5
1000
248263
1002
}
1002
{
1070
     2
1000
-2000151
1002
}
1002
{
1070
     3
1000
247327
1002
}
  0
LINE
  5
B63
330
6C
100
AcDbEntity
  8
0
 62
     0
370
     0
100
AcDbLine
 10
-227.5414664946248
 20
-11.65681892140809
 30
0.0
 11
-227.5418135097925
 21
-11.6566629815527
 31
0.0
1001
REVIT
1002
{
1070
     1
1000
251060
1002
}
1002
{
1070
     5
1000
248263
1002
}
1002
{
1070
     2
1000
-2000151
1002
}
1002
{
1070
     3
1000
247327
1002
}
  0
LINE
  5
B64
330
6C
100
AcDbEntity
  8
0
 62
     0
370
     0
100
AcDbLine
 10
-227.5418135097925
 20
-11.6566629815527
 30
0.0
 11
-227.5418138519023
 21
-11.65666276234189
 31
0.0
1001
REVIT
1002
{
1070
     1
1000
251060
1002
}
1002
{
1070
     5
1000
248263
1002
}
1002
{
1070
     2
1000
-2000151
1002
}
1002
{
1070
     3
1000
247327
1002
}
  0
LINE
  5
B66
330
6C
100
AcDbEntity
  8
0
 62
     0
370
     0
100
AcDbLine
 10
-227.5189223469967
 20
-11.67401210163157
 30
0.0
 11
-227.5185798064131
 21
-11.67426028981211
 31
0.0
1001
REVIT
1002
{
1070
     1
1000
251060
1002
}
1002
{
1070
     5
1000
248263
1002
}
1002
{
1070
     2
1000
-2000151
1002
}
1002
{
1070
     3
1000
247327
1002
}
  0
LINE
  5
B67
330
6C
100
AcDbEntity
  8
0
 62
     0
370
     0
100
AcDbLine
 10
-227.5185798064131
 20
-11.67426028981211
 30
0.0
 11
-227.5183171181831
 21
-11.6746105776942
 31
0.0
1001
REVIT
1002
{
1070
     1
1000
251060
1002
}
1002
{
1070
     5
1000
248263
1002
}
1002
{
1070
     2
1000
-2000151
1002
}
1002
{
1070
     3
1000
247327
1002
}
  0
LINE
  5
B68
330
6C
100
AcDbEntity
  8
0
 62
     0
370
     0
100
AcDbLine
 10
-227.5183171181831
 20
-11.6746105776942
 30
0.0
 11
-227.5181521645883
 21
-11.67503919371537
 31
0.0
1001
REVIT
1002
{
1070
     1
1000
251060
1002
}
1002
{
1070
     5
1000
248263
1002
}
1002
{
1070
     2
1000
-2000151
1002
}
1002
{
1070
     3
1000
247327
1002
}
  0
LINE
  5
B69
330
6C
100
AcDbEntity
  8
0
 62
     0
370
     0
100
AcDbLine
 10
-227.5181521645883
 20
-11.67503919371537
 30
0.0
 11
-227.5180961811714
 21
-11.67551701738199
 31
0.0
1001
REVIT
1002
{
1070
     1
1000
251060
1002
}
1002
{
1070
     5
1000
248263
1002
}
1002
{
1070
     2
1000
-2000151
1002
}
1002
{
1070
     3
1000
247327
1002
}
  0
LINE
  5
B6A
330
6C
100
AcDbEntity
  8
0
 62
     0
370
     0
100
AcDbLine
 10
-227.5180961811714
 20
-11.67551701738199
 30
0.0
 11
-227.5181450980653
 21
-11.67597581361976
 31
0.0
1001
REVIT
1002
{
1070
     1
1000
251060
1002
}
1002
{
1070
     5
1000
248263
1002
}
1002
{
1070
     2
1000
-2000151
1002
}
1002
{
1070
     3
1000
247327
1002
}
  0
LINE
  5
B6B
330
6C
100
AcDbEntity
  8
0
 62
     0
370
     0
100
AcDbLine
 10
-227.5181450980653
 20
-11.67597581361976
 30
0.0
 11
-227.518288220522
 21
-11.67642215944874
 31
0.0
1001
REVIT
1002
{
1070
     1
1000
251060
1002
}
1002
{
1070
     5
1000
248263
1002
}
1002
{
1070
     2
1000
-2000151
1002
}
1002
{
1070
     3
1000
247327
1002
}
  0
LINE
  5
B6C
330
6C
100
AcDbEntity
  8
0
 62
     0
370
     0
100
AcDbLine
 10
-227.518288220522
 20
-11.67642215944874
 30
0.0
 11
-227.5185171573956
 21
-11.67682994543501
 31
0.0
1001
REVIT
1002
{
1070
     1
1000
251060
1002
}
1002
{
1070
     5
1000
248263
1002
}
1002
{
1070
     2
1000
-2000151
1002
}
1002
{
1070
     3
1000
247327
1002
}
  0
LINE
  5
B6D
330
6C
100
AcDbEntity
  8
0
 62
     0
370
     0
100
AcDbLine
 10
-227.5185171573956
 20
-11.67682994543501
 30
0.0
 11
-227.5188184930826
 21
-11.67717533489416
 31
0.0
1001
REVIT
1002
{
1070
     1
1000
251060
1002
}
1002
{
1070
     5
1000
248263
1002
}
1002
{
1070
     2
1000
-2000151
1002
}
1002
{
1070
     3
1000
247327
1002
}
  0
LINE
  5
B6E
330
6C
100
AcDbEntity
  8
0
 62
     0
370
     0
100
AcDbLine
 10
-227.5188184930826
 20
-11.67717533489416
 30
0.0
 11
-227.5191745821124
 21
-11.6774381620536
 31
0.0
1001
REVIT
1002
{
1070
     1
1000
251060
1002
}
1002
{
1070
     5
1000
248263
1002
}
1002
{
1070
     2
1000
-2000151
1002
}
1002
{
1070
     3
1000
247327
1002
}
  0
LINE
  5
B6F
330
6C
100
AcDbEntity
  8
0
 62
     0
370
     0
100
AcDbLine
 10
-227.5191745821124
 20
-11.6774381620536
 30
0.0
 11
-227.5195645913508
 21
-11.67760310945591
 31
0.0
1001
REVIT
1002
{
1070
     1
1000
251060
1002
}
1002
{
1070
     5
1000
248263
1002
}
1002
{
1070
     2
1000
-2000151
1002
}
1002
{
1070
     3
1000
247327
1002
}
  0
LINE
  5
B70
330
6C
100
AcDbEntity
  8
0
 62
     0
370
     0
100
AcDbLine
 10
-227.5195645913508
 20
-11.67760310945591
 30
0.0
 11
-227.5199657261988
 21
-11.67766059586421
 31
0.0
1001
REVIT
1002
{
1070
     1
1000
251060
1002
}
1002
{
1070
     5
1000
248263
1002
}
1002
{
1070
     2
1000
-2000151
1002
}
1002
{
1070
     3
1000
247327
1002
}
  0
LINE
  5
B71
330
6C
100
AcDbEntity
  8
0
 62
     0
370
     0
100
AcDbLine
 10
-227.5199657261988
 20
-11.67766059586421
 30
0.0
 11
-227.5203545669397
 21
-11.67760732431562
 31
0.0
1001
REVIT
1002
{
1070
     1
1000
251060
1002
}
1002
{
1070
     5
1000
248263
1002
}
1002
{
1070
     2
1000
-2000151
1002
}
1002
{
1070
     3
1000
247327
1002
}
  0
LINE
  5
B72
330
6C
100
AcDbEntity
  8
0
 62
     0
370
     0
100
AcDbLine
 10
-227.5203545669397
 20
-11.67760732431562
 30
0.0
 11
-227.5207084359433
 21
-11.67744646094539
 31
0.0
1001
REVIT
1002
{
1070
     1
1000
251060
1002
}
1002
{
1070
     5
1000
248263
1002
}
1002
{
1070
     2
1000
-2000151
1002
}
1002
{
1070
     3
1000
247327
1002
}
  0
LINE
  5
B73
330
6C
100
AcDbEntity
  8
0
 62
     0
370
     0
100
AcDbLine
 10
-227.5207084359433
 20
-11.67744646094539
 30
0.0
 11
-227.5207084359433
 21
-11.67744646094539
 31
0.0
1001
REVIT
1002
{
1070
     1
1000
251060
1002
}
1002
{
1070
     5
1000
248263
1002
}
1002
{
1070
     2
1000
-2000151
1002
}
1002
{
1070
     3
1000
247327
1002
}
  0
LINE
  5
B74
330
6C
100
AcDbEntity
  8
0
 62
     0
370
     0
100
AcDbLine
 10
-227.4881575093534
 20
-11.6449396577105
 30
0.0
 11
-227.4879041322218
 21
-11.64513305178362
 31
0.0
1001
REVIT
1002
{
1070
     1
1000
251060
1002
}
1002
{
1070
     5
1000
248263
1002
}
1002
{
1070
     2
1000
-2000151
1002
}
1002
{
1070
     3
1000
247327
1002
}
  0
LINE
  5
B75
330
6C
100
AcDbEntity
  8
0
 62
     0
370
     0
100
AcDbLine
 10
-227.4879041322218
 20
-11.64513305178362
 30
0.0
 11
-227.4876339667198
 21
-11.64548471853277
 31
0.0
1001
REVIT
1002
{
1070
     1
1000
251060
1002
}
1002
{
1070
     5
1000
248263
1002
}
1002
{
1070
     2
1000
-2000151
1002
}
1002
{
1070
     3
1000
247327
1002
}
  0
LINE
  5
B76
330
6C
100
AcDbEntity
  8
0
 62
     0
370
     0
100
AcDbLine
 10
-227.4876339667198
 20
-11.64548471853277
 30
0.0
 11
-227.4874643182047
 21
-11.64591715198986
 31
0.0
1001
REVIT
1002
{
1070
     1
1000
251060
1002
}
1002
{
1070
     5
1000
248263
1002
}
1002
{
1070
     2
1000
-2000151
1002
}
1002
{
1070
     3
1000
247327
1002
}
  0
LINE
  5
B77
330
6C
100
AcDbEntity
  8
0
 62
     0
370
     0
100
AcDbLine
 10
-227.4874643182047
 20
-11.64591715198986
 30
0.0
 11
-227.4874067426722
 21
-11.64640097204998
 31
0.0
1001
REVIT
1002
{
1070
     1
1000
251060
1002
}
1002
{
1070
     5
1000
248263
1002
}
1002
{
1070
     2
1000
-2000151
1002
}
1002
{
1070
     3
1000
247327
1002
}
  0
LINE
  5
B78
330
6C
100
AcDbEntity
  8
0
 62
     0
370
     0
100
AcDbLine
 10
-227.4874067426722
 20
-11.64640097204998
 30
0.0
 11
-227.4874570543556
 21
-11.64686692239417
 31
0.0
1001
REVIT
1002
{
1070
     1
1000
251060
1002
}
1002
{
1070
     5
1000
248263
1002
}
1002
{
1070
     2
1000
-2000151
1002
}
1002
{
1070
     3
1000
247327
1002
}
  0
LINE
  5
B79
330
6C
100
AcDbEntity
  8
0
 62
     0
370
     0
100
AcDbLine
 10
-227.4874570543556
 20
-11.64686692239417
 30
0.0
 11
-227.4876042538454
 21
-11.6473215266197
 31
0.0
1001
REVIT
1002
{
1070
     1
1000
251060
1002
}
1002
{
1070
     5
1000
248263
1002
}
1002
{
1070
     2
1000
-2000151
1002
}
1002
{
1070
     3
1000
247327
1002
}
  0
LINE
  5
B7A
330
6C
100
AcDbEntity
  8
0
 62
     0
370
     0
100
AcDbLine
 10
-227.4876042538454
 20
-11.6473215266197
 30
0.0
 11
-227.4878397104545
 21
-11.64773819122858
 31
0.0
1001
REVIT
1002
{
1070
     1
1000
251060
1002
}
1002
{
1070
     5
1000
248263
1002
}
1002
{
1070
     2
1000
-2000151
1002
}
1002
{
1070
     3
1000
247327
1002
}
  0
LINE
  5
B7B
330
6C
100
AcDbEntity
  8
0
 62
     0
370
     0
100
AcDbLine
 10
-227.4878397104545
 20
-11.64773819122858
 30
0.0
 11
-227.4881496258084
 21
-11.64809255967615
 31
0.0
1001
REVIT
1002
{
1070
     1
1000
251060
1002
}
1002
{
1070
     5
1000
248263
1002
}
1002
{
1070
     2
1000
-2000151
1002
}
1002
{
1070
     3
1000
247327
1002
}
  0
LINE
  5
B7C
330
6C
100
AcDbEntity
  8
0
 62
     0
370
     0
100
AcDbLine
 10
-227.4881496258084
 20
-11.64809255967615
 30
0.0
 11
-227.4885158512745
 21
-11.64836394122558
 31
0.0
1001
REVIT
1002
{
1070
     1
1000
251060
1002
}
1002
{
1070
     5
1000
248263
1002
}
1002
{
1070
     2
1000
-2000151
1002
}
1002
{
1070
     3
1000
247327
1002
}
  0
LINE
  5
B7D
330
6C
100
AcDbEntity
  8
0
 62
     0
370
     0
100
AcDbLine
 10
-227.4885158512745
 20
-11.64836394122558
 30
0.0
 11
-227.4889169600548
 21
-11.64853651916682
 31
0.0
1001
REVIT
1002
{
1070
     1
1000
251060
1002
}
1002
{
1070
     5
1000
248263
1002
}
1002
{
1070
     2
1000
-2000151
1002
}
1002
{
1070
     3
1000
247327
1002
}
  0
LINE
  5
B7E
330
6C
100
AcDbEntity
  8
0
 62
     0
370
     0
100
AcDbLine
 10
-227.4889169600548
 20
-11.64853651916682
 30
0.0
 11
-227.4893295084737
 21
-11.64860026782399
 31
0.0
1001
REVIT
1002
{
1070
     1
1000
251060
1002
}
1002
{
1070
     5
1000
248263
1002
}
1002
{
1070
     2
1000
-2000151
1002
}
1002
{
1070
     3
1000
247327
1002
}
  0
LINE
  5
B7F
330
6C
100
AcDbEntity
  8
0
 62
     0
370
     0
100
AcDbLine
 10
-227.4893295084737
 20
-11.64860026782399
 30
0.0
 11
-227.4897294104519
 21
-11.64855152630974
 31
0.0
1001
REVIT
1002
{
1070
     1
1000
251060
1002
}
1002
{
1070
     5
1000
248263
1002
}
1002
{
1070
     2
1000
-2000151
1002
}
1002
{
1070
     3
1000
247327
1002
}
  0
LINE
  5
B80
330
6C
100
AcDbEntity
  8
0
 62
     0
370
     0
100
AcDbLine
 10
-227.4897294104519
 20
-11.64855152630974
 30
0.0
 11
-227.4900933436136
 21
-11.64839319820589
 31
0.0
1001
REVIT
1002
{
1070
     1
1000
251060
1002
}
1002
{
1070
     5
1000
248263
1002
}
1002
{
1070
     2
1000
-2000151
1002
}
1002
{
1070
     3
1000
247327
1002
}
  0
LINE
  5
B82
330
6C
100
AcDbEntity
  8
0
 62
     0
370
     0
100
AcDbLine
 10
-227.6322711165326
 20
-11.66947863606897
 30
0.0
 11
-227.6321973806082
 21
-11.66990661672483
 31
0.0
1001
REVIT
1002
{
1070
     1
1000
251060
1002
}
1002
{
1070
     5
1000
248263
1002
}
1002
{
1070
     2
1000
-2000151
1002
}
1002
{
1070
     3
1000
247327
1002
}
  0
LINE
  5
B83
330
6C
100
AcDbEntity
  8
0
 62
     0
370
     0
100
AcDbLine
 10
-227.6321973806082
 20
-11.66990661672483
 30
0.0
 11
-227.6320342202688
 21
-11.67028445692433
 31
0.0
1001
REVIT
1002
{
1070
     1
1000
251060
1002
}
1002
{
1070
     5
1000
248263
1002
}
1002
{
1070
     2
1000
-2000151
1002
}
1002
{
1070
     3
1000
247327
1002
}
  0
LINE
  5
B84
330
6C
100
AcDbEntity
  8
0
 62
     0
370
     0
100
AcDbLine
 10
-227.6320342202688
 20
-11.67028445692433
 30
0.0
 11
-227.6317918959395
 21
-11.67058833609547
 31
0.0
1001
REVIT
1002
{
1070
     1
1000
251060
1002
}
1002
{
1070
     5
1000
248263
1002
}
1002
{
1070
     2
1000
-2000151
1002
}
1002
{
1070
     3
1000
247327
1002
}
  0
LINE
  5
B85
330
6C
100
AcDbEntity
  8
0
 62
     0
370
     0
100
AcDbLine
 10
-227.6317918959395
 20
-11.67058833609547
 30
0.0
 11
-227.6314856551429
 21
-11.67079907364557
 31
0.0
1001
REVIT
1002
{
1070
     1
1000
251060
1002
}
1002
{
1070
     5
1000
248263
1002
}
1002
{
1070
     2
1000
-2000151
1002
}
1002
{
1070
     3
1000
247327
1002
}
  0
LINE
  5
B86
330
6C
100
AcDbEntity
  8
0
 62
     0
370
     0
100
AcDbLine
 10
-227.6314856551429
 20
-11.67079907364557
 30
0.0
 11
-227.6311347822616
 21
-11.67090333921387
 31
0.0
1001
REVIT
1002
{
1070
     1
1000
251060
1002
}
1002
{
1070
     5
1000
248263
1002
}
1002
{
1070
     2
1000
-2000151
1002
}
1002
{
1070
     3
1000
247327
1002
}
  0
LINE
  5
B87
330
6C
100
AcDbEntity
  8
0
 62
     0
370
     0
100
AcDbLine
 10
-227.6311347822616
 20
-11.67090333921387
 30
0.0
 11
-227.6307613929648
 21
-11.6708945009286
 31
0.0
1001
REVIT
1002
{
1070
     1
1000
251060
1002
}
1002
{
1070
     5
1000
248263
1002
}
1002
{
1070
     2
1000
-2000151
1002
}
1002
{
1070
     3
1000
247327
1002
}
  0
LINE
  5
B88
330
6C
100
AcDbEntity
  8
0
 62
     0
370
     0
100
AcDbLine
 10
-227.6307613929648
 20
-11.6708945009286
 30
0.0
 11
-227.6303890464903
 21
-11.67077305645406
 31
0.0
1001
REVIT
1002
{
1070
     1
1000
251060
1002
}
1002
{
1070
     5
1000
248263
1002
}
1002
{
1070
     2
1000
-2000151
1002
}
1002
{
1070
     3
1000
247327
1002
}
  0
LINE
  5
B89
330
6C
100
AcDbEntity
  8
0
 62
     0
370
     0
100
AcDbLine
 10
-227.6303890464903
 20
-11.67077305645406
 30
0.0
 11
-227.6300412612878
 21
-11.67054661654621
 31
0.0
1001
REVIT
1002
{
1070
     1
1000
251060
1002
}
1002
{
1070
     5
1000
248263
1002
}
1002
{
1070
     2
1000
-2000151
1002
}
1002
{
1070
     3
1000
247327
1002
}
  0
LINE
  5
B8A
330
6C
100
AcDbEntity
  8
0
 62
     0
370
     0
100
AcDbLine
 10
-227.6300412612878
 20
-11.67054661654621
 30
0.0
 11
-227.6297400270186
 21
-11.67022943843709
 31
0.0
1001
REVIT
1002
{
1070
     1
1000
251060
1002
}
1002
{
1070
     5
1000
248263
1002
}
1002
{
1070
     2
1000
-2000151
1002
}
1002
{
1070
     3
1000
247327
1002
}
  0
LINE
  5
B8B
330
6C
100
AcDbEntity
  8
0
 62
     0
370
     0
100
AcDbLine
 10
-227.6297400270186
 20
-11.67022943843709
 30
0.0
 11
-227.6295044076603
 21
-11.66984153506165
 31
0.0
1001
REVIT
1002
{
1070
     1
1000
251060
1002
}
1002
{
1070
     5
1000
248263
1002
}
1002
{
1070
     2
1000
-2000151
1002
}
1002
{
1070
     3
1000
247327
1002
}
  0
LINE
  5
B8C
330
6C
100
AcDbEntity
  8
0
 62
     0
370
     0
100
AcDbLine
 10
-227.6295044076603
 20
-11.66984153506165
 30
0.0
 11
-227.6293493260827
 21
-11.66940741405069
 31
0.0
1001
REVIT
1002
{
1070
     1
1000
251060
1002
}
1002
{
1070
     5
1000
248263
1002
}
1002
{
1070
     2
1000
-2000151
1002
}
1002
{
1070
     3
1000
247327
1002
}
  0
LINE
  5
B8D
330
6C
100
AcDbEntity
  8
0
 62
     0
370
     0
100
AcDbLine
 10
-227.6293493260827
 20
-11.66940741405069
 30
0.0
 11
-227.6292846097952
 21
-11.66895452550088
 31
0.0
1001
REVIT
1002
{
1070
     1
1000
251060
1002
}
1002
{
1070
     5
1000
248263
1002
}
1002
{
1070
     2
1000
-2000151
1002
}
1002
{
1070
     3
1000
247327
1002
}
  0
LINE
  5
B8E
330
6C
100
AcDbEntity
  8
0
 62
     0
370
     0
100
AcDbLine
 10
-227.6292846097952
 20
-11.66895452550088
 30
0.0
 11
-227.6293140174972
 21
-11.66851343979811
 31
0.0
1001
REVIT
1002
{
1070
     1
1000
251060
1002
}
1002
{
1070
     5
1000
248263
1002
}
1002
{
1070
     2
1000
-2000151
1002
}
1002
{
1070
     3
1000
247327
1002
}
  0
LINE
  5
B8F
330
6C
100
AcDbEntity
  8
0
 62
     0
370
     0
100
AcDbLine
 10
-227.6293140174972
 20
-11.66851343979811
 30
0.0
 11
-227.6294352044473
 21
-11.66810980053581
 31
0.0
1001
REVIT
1002
{
1070
     1
1000
251060
1002
}
1002
{
1070
     5
1000
248263
1002
}
1002
{
1070
     2
1000
-2000151
1002
}
1002
{
1070
     3
1000
247327
1002
}
  0
LINE
  5
B90
330
6C
100
AcDbEntity
  8
0
 62
     0
370
     0
100
AcDbLine
 10
-227.6294352044473
 20
-11.66810980053581
 30
0.0
 11
-227.6296405582713
 21
-11.6677689031291
 31
0.0
1001
REVIT
1002
{
1070
     1
1000
251060
1002
}
1002
{
1070
     5
1000
248263
1002
}
1002
{
1070
     2
1000
-2000151
1002
}
1002
{
1070
     3
1000
247327
1002
}
  0
LINE
  5
B91
330
6C
100
AcDbEntity
  8
0
 62
     0
370
     0
100
AcDbLine
 10
-227.6296405582713
 20
-11.6677689031291
 30
0.0
 11
-227.6299171856206
 21
-11.66751209191182
 31
0.0
1001
REVIT
1002
{
1070
     1
1000
251060
1002
}
1002
{
1070
     5
1000
248263
1002
}
1002
{
1070
     2
1000
-2000151
1002
}
1002
{
1070
     3
1000
247327
1002
}
  0
LINE
  5
B92
330
6C
100
AcDbEntity
  8
0
 62
     0
370
     0
100
AcDbLine
 10
-227.6299171856206
 20
-11.66751209191182
 30
0.0
 11
-227.6302477300704
 21
-11.66735542072886
 31
0.0
1001
REVIT
1002
{
1070
     1
1000
251060
1002
}
1002
{
1070
     5
1000
248263
1002
}
1002
{
1070
     2
1000
-2000151
1002
}
1002
{
1070
     3
1000
247327
1002
}
  0
LINE
  5
B93
330
6C
100
AcDbEntity
  8
0
 62
     0
370
     0
100
AcDbLine
 10
-227.6302477300704
 20
-11.66735542072886
 30
0.0
 11
-227.6306114702021
 21
-11.66730865185344
 31
0.0
1001
REVIT
1002
{
1070
     1
1000
251060
1002
}
1002
{
1070
     5
1000
248263
1002
}
1002
{
1070
     2
1000
-2000151
1002
}
1002
{
1070
     3
1000
247327
1002
}
  0
LINE
  5
B94
330
6C
100
AcDbEntity
  8
0
 62
     0
370
     0
100
AcDbLine
 10
-227.6306114702021
 20
-11.66730865185344
 30
0.0
 11
-227.6309856261552
 21
-11.66737465503325
 31
0.0
1001
REVIT
1002
{
1070
     1
1000
251060
1002
}
1002
{
1070
     5
1000
248263
1002
}
1002
{
1070
     2
1000
-2000151
1002
}
1002
{
1070
     3
1000
247327
1002
}
  0
LINE
  5
B95
330
6C
100
AcDbEntity
  8
0
 62
     0
370
     0
100
AcDbLine
 10
-227.6309856261552
 20
-11.66737465503325
 30
0.0
 11
-227.6313467904122
 21
-11.66754924183274
 31
0.0
1001
REVIT
1002
{
1070
     1
1000
251060
1002
}
1002
{
1070
     5
1000
248263
1002
}
1002
{
1070
     2
1000
-2000151
1002
}
1002
{
1070
     3
1000
247327
1002
}
  0
LINE
  5
B96
330
6C
100
AcDbEntity
  8
0
 62
     0
370
     0
100
AcDbLine
 10
-227.6313467904122
 20
-11.66754924183274
 30
0.0
 11
-227.6316723919379
 21
-11.6678214422079
 31
0.0
1001
REVIT
1002
{
1070
     1
1000
251060
1002
}
1002
{
1070
     5
1000
248263
1002
}
1002
{
1070
     2
1000
-2000151
1002
}
1002
{
1070
     3
1000
247327
1002
}
  0
LINE
  5
B97
330
6C
100
AcDbEntity
  8
0
 62
     0
370
     0
100
AcDbLine
 10
-227.6316723919379
 20
-11.6678214422079
 30
0.0
 11
-227.6319421021571
 21
-11.66817420243317
 31
0.0
1001
REVIT
1002
{
1070
     1
1000
251060
1002
}
1002
{
1070
     5
1000
248263
1002
}
1002
{
1070
     2
1000
-2000151
1002
}
1002
{
1070
     3
1000
247327
1002
}
  0
LINE
  5
B98
330
6C
100
AcDbEntity
  8
0
 62
     0
370
     0
100
AcDbLine
 10
-227.6319421021571
 20
-11.66817420243317
 30
0.0
 11
-227.6321390963391
 21
-11.66858545786963
 31
0.0
1001
REVIT
1002
{
1070
     1
1000
251060
1002
}
1002
{
1070
     5
1000
248263
1002
}
1002
{
1070
     2
1000
-2000151
1002
}
1002
{
1070
     3
1000
247327
1002
}
  0
LINE
  5
B99
330
6C
100
AcDbEntity
  8
0
 62
     0
370
     0
100
AcDbLine
 10
-227.6321390963391
 20
-11.66858545786963
 30
0.0
 11
-227.6322510940445
 21
-11.66902951203849
 31
0.0
1001
REVIT
1002
{
1070
     1
1000
251060
1002
}
1002
{
1070
     5
1000
248263
1002
}
1002
{
1070
     2
1000
-2000151
1002
}
1002
{
1070
     3
1000
247327
1002
}
  0
LINE
  5
B9A
330
6C
100
AcDbEntity
  8
0
 62
     0
370
     0
100
AcDbLine
 10
-227.6322510940445
 20
-11.66902951203849
 30
0.0
 11
-227.6322711165326
 21
-11.66947863606897
 31
0.0
1001
REVIT
1002
{
1070
     1
1000
251060
1002
}
1002
{
1070
     5
1000
248263
1002
}
1002
{
1070
     2
1000
-2000151
1002
}
1002
{
1070
     3
1000
247327
1002
}
  0
LINE
  5
B9B
330
6C
100
AcDbEntity
  8
0
 62
     0
370
     0
100
AcDbLine
 10
-227.6047193942748
 20
-11.68815075694562
 30
0.0
 11
-227.60467763832
 21
-11.68857888996621
 31
0.0
1001
REVIT
1002
{
1070
     1
1000
251060
1002
}
1002
{
1070
     5
1000
248263
1002
}
1002
{
1070
     2
1000
-2000151
1002
}
1002
{
1070
     3
1000
247327
1002
}
  0
LINE
  5
B9C
330
6C
100
AcDbEntity
  8
0
 62
     0
370
     0
100
AcDbLine
 10
-227.60467763832
 20
-11.68857888996621
 30
0.0
 11
-227.6045487415707
 21
-11.68896955491736
 31
0.0
1001
REVIT
1002
{
1070
     1
1000
251060
1002
}
1002
{
1070
     5
1000
248263
1002
}
1002
{
1070
     2
1000
-2000151
1002
}
1002
{
1070
     3
1000
247327
1002
}
  0
LINE
  5
B9D
330
6C
100
AcDbEntity
  8
0
 62
     0
370
     0
100
AcDbLine
 10
-227.6045487415707
 20
-11.68896955491736
 30
0.0
 11
-227.6043401993507
 21
-11.68929997988547
 31
0.0
1001
REVIT
1002
{
1070
     1
1000
251060
1002
}
1002
{
1070
     5
1000
248263
1002
}
1002
{
1070
     2
1000
-2000151
1002
}
1002
{
1070
     3
1000
247327
1002
}
  0
LINE
  5
B9E
330
6C
100
AcDbEntity
  8
0
 62
     0
370
     0
100
AcDbLine
 10
-227.6043401993507
 20
-11.68929997988547
 30
0.0
 11
-227.6040641441283
 21
-11.68955088672211
 31
0.0
1001
REVIT
1002
{
1070
     1
1000
251060
1002
}
1002
{
1070
     5
1000
248263
1002
}
1002
{
1070
     2
1000
-2000151
1002
}
1002
{
1070
     3
1000
247327
1002
}
  0
LINE
  5
B9F
330
6C
100
AcDbEntity
  8
0
 62
     0
370
     0
100
AcDbLine
 10
-227.6040641441283
 20
-11.68955088672211
 30
0.0
 11
-227.6037366471042
 21
-11.6897076134305
 31
0.0
1001
REVIT
1002
{
1070
     1
1000
251060
1002
}
1002
{
1070
     5
1000
248263
1002
}
1002
{
1070
     2
1000
-2000151
1002
}
1002
{
1070
     3
1000
247327
1002
}
  0
LINE
  5
BA0
330
6C
100
AcDbEntity
  8
0
 62
     0
370
     0
100
AcDbLine
 10
-227.6037366471042
 20
-11.6897076134305
 30
0.0
 11
-227.6033767905408
 21
-11.68976097312944
 31
0.0
1001
REVIT
1002
{
1070
     1
1000
251060
1002
}
1002
{
1070
     5
1000
248263
1002
}
1002
{
1070
     2
1000
-2000151
1002
}
1002
{
1070
     3
1000
247327
1002
}
  0
LINE
  5
BA1
330
6C
100
AcDbEntity
  8
0
 62
     0
370
     0
100
AcDbLine
 10
-227.6033767905408
 20
-11.68976097312944
 30
0.0
 11
-227.6030055625446
 21
-11.68970779878093
 31
0.0
1001
REVIT
1002
{
1070
     1
1000
251060
1002
}
1002
{
1070
     5
1000
248263
1002
}
1002
{
1070
     2
1000
-2000151
1002
}
1002
{
1070
     3
1000
247327
1002
}
  0
LINE
  5
BA2
330
6C
100
AcDbEntity
  8
0
 62
     0
370
     0
100
AcDbLine
 10
-227.6030055625446
 20
-11.68970779878093
 30
0.0
 11
-227.6026446367855
 21
-11.68955113996654
 31
0.0
1001
REVIT
1002
{
1070
     1
1000
251060
1002
}
1002
{
1070
     5
1000
248263
1002
}
1002
{
1070
     2
1000
-2000151
1002
}
1002
{
1070
     3
1000
247327
1002
}
  0
LINE
  5
BA3
330
6C
100
AcDbEntity
  8
0
 62
     0
370
     0
100
AcDbLine
 10
-227.6026446367855
 20
-11.68955113996654
 30
0.0
 11
-227.6023151072127
 21
-11.68930009749864
 31
0.0
1001
REVIT
1002
{
1070
     1
1000
251060
1002
}
1002
{
1070
     5
1000
248263
1002
}
1002
{
1070
     2
1000
-2000151
1002
}
1002
{
1070
     3
1000
247327
1002
}
  0
LINE
  5
BA4
330
6C
100
AcDbEntity
  8
0
 62
     0
370
     0
100
AcDbLine
 10
-227.6023151072127
 20
-11.68930009749864
 30
0.0
 11
-227.6020362516028
 21
-11.68896930260779
 31
0.0
1001
REVIT
1002
{
1070
     1
1000
251060
1002
}
1002
{
1070
     5
1000
248263
1002
}
1002
{
1070
     2
1000
-2000151
1002
}
1002
{
1070
     3
1000
247327
1002
}
  0
LINE
  5
BA5
330
6C
100
AcDbEntity
  8
0
 62
     0
370
     0
100
AcDbLine
 10
-227.6020362516028
 20
-11.68896930260779
 30
0.0
 11
-227.6018243972446
 21
-11.68857806868049
 31
0.0
1001
REVIT
1002
{
1070
     1
1000
251060
1002
}
1002
{
1070
     5
1000
248263
1002
}
1002
{
1070
     2
1000
-2000151
1002
}
1002
{
1070
     3
1000
247327
1002
}
  0
LINE
  5
BA6
330
6C
100
AcDbEntity
  8
0
 62
     0
370
     0
100
AcDbLine
 10
-227.6018243972446
 20
-11.68857806868049
 30
0.0
 11
-227.6016919570071
 21
-11.68814926368527
 31
0.0
1001
REVIT
1002
{
1070
     1
1000
251060
1002
}
1002
{
1070
     5
1000
248263
1002
}
1002
{
1070
     2
1000
-2000151
1002
}
1002
{
1070
     3
1000
247327
1002
}
  0
LINE
  5
BA7
330
6C
100
AcDbEntity
  8
0
 62
     0
370
     0
100
AcDbLine
 10
-227.6016919570071
 20
-11.68814926368527
 30
0.0
 11
-227.6016466945337
 21
-11.6877079691031
 31
0.0
1001
REVIT
1002
{
1070
     1
1000
251060
1002
}
1002
{
1070
     5
1000
248263
1002
}
1002
{
1070
     2
1000
-2000151
1002
}
1002
{
1070
     3
1000
247327
1002
}
  0
LINE
  5
BA8
330
6C
100
AcDbEntity
  8
0
 62
     0
370
     0
100
AcDbLine
 10
-227.6016466945337
 20
-11.6877079691031
 30
0.0
 11
-227.6016985063081
 21
-11.68724779500964
 31
0.0
1001
REVIT
1002
{
1070
     1
1000
251060
1002
}
1002
{
1070
     5
1000
248263
1002
}
1002
{
1070
     2
1000
-2000151
1002
}
1002
{
1070
     3
1000
247327
1002
}
  0
LINE
  5
BA9
330
6C
100
AcDbEntity
  8
0
 62
     0
370
     0
100
AcDbLine
 10
-227.6016985063081
 20
-11.68724779500964
 30
0.0
 11
-227.6018511584187
 21
-11.68683438841271
 31
0.0
1001
REVIT
1002
{
1070
     1
1000
251060
1002
}
1002
{
1070
     5
1000
248263
1002
}
1002
{
1070
     2
1000
-2000151
1002
}
1002
{
1070
     3
1000
247327
1002
}
  0
LINE
  5
BAA
330
6C
100
AcDbEntity
  8
0
 62
     0
370
     0
100
AcDbLine
 10
-227.6018511584187
 20
-11.68683438841271
 30
0.0
 11
-227.60209425482
 21
-11.68649583496073
 31
0.0
1001
REVIT
1002
{
1070
     1
1000
251060
1002
}
1002
{
1070
     5
1000
248263
1002
}
1002
{
1070
     2
1000
-2000151
1002
}
1002
{
1070
     3
1000
247327
1002
}
  0
LINE
  5
BAB
330
6C
100
AcDbEntity
  8
0
 62
     0
370
     0
100
AcDbLine
 10
-227.60209425482
 20
-11.68649583496073
 30
0.0
 11
-227.6024112491184
 21
-11.68625510980872
 31
0.0
1001
REVIT
1002
{
1070
     1
1000
251060
1002
}
1002
{
1070
     5
1000
248263
1002
}
1002
{
1070
     2
1000
-2000151
1002
}
1002
{
1070
     3
1000
247327
1002
}
  0
LINE
  5
BAC
330
6C
100
AcDbEntity
  8
0
 62
     0
370
     0
100
AcDbLine
 10
-227.6024112491184
 20
-11.68625510980872
 30
0.0
 11
-227.6027805819819
 21
-11.68612851655895
 31
0.0
1001
REVIT
1002
{
1070
     1
1000
251060
1002
}
1002
{
1070
     5
1000
248263
1002
}
1002
{
1070
     2
1000
-2000151
1002
}
1002
{
1070
     3
1000
247327
1002
}
  0
LINE
  5
BAD
330
6C
100
AcDbEntity
  8
0
 62
     0
370
     0
100
AcDbLine
 10
-227.6027805819819
 20
-11.68612851655895
 30
0.0
 11
-227.6031771586202
 21
-11.68612458823038
 31
0.0
1001
REVIT
1002
{
1070
     1
1000
251060
1002
}
1002
{
1070
     5
1000
248263
1002
}
1002
{
1070
     2
1000
-2000151
1002
}
1002
{
1070
     3
1000
247327
1002
}
  0
LINE
  5
BAE
330
6C
100
AcDbEntity
  8
0
 62
     0
370
     0
100
AcDbLine
 10
-227.6031771586202
 20
-11.68612458823038
 30
0.0
 11
-227.6035740620991
 21
-11.68624352294817
 31
0.0
1001
REVIT
1002
{
1070
     1
1000
251060
1002
}
1002
{
1070
     5
1000
248263
1002
}
1002
{
1070
     2
1000
-2000151
1002
}
1002
{
1070
     3
1000
247327
1002
}
  0
LINE
  5
BAF
330
6C
100
AcDbEntity
  8
0
 62
     0
370
     0
100
AcDbLine
 10
-227.6035740620991
 20
-11.68624352294817
 30
0.0
 11
-227.603944383332
 21
-11.6864771887438
 31
0.0
1001
REVIT
1002
{
1070
     1
1000
251060
1002
}
1002
{
1070
     5
1000
248263
1002
}
1002
{
1070
     2
1000
-2000151
1002
}
1002
{
1070
     3
1000
247327
1002
}
  0
LINE
  5
BB0
330
6C
100
AcDbEntity
  8
0
 62
     0
370
     0
100
AcDbLine
 10
-227.603944383332
 20
-11.6864771887438
 30
0.0
 11
-227.6042630425301
 21
-11.68680969227018
 31
0.0
1001
REVIT
1002
{
1070
     1
1000
251060
1002
}
1002
{
1070
     5
1000
248263
1002
}
1002
{
1070
     2
1000
-2000151
1002
}
1002
{
1070
     3
1000
247327
1002
}
  0
LINE
  5
BB1
330
6C
100
AcDbEntity
  8
0
 62
     0
370
     0
100
AcDbLine
 10
-227.6042630425301
 20
-11.68680969227018
 30
0.0
 11
-227.6045084796147
 21
-11.68721846830389
 31
0.0
1001
REVIT
1002
{
1070
     1
1000
251060
1002
}
1002
{
1070
     5
1000
248263
1002
}
1002
{
1070
     2
1000
-2000151
1002
}
1002
{
1070
     3
1000
247327
1002
}
  0
LINE
  5
BB2
330
6C
100
AcDbEntity
  8
0
 62
     0
370
     0
100
AcDbLine
 10
-227.6045084796147
 20
-11.68721846830389
 30
0.0
 11
-227.604664101822
 21
-11.68767581310806
 31
0.0
1001
REVIT
1002
{
1070
     1
1000
251060
1002
}
1002
{
1070
     5
1000
248263
1002
}
1002
{
1070
     2
1000
-2000151
1002
}
1002
{
1070
     3
1000
247327
1002
}
  0
LINE
  5
BB3
330
6C
100
AcDbEntity
  8
0
 62
     0
370
     0
100
AcDbLine
 10
-227.604664101822
 20
-11.68767581310806
 30
0.0
 11
-227.6047193942748
 21
-11.68815075694562
 31
0.0
1001
REVIT
1002
{
1070
     1
1000
251060
1002
}
1002
{
1070
     5
1000
248263
1002
}
1002
{
1070
     2
1000
-2000151
1002
}
1002
{
1070
     3
1000
247327
1002
}
  0
LINE
  5
BB4
330
6C
100
AcDbEntity
  8
0
 62
     0
370
     0
100
AcDbLine
 10
-227.5848226844601
 20
-11.66170784705648
 30
0.0
 11
-227.5847801287008
 21
-11.66213953527365
 31
0.0
1001
REVIT
1002
{
1070
     1
1000
251060
1002
}
1002
{
1070
     5
1000
248263
1002
}
1002
{
1070
     2
1000
-2000151
1002
}
1002
{
1070
     3
1000
247327
1002
}
  0
LINE
  5
BB5
330
6C
100
AcDbEntity
  8
0
 62
     0
370
     0
100
AcDbLine
 10
-227.5847801287008
 20
-11.66213953527365
 30
0.0
 11
-227.5846487600681
 21
-11.66253228200041
 31
0.0
1001
REVIT
1002
{
1070
     1
1000
251060
1002
}
1002
{
1070
     5
1000
248263
1002
}
1002
{
1070
     2
1000
-2000151
1002
}
1002
{
1070
     3
1000
247327
1002
}
  0
LINE
  5
BB6
330
6C
100
AcDbEntity
  8
0
 62
     0
370
     0
100
AcDbLine
 10
-227.5846487600681
 20
-11.66253228200041
 30
0.0
 11
-227.5844362173313
 21
-11.66286319409362
 31
0.0
1001
REVIT
1002
{
1070
     1
1000
251060
1002
}
1002
{
1070
     5
1000
248263
1002
}
1002
{
1070
     2
1000
-2000151
1002
}
1002
{
1070
     3
1000
247327
1002
}
  0
LINE
  5
BB7
330
6C
100
AcDbEntity
  8
0
 62
     0
370
     0
100
AcDbLine
 10
-227.5844362173313
 20
-11.66286319409362
 30
0.0
 11
-227.5841548652798
 21
-11.66311296466428
 31
0.0
1001
REVIT
1002
{
1070
     1
1000
251060
1002
}
1002
{
1070
     5
1000
248263
1002
}
1002
{
1070
     2
1000
-2000151
1002
}
1002
{
1070
     3
1000
247327
1002
}
  0
LINE
  5
BB8
330
6C
100
AcDbEntity
  8
0
 62
     0
370
     0
100
AcDbLine
 10
-227.5841548652798
 20
-11.66311296466428
 30
0.0
 11
-227.5838210830346
 21
-11.66326699720992
 31
0.0
1001
REVIT
1002
{
1070
     1
1000
251060
1002
}
1002
{
1070
     5
1000
248263
1002
}
1002
{
1070
     2
1000
-2000151
1002
}
1002
{
1070
     3
1000
247327
1002
}
  0
LINE
  5
BB9
330
6C
100
AcDbEntity
  8
0
 62
     0
370
     0
100
AcDbLine
 10
-227.5838210830346
 20
-11.66326699720992
 30
0.0
 11
-227.5834543187059
 21
-11.66331626094812
 31
0.0
1001
REVIT
1002
{
1070
     1
1000
251060
1002
}
1002
{
1070
     5
1000
248263
1002
}
1002
{
1070
     2
1000
-2000151
1002
}
1002
{
1070
     3
1000
247327
1002
}
  0
LINE
  5
BBA
330
6C
100
AcDbEntity
  8
0
 62
     0
370
     0
100
AcDbLine
 10
-227.5834543187059
 20
-11.66331626094812
 30
0.0
 11
-227.5830759630732
 21
-11.66325782670572
 31
0.0
1001
REVIT
1002
{
1070
     1
1000
251060
1002
}
1002
{
1070
     5
1000
248263
1002
}
1002
{
1070
     2
1000
-2000151
1002
}
1002
{
1070
     3
1000
247327
1002
}
  0
LINE
  5
BBB
330
6C
100
AcDbEntity
  8
0
 62
     0
370
     0
100
AcDbLine
 10
-227.5830759630732
 20
-11.66325782670572
 30
0.0
 11
-227.5827081059434
 21
-11.66309505010114
 31
0.0
1001
REVIT
1002
{
1070
     1
1000
251060
1002
}
1002
{
1070
     5
1000
248263
1002
}
1002
{
1070
     2
1000
-2000151
1002
}
1002
{
1070
     3
1000
247327
1002
}
  0
LINE
  5
BBC
330
6C
100
AcDbEntity
  8
0
 62
     0
370
     0
100
AcDbLine
 10
-227.5827081059434
 20
-11.66309505010114
 30
0.0
 11
-227.5823722465747
 21
-11.6628373885327
 31
0.0
1001
REVIT
1002
{
1070
     1
1000
251060
1002
}
1002
{
1070
     5
1000
248263
1002
}
1002
{
1070
     2
1000
-2000151
1002
}
1002
{
1070
     3
1000
247327
1002
}
  0
LINE
  5
BBD
330
6C
100
AcDbEntity
  8
0
 62
     0
370
     0
100
AcDbLine
 10
-227.5823722465747
 20
-11.6628373885327
 30
0.0
 11
-227.5820880334172
 21
-11.66249985968609
 31
0.0
1001
REVIT
1002
{
1070
     1
1000
251060
1002
}
1002
{
1070
     5
1000
248263
1002
}
1002
{
1070
     2
1000
-2000151
1002
}
1002
{
1070
     3
1000
247327
1002
}
  0
LINE
  5
BBE
330
6C
100
AcDbEntity
  8
0
 62
     0
370
     0
100
AcDbLine
 10
-227.5820880334172
 20
-11.66249985968609
 30
0.0
 11
-227.5818721079033
 21
-11.66210217071062
 31
0.0
1001
REVIT
1002
{
1070
     1
1000
251060
1002
}
1002
{
1070
     5
1000
248263
1002
}
1002
{
1070
     2
1000
-2000151
1002
}
1002
{
1070
     3
1000
247327
1002
}
  0
LINE
  5
BBF
330
6C
100
AcDbEntity
  8
0
 62
     0
370
     0
100
AcDbLine
 10
-227.5818721079033
 20
-11.66210217071062
 30
0.0
 11
-227.581737121868
 21
-11.66166756751826
 31
0.0
1001
REVIT
1002
{
1070
     1
1000
251060
1002
}
1002
{
1070
     5
1000
248263
1002
}
1002
{
1070
     2
1000
-2000151
1002
}
1002
{
1070
     3
1000
247327
1002
}
  0
LINE
  5
BC0
330
6C
100
AcDbEntity
  8
0
 62
     0
370
     0
100
AcDbLine
 10
-227.581737121868
 20
-11.66166756751826
 30
0.0
 11
-227.5816909884919
 21
-11.66122147140358
 31
0.0
1001
REVIT
1002
{
1070
     1
1000
251060
1002
}
1002
{
1070
     5
1000
248263
1002
}
1002
{
1070
     2
1000
-2000151
1002
}
1002
{
1070
     3
1000
247327
1002
}
  0
LINE
  5
BC1
330
6C
100
AcDbEntity
  8
0
 62
     0
370
     0
100
AcDbLine
 10
-227.5816909884919
 20
-11.66122147140358
 30
0.0
 11
-227.5817437944796
 21
-11.66075755873101
 31
0.0
1001
REVIT
1002
{
1070
     1
1000
251060
1002
}
1002
{
1070
     5
1000
248263
1002
}
1002
{
1070
     2
1000
-2000151
1002
}
1002
{
1070
     3
1000
247327
1002
}
  0
LINE
  5
BC2
330
6C
100
AcDbEntity
  8
0
 62
     0
370
     0
100
AcDbLine
 10
-227.5817437944796
 20
-11.66075755873101
 30
0.0
 11
-227.5818993782955
 21
-11.66034215325773
 31
0.0
1001
REVIT
1002
{
1070
     1
1000
251060
1002
}
1002
{
1070
     5
1000
248263
1002
}
1002
{
1070
     2
1000
-2000151
1002
}
1002
{
1070
     3
1000
247327
1002
}
  0
LINE
  5
BC3
330
6C
100
AcDbEntity
  8
0
 62
     0
370
     0
100
AcDbLine
 10
-227.5818993782955
 20
-11.66034215325773
 30
0.0
 11
-227.5821471438394
 21
-11.66000347650512
 31
0.0
1001
REVIT
1002
{
1070
     1
1000
251060
1002
}
1002
{
1070
     5
1000
248263
1002
}
1002
{
1070
     2
1000
-2000151
1002
}
1002
{
1070
     3
1000
247327
1002
}
  0
LINE
  5
BC4
330
6C
100
AcDbEntity
  8
0
 62
     0
370
     0
100
AcDbLine
 10
-227.5821471438394
 20
-11.66000347650512
 30
0.0
 11
-227.5824702263677
 21
-11.65976451144608
 31
0.0
1001
REVIT
1002
{
1070
     1
1000
251060
1002
}
1002
{
1070
     5
1000
248263
1002
}
1002
{
1070
     2
1000
-2000151
1002
}
1002
{
1070
     3
1000
247327
1002
}
  0
LINE
  5
BC5
330
6C
100
AcDbEntity
  8
0
 62
     0
370
     0
100
AcDbLine
 10
-227.5824702263677
 20
-11.65976451144608
 30
0.0
 11
-227.5828466519347
 21
-11.65964144106067
 31
0.0
1001
REVIT
1002
{
1070
     1
1000
251060
1002
}
1002
{
1070
     5
1000
248263
1002
}
1002
{
1070
     2
1000
-2000151
1002
}
1002
{
1070
     3
1000
247327
1002
}
  0
LINE
  5
BC6
330
6C
100
AcDbEntity
  8
0
 62
     0
370
     0
100
AcDbLine
 10
-227.5828466519347
 20
-11.65964144106067
 30
0.0
 11
-227.5832508434303
 21
-11.65964255781577
 31
0.0
1001
REVIT
1002
{
1070
     1
1000
251060
1002
}
1002
{
1070
     5
1000
248263
1002
}
1002
{
1070
     2
1000
-2000151
1002
}
1002
{
1070
     3
1000
247327
1002
}
  0
LINE
  5
BC7
330
6C
100
AcDbEntity
  8
0
 62
     0
370
     0
100
AcDbLine
 10
-227.5832508434303
 20
-11.65964255781577
 30
0.0
 11
-227.5836553669313
 21
-11.6597677160942
 31
0.0
1001
REVIT
1002
{
1070
     1
1000
251060
1002
}
1002
{
1070
     5
1000
248263
1002
}
1002
{
1070
     2
1000
-2000151
1002
}
1002
{
1070
     3
1000
247327
1002
}
  0
LINE
  5
BC8
330
6C
100
AcDbEntity
  8
0
 62
     0
370
     0
100
AcDbLine
 10
-227.5836553669313
 20
-11.6597677160942
 30
0.0
 11
-227.5840327968798
 21
-11.66000836071588
 31
0.0
1001
REVIT
1002
{
1070
     1
1000
251060
1002
}
1002
{
1070
     5
1000
248263
1002
}
1002
{
1070
     2
1000
-2000151
1002
}
1002
{
1070
     3
1000
247327
1002
}
  0
LINE
  5
BC9
330
6C
100
AcDbEntity
  8
0
 62
     0
370
     0
100
AcDbLine
 10
-227.5840327968798
 20
-11.66000836071588
 30
0.0
 11
-227.5843575724561
 21
-11.66034812463856
 31
0.0
1001
REVIT
1002
{
1070
     1
1000
251060
1002
}
1002
{
1070
     5
1000
248263
1002
}
1002
{
1070
     2
1000
-2000151
1002
}
1002
{
1070
     3
1000
247327
1002
}
  0
LINE
  5
BCA
330
6C
100
AcDbEntity
  8
0
 62
     0
370
     0
100
AcDbLine
 10
-227.5843575724561
 20
-11.66034812463856
 30
0.0
 11
-227.5846077203045
 21
-11.6607639506703
 31
0.0
1001
REVIT
1002
{
1070
     1
1000
251060
1002
}
1002
{
1070
     5
1000
248263
1002
}
1002
{
1070
     2
1000
-2000151
1002
}
1002
{
1070
     3
1000
247327
1002
}
  0
LINE
  5
BCB
330
6C
100
AcDbEntity
  8
0
 62
     0
370
     0
100
AcDbLine
 10
-227.5846077203045
 20
-11.6607639506703
 30
0.0
 11
-227.5847663297415
 21
-11.66122765806241
 31
0.0
1001
REVIT
1002
{
1070
     1
1000
251060
1002
}
1002
{
1070
     5
1000
248263
1002
}
1002
{
1070
     2
1000
-2000151
1002
}
1002
{
1070
     3
1000
247327
1002
}
  0
LINE
  5
BCC
330
6C
100
AcDbEntity
  8
0
 62
     0
370
     0
100
AcDbLine
 10
-227.5847663297415
 20
-11.66122765806241
 30
0.0
 11
-227.5848226844601
 21
-11.66170784705648
 31
0.0
1001
REVIT
1002
{
1070
     1
1000
251060
1002
}
1002
{
1070
     5
1000
248263
1002
}
1002
{
1070
     2
1000
-2000151
1002
}
1002
{
1070
     3
1000
247327
1002
}
  0
LINE
  5
BCD
330
6C
100
AcDbEntity
  8
0
 62
     0
370
     0
100
AcDbLine
 10
-227.5429935622807
 20
-11.6549831712037
 30
0.0
 11
-227.5429493003728
 21
-11.65542330253946
 31
0.0
1001
REVIT
1002
{
1070
     1
1000
251060
1002
}
1002
{
1070
     5
1000
248263
1002
}
1002
{
1070
     2
1000
-2000151
1002
}
1002
{
1070
     3
1000
247327
1002
}
  0
LINE
  5
BCE
330
6C
100
AcDbEntity
  8
0
 62
     0
370
     0
100
AcDbLine
 10
-227.5429493003728
 20
-11.65542330253946
 30
0.0
 11
-227.5428126591926
 21
-11.65582342983135
 31
0.0
1001
REVIT
1002
{
1070
     1
1000
251060
1002
}
1002
{
1070
     5
1000
248263
1002
}
1002
{
1070
     2
1000
-2000151
1002
}
1002
{
1070
     3
1000
247327
1002
}
  0
LINE
  5
BCF
330
6C
100
AcDbEntity
  8
0
 62
     0
370
     0
100
AcDbLine
 10
-227.5428126591926
 20
-11.65582342983135
 30
0.0
 11
-227.5425915834502
 21
-11.65616023042019
 31
0.0
1001
REVIT
1002
{
1070
     1
1000
251060
1002
}
1002
{
1070
     5
1000
248263
1002
}
1002
{
1070
     2
1000
-2000151
1002
}
1002
{
1070
     3
1000
247327
1002
}
  0
LINE
  5
BD0
330
6C
100
AcDbEntity
  8
0
 62
     0
370
     0
100
AcDbLine
 10
-227.5425915834502
 20
-11.65616023042019
 30
0.0
 11
-227.5422989334255
 21
-11.65641405400936
 31
0.0
1001
REVIT
1002
{
1070
     1
1000
251060
1002
}
1002
{
1070
     5
1000
248263
1002
}
1002
{
1070
     2
1000
-2000151
1002
}
1002
{
1070
     3
1000
247327
1002
}
  0
LINE
  5
BD1
330
6C
100
AcDbEntity
  8
0
 62
     0
370
     0
100
AcDbLine
 10
-227.5422989334255
 20
-11.65641405400936
 30
0.0
 11
-227.5419517449722
 21
-11.65657006675608
 31
0.0
1001
REVIT
1002
{
1070
     1
1000
251060
1002
}
1002
{
1070
     5
1000
248263
1002
}
1002
{
1070
     2
1000
-2000151
1002
}
1002
{
1070
     3
1000
247327
1002
}
  0
LINE
  5
BD2
330
6C
100
AcDbEntity
  8
0
 62
     0
370
     0
100
AcDbLine
 10
-227.5419517449722
 20
-11.65657006675608
 30
0.0
 11
-227.5415702465009
 21
-11.65661912062299
 31
0.0
1001
REVIT
1002
{
1070
     1
1000
251060
1002
}
1002
{
1070
     5
1000
248263
1002
}
1002
{
1070
     2
1000
-2000151
1002
}
1002
{
1070
     3
1000
247327
1002
}
  0
LINE
  5
BD3
330
6C
100
AcDbEntity
  8
0
 62
     0
370
     0
100
AcDbLine
 10
-227.5415702465009
 20
-11.65661912062299
 30
0.0
 11
-227.5411766876565
 21
-11.65655829648949
 31
0.0
1001
REVIT
1002
{
1070
     1
1000
251060
1002
}
1002
{
1070
     5
1000
248263
1002
}
1002
{
1070
     2
1000
-2000151
1002
}
1002
{
1070
     3
1000
247327
1002
}
  0
LINE
  5
BD4
330
6C
100
AcDbEntity
  8
0
 62
     0
370
     0
100
AcDbLine
 10
-227.5411766876565
 20
-11.65655829648949
 30
0.0
 11
-227.5407940458536
 21
-11.65639108725298
 31
0.0
1001
REVIT
1002
{
1070
     1
1000
251060
1002
}
1002
{
1070
     5
1000
248263
1002
}
1002
{
1070
     2
1000
-2000151
1002
}
1002
{
1070
     3
1000
247327
1002
}
  0
LINE
  5
BD5
330
6C
100
AcDbEntity
  8
0
 62
     0
370
     0
100
AcDbLine
 10
-227.5407940458536
 20
-11.65639108725298
 30
0.0
 11
-227.540444684885
 21
-11.65612720732126
 31
0.0
1001
REVIT
1002
{
1070
     1
1000
251060
1002
}
1002
{
1070
     5
1000
248263
1002
}
1002
{
1070
     2
1000
-2000151
1002
}
1002
{
1070
     3
1000
247327
1002
}
  0
LINE
  5
BD6
330
6C
100
AcDbEntity
  8
0
 62
     0
370
     0
100
AcDbLine
 10
-227.540444684885
 20
-11.65612720732126
 30
0.0
 11
-227.5401490438833
 21
-11.65578203652753
 31
0.0
1001
REVIT
1002
{
1070
     1
1000
251060
1002
}
1002
{
1070
     5
1000
248263
1002
}
1002
{
1070
     2
1000
-2000151
1002
}
1002
{
1070
     3
1000
247327
1002
}
  0
LINE
  5
BD7
330
6C
100
AcDbEntity
  8
0
 62
     0
370
     0
100
AcDbLine
 10
-227.5401490438833
 20
-11.65578203652753
 30
0.0
 11
-227.5399244343967
 21
-11.65537572837394
 31
0.0
1001
REVIT
1002
{
1070
     1
1000
251060
1002
}
1002
{
1070
     5
1000
248263
1002
}
1002
{
1070
     2
1000
-2000151
1002
}
1002
{
1070
     3
1000
247327
1002
}
  0
LINE
  5
BD8
330
6C
100
AcDbEntity
  8
0
 62
     0
370
     0
100
AcDbLine
 10
-227.5399244343967
 20
-11.65537572837394
 30
0.0
 11
-227.5397840180152
 21
-11.65493203323051
 31
0.0
1001
REVIT
1002
{
1070
     1
1000
251060
1002
}
1002
{
1070
     5
1000
248263
1002
}
1002
{
1070
     2
1000
-2000151
1002
}
1002
{
1070
     3
1000
247327
1002
}
  0
LINE
  5
BD9
330
6C
100
AcDbEntity
  8
0
 62
     0
370
     0
100
AcDbLine
 10
-227.5397840180152
 20
-11.65493203323051
 30
0.0
 11
-227.5397360269212
 21
-11.65447690522007
 31
0.0
1001
REVIT
1002
{
1070
     1
1000
251060
1002
}
1002
{
1070
     5
1000
248263
1002
}
1002
{
1070
     2
1000
-2000151
1002
}
1002
{
1070
     3
1000
247327
1002
}
  0
LINE
  5
BDA
330
6C
100
AcDbEntity
  8
0
 62
     0
370
     0
100
AcDbLine
 10
-227.5397360269212
 20
-11.65447690522007
 30
0.0
 11
-227.5397909536252
 21
-11.65400392890877
 31
0.0
1001
REVIT
1002
{
1070
     1
1000
251060
1002
}
1002
{
1070
     5
1000
248263
1002
}
1002
{
1070
     2
1000
-2000151
1002
}
1002
{
1070
     3
1000
247327
1002
}
  0
LINE
  5
BDB
330
6C
100
AcDbEntity
  8
0
 62
     0
370
     0
100
AcDbLine
 10
-227.5397909536252
 20
-11.65400392890877
 30
0.0
 11
-227.5399527910096
 21
-11.65358076230499
 31
0.0
1001
REVIT
1002
{
1070
     1
1000
251060
1002
}
1002
{
1070
     5
1000
248263
1002
}
1002
{
1070
     2
1000
-2000151
1002
}
1002
{
1070
     3
1000
247327
1002
}
  0
LINE
  5
BDC
330
6C
100
AcDbEntity
  8
0
 62
     0
370
     0
100
AcDbLine
 10
-227.5399527910096
 20
-11.65358076230499
 30
0.0
 11
-227.540210516198
 21
-11.6532361549811
 31
0.0
1001
REVIT
1002
{
1070
     1
1000
251060
1002
}
1002
{
1070
     5
1000
248263
1002
}
1002
{
1070
     2
1000
-2000151
1002
}
1002
{
1070
     3
1000
247327
1002
}
  0
LINE
  5
BDD
330
6C
100
AcDbEntity
  8
0
 62
     0
370
     0
100
AcDbLine
 10
-227.540210516198
 20
-11.6532361549811
 30
0.0
 11
-227.5405465853249
 21
-11.65299349237825
 31
0.0
1001
REVIT
1002
{
1070
     1
1000
251060
1002
}
1002
{
1070
     5
1000
248263
1002
}
1002
{
1070
     2
1000
-2000151
1002
}
1002
{
1070
     3
1000
247327
1002
}
  0
LINE
  5
BDE
330
6C
100
AcDbEntity
  8
0
 62
     0
370
     0
100
AcDbLine
 10
-227.5405465853249
 20
-11.65299349237825
 30
0.0
 11
-227.5409381399827
 21
-11.65286920701589
 31
0.0
1001
REVIT
1002
{
1070
     1
1000
251060
1002
}
1002
{
1070
     5
1000
248263
1002
}
1002
{
1070
     2
1000
-2000151
1002
}
1002
{
1070
     3
1000
247327
1002
}
  0
LINE
  5
BDF
330
6C
100
AcDbEntity
  8
0
 62
     0
370
     0
100
AcDbLine
 10
-227.5409381399827
 20
-11.65286920701589
 30
0.0
 11
-227.5413585742003
 21
-11.65287167138761
 31
0.0
1001
REVIT
1002
{
1070
     1
1000
251060
1002
}
1002
{
1070
     5
1000
248263
1002
}
1002
{
1070
     2
1000
-2000151
1002
}
1002
{
1070
     3
1000
247327
1002
}
  0
LINE
  5
BE0
330
6C
100
AcDbEntity
  8
0
 62
     0
370
     0
100
AcDbLine
 10
-227.5413585742003
 20
-11.65287167138761
 30
0.0
 11
-227.5417793512747
 21
-11.65300064560089
 31
0.0
1001
REVIT
1002
{
1070
     1
1000
251060
1002
}
1002
{
1070
     5
1000
248263
1002
}
1002
{
1070
     2
1000
-2000151
1002
}
1002
{
1070
     3
1000
247327
1002
}
  0
LINE
  5
BE1
330
6C
100
AcDbEntity
  8
0
 62
     0
370
     0
100
AcDbLine
 10
-227.5417793512747
 20
-11.65300064560089
 30
0.0
 11
-227.5421719440126
 21
-11.65324731305693
 31
0.0
1001
REVIT
1002
{
1070
     1
1000
251060
1002
}
1002
{
1070
     5
1000
248263
1002
}
1002
{
1070
     2
1000
-2000151
1002
}
1002
{
1070
     3
1000
247327
1002
}
  0
LINE
  5
BE2
330
6C
100
AcDbEntity
  8
0
 62
     0
370
     0
100
AcDbLine
 10
-227.5421719440126
 20
-11.65324731305693
 30
0.0
 11
-227.5425097655857
 21
-11.65359489656833
 31
0.0
1001
REVIT
1002
{
1070
     1
1000
251060
1002
}
1002
{
1070
     5
1000
248263
1002
}
1002
{
1070
     2
1000
-2000151
1002
}
1002
{
1070
     3
1000
247327
1002
}
  0
LINE
  5
BE3
330
6C
100
AcDbEntity
  8
0
 62
     0
370
     0
100
AcDbLine
 10
-227.5425097655857
 20
-11.65359489656833
 30
0.0
 11
-227.5427699611756
 21
-11.65401980831597
 31
0.0
1001
REVIT
1002
{
1070
     1
1000
251060
1002
}
1002
{
1070
     5
1000
248263
1002
}
1002
{
1070
     2
1000
-2000151
1002
}
1002
{
1070
     3
1000
247327
1002
}
  0
LINE
  5
BE4
330
6C
100
AcDbEntity
  8
0
 62
     0
370
     0
100
AcDbLine
 10
-227.5427699611756
 20
-11.65401980831597
 30
0.0
 11
-227.5429349420412
 21
-11.65449325248602
 31
0.0
1001
REVIT
1002
{
1070
     1
1000
251060
1002
}
1002
{
1070
     5
1000
248263
1002
}
1002
{
1070
     2
1000
-2000151
1002
}
1002
{
1070
     3
1000
247327
1002
}
  0
LINE
  5
BE5
330
6C
100
AcDbEntity
  8
0
 62
     0
370
     0
100
AcDbLine
 10
-227.5429349420412
 20
-11.65449325248602
 30
0.0
 11
-227.5429935622807
 21
-11.6549831712037
 31
0.0
1001
REVIT
1002
{
1070
     1
1000
251060
1002
}
1002
{
1070
     5
1000
248263
1002
}
1002
{
1070
     2
1000
-2000151
1002
}
1002
{
1070
     3
1000
247327
1002
}
  0
LINE
  5
BE6
330
6C
100
AcDbEntity
  8
0
 62
     0
370
     0
100
AcDbLine
 10
-227.5218915239868
 20
-11.67575857292072
 30
0.0
 11
-227.5218463886494
 21
-11.67620346198845
 31
0.0
1001
REVIT
1002
{
1070
     1
1000
251060
1002
}
1002
{
1070
     5
1000
248263
1002
}
1002
{
1070
     2
1000
-2000151
1002
}
1002
{
1070
     3
1000
247327
1002
}
  0
LINE
  5
BE7
330
6C
100
AcDbEntity
  8
0
 62
     0
370
     0
100
AcDbLine
 10
-227.5218463886494
 20
-11.67620346198845
 30
0.0
 11
-227.5217070485402
 21
-11.67660885743677
 31
0.0
1001
REVIT
1002
{
1070
     1
1000
251060
1002
}
1002
{
1070
     5
1000
248263
1002
}
1002
{
1070
     2
1000
-2000151
1002
}
1002
{
1070
     3
1000
247327
1002
}
  0
LINE
  5
BE8
330
6C
100
AcDbEntity
  8
0
 62
     0
370
     0
100
AcDbLine
 10
-227.5217070485402
 20
-11.67660885743677
 30
0.0
 11
-227.5214816049587
 21
-11.67695113012348
 31
0.0
1001
REVIT
1002
{
1070
     1
1000
251060
1002
}
1002
{
1070
     5
1000
248263
1002
}
1002
{
1070
     2
1000
-2000151
1002
}
1002
{
1070
     3
1000
247327
1002
}
  0
LINE
  5
BE9
330
6C
100
AcDbEntity
  8
0
 62
     0
370
     0
100
AcDbLine
 10
-227.5214816049587
 20
-11.67695113012348
 30
0.0
 11
-227.5211831717911
 21
-11.67721031100755
 31
0.0
1001
REVIT
1002
{
1070
     1
1000
251060
1002
}
1002
{
1070
     5
1000
248263
1002
}
1002
{
1070
     2
1000
-2000151
1002
}
1002
{
1070
     3
1000
247327
1002
}
  0
LINE
  5
BEA
330
6C
100
AcDbEntity
  8
0
 62
     0
370
     0
100
AcDbLine
 10
-227.5211831717911
 20
-11.67721031100755
 30
0.0
 11
-227.5208291210311
 21
-11.67737125367974
 31
0.0
1001
REVIT
1002
{
1070
     1
1000
251060
1002
}
1002
{
1070
     5
1000
248263
1002
}
1002
{
1070
     2
1000
-2000151
1002
}
1002
{
1070
     3
1000
247327
1002
}
  0
LINE
  5
BEB
330
6C
100
AcDbEntity
  8
0
 62
     0
370
     0
100
AcDbLine
 10
-227.5208291210311
 20
-11.67737125367974
 30
0.0
 11
-227.520440080482
 21
-11.6774245219129
 31
0.0
1001
REVIT
1002
{
1070
     1
1000
251060
1002
}
1002
{
1070
     5
1000
248263
1002
}
1002
{
1070
     2
1000
-2000151
1002
}
1002
{
1070
     3
1000
247327
1002
}
  0
LINE
  5
BEC
330
6C
100
AcDbEntity
  8
0
 62
     0
370
     0
100
AcDbLine
 10
-227.520440080482
 20
-11.6774245219129
 30
0.0
 11
-227.5200387394077
 21
-11.67736694968075
 31
0.0
1001
REVIT
1002
{
1070
     1
1000
251060
1002
}
1002
{
1070
     5
1000
248263
1002
}
1002
{
1070
     2
1000
-2000151
1002
}
1002
{
1070
     3
1000
247327
1002
}
  0
LINE
  5
BED
330
6C
100
AcDbEntity
  8
0
 62
     0
370
     0
100
AcDbLine
 10
-227.5200387394077
 20
-11.67736694968075
 30
0.0
 11
-227.5196485295659
 21
-11.67720183886983
 31
0.0
1001
REVIT
1002
{
1070
     1
1000
251060
1002
}
1002
{
1070
     5
1000
248263
1002
}
1002
{
1070
     2
1000
-2000151
1002
}
1002
{
1070
     3
1000
247327
1002
}
  0
LINE
  5
BEE
330
6C
100
AcDbEntity
  8
0
 62
     0
370
     0
100
AcDbLine
 10
-227.5196485295659
 20
-11.67720183886983
 30
0.0
 11
-227.5192922572967
 21
-11.67693878018802
 31
0.0
1001
REVIT
1002
{
1070
     1
1000
251060
1002
}
1002
{
1070
     5
1000
248263
1002
}
1002
{
1070
     2
1000
-2000151
1002
}
1002
{
1070
     3
1000
247327
1002
}
  0
LINE
  5
BEF
330
6C
100
AcDbEntity
  8
0
 62
     0
370
     0
100
AcDbLine
 10
-227.5192922572967
 20
-11.67693878018802
 30
0.0
 11
-227.5189907664866
 21
-11.6765931045742
 31
0.0
1001
REVIT
1002
{
1070
     1
1000
251060
1002
}
1002
{
1070
     5
1000
248263
1002
}
1002
{
1070
     2
1000
-2000151
1002
}
1002
{
1070
     3
1000
247327
1002
}
  0
LINE
  5
BF0
330
6C
100
AcDbEntity
  8
0
 62
     0
370
     0
100
AcDbLine
 10
-227.5189907664866
 20
-11.6765931045742
 30
0.0
 11
-227.5187617117276
 21
-11.67618499451399
 31
0.0
1001
REVIT
1002
{
1070
     1
1000
251060
1002
}
1002
{
1070
     5
1000
248263
1002
}
1002
{
1070
     2
1000
-2000151
1002
}
1002
{
1070
     3
1000
247327
1002
}
  0
LINE
  5
BF1
330
6C
100
AcDbEntity
  8
0
 62
     0
370
     0
100
AcDbLine
 10
-227.5187617117276
 20
-11.67618499451399
 30
0.0
 11
-227.5186185155678
 21
-11.67573830565946
 31
0.0
1001
REVIT
1002
{
1070
     1
1000
251060
1002
}
1002
{
1070
     5
1000
248263
1002
}
1002
{
1070
     2
1000
-2000151
1002
}
1002
{
1070
     3
1000
247327
1002
}
  0
LINE
  5
BF2
330
6C
100
AcDbEntity
  8
0
 62
     0
370
     0
100
AcDbLine
 10
-227.5186185155678
 20
-11.67573830565946
 30
0.0
 11
-227.5185695734993
 21
-11.67527916754852
 31
0.0
1001
REVIT
1002
{
1070
     1
1000
251060
1002
}
1002
{
1070
     5
1000
248263
1002
}
1002
{
1070
     2
1000
-2000151
1002
}
1002
{
1070
     3
1000
247327
1002
}
  0
LINE
  5
BF3
330
6C
100
AcDbEntity
  8
0
 62
     0
370
     0
100
AcDbLine
 10
-227.5185695734993
 20
-11.67527916754852
 30
0.0
 11
-227.5186255857904
 21
-11.67480099955456
 31
0.0
1001
REVIT
1002
{
1070
     1
1000
251060
1002
}
1002
{
1070
     5
1000
248263
1002
}
1002
{
1070
     2
1000
-2000151
1002
}
1002
{
1070
     3
1000
247327
1002
}
  0
LINE
  5
BF4
330
6C
100
AcDbEntity
  8
0
 62
     0
370
     0
100
AcDbLine
 10
-227.5186255857904
 20
-11.67480099955456
 30
0.0
 11
-227.5187906243879
 21
-11.67437208729529
 31
0.0
1001
REVIT
1002
{
1070
     1
1000
251060
1002
}
1002
{
1070
     5
1000
248263
1002
}
1002
{
1070
     2
1000
-2000151
1002
}
1002
{
1070
     3
1000
247327
1002
}
  0
LINE
  5
BF5
330
6C
100
AcDbEntity
  8
0
 62
     0
370
     0
100
AcDbLine
 10
-227.5187906243879
 20
-11.67437208729529
 30
0.0
 11
-227.5190534479261
 21
-11.67402157142136
 31
0.0
1001
REVIT
1002
{
1070
     1
1000
251060
1002
}
1002
{
1070
     5
1000
248263
1002
}
1002
{
1070
     2
1000
-2000151
1002
}
1002
{
1070
     3
1000
247327
1002
}
  0
LINE
  5
BF6
330
6C
100
AcDbEntity
  8
0
 62
     0
370
     0
100
AcDbLine
 10
-227.5190534479261
 20
-11.67402157142136
 30
0.0
 11
-227.5193961648653
 21
-11.67377323896865
 31
0.0
1001
REVIT
1002
{
1070
     1
1000
251060
1002
}
1002
{
1070
     5
1000
248263
1002
}
1002
{
1070
     2
1000
-2000151
1002
}
1002
{
1070
     3
1000
247327
1002
}
  0
LINE
  5
BF7
330
6C
100
AcDbEntity
  8
0
 62
     0
370
     0
100
AcDbLine
 10
-227.5193961648653
 20
-11.67377323896865
 30
0.0
 11
-227.5197954640133
 21
-11.67364390711581
 31
0.0
1001
REVIT
1002
{
1070
     1
1000
251060
1002
}
1002
{
1070
     5
1000
248263
1002
}
1002
{
1070
     2
1000
-2000151
1002
}
1002
{
1070
     3
1000
247327
1002
}
  0
LINE
  5
BF8
330
6C
100
AcDbEntity
  8
0
 62
     0
370
     0
100
AcDbLine
 10
-227.5197954640133
 20
-11.67364390711581
 30
0.0
 11
-227.5202242127041
 21
-11.67364228997532
 31
0.0
1001
REVIT
1002
{
1070
     1
1000
251060
1002
}
1002
{
1070
     5
1000
248263
1002
}
1002
{
1070
     2
1000
-2000151
1002
}
1002
{
1070
     3
1000
247327
1002
}
  0
LINE
  5
BF9
330
6C
100
AcDbEntity
  8
0
 62
     0
370
     0
100
AcDbLine
 10
-227.5202242127041
 20
-11.67364228997532
 30
0.0
 11
-227.5206533097215
 21
-11.67376842324955
 31
0.0
1001
REVIT
1002
{
1070
     1
1000
251060
1002
}
1002
{
1070
     5
1000
248263
1002
}
1002
{
1070
     2
1000
-2000151
1002
}
1002
{
1070
     3
1000
247327
1002
}
  0
LINE
  5
BFA
330
6C
100
AcDbEntity
  8
0
 62
     0
370
     0
100
AcDbLine
 10
-227.5206533097215
 20
-11.67376842324955
 30
0.0
 11
-227.5210536639626
 21
-11.67401368155536
 31
0.0
1001
REVIT
1002
{
1070
     1
1000
251060
1002
}
1002
{
1070
     5
1000
248263
1002
}
1002
{
1070
     2
1000
-2000151
1002
}
1002
{
1070
     3
1000
247327
1002
}
  0
LINE
  5
BFB
330
6C
100
AcDbEntity
  8
0
 62
     0
370
     0
100
AcDbLine
 10
-227.5210536639626
 20
-11.67401368155536
 30
0.0
 11
-227.5213981634213
 21
-11.67436138196964
 31
0.0
1001
REVIT
1002
{
1070
     1
1000
251060
1002
}
1002
{
1070
     5
1000
248263
1002
}
1002
{
1070
     2
1000
-2000151
1002
}
1002
{
1070
     3
1000
247327
1002
}
  0
LINE
  5
BFC
330
6C
100
AcDbEntity
  8
0
 62
     0
370
     0
100
AcDbLine
 10
-227.5213981634213
 20
-11.67436138196964
 30
0.0
 11
-227.5216635021035
 21
-11.67478792794343
 31
0.0
1001
REVIT
1002
{
1070
     1
1000
251060
1002
}
1002
{
1070
     5
1000
248263
1002
}
1002
{
1070
     2
1000
-2000151
1002
}
1002
{
1070
     3
1000
247327
1002
}
  0
LINE
  5
BFD
330
6C
100
AcDbEntity
  8
0
 62
     0
370
     0
100
AcDbLine
 10
-227.5216635021035
 20
-11.67478792794343
 30
0.0
 11
-227.5218317442167
 21
-11.67526441274256
 31
0.0
1001
REVIT
1002
{
1070
     1
1000
251060
1002
}
1002
{
1070
     5
1000
248263
1002
}
1002
{
1070
     2
1000
-2000151
1002
}
1002
{
1070
     3
1000
247327
1002
}
  0
LINE
  5
BFE
330
6C
100
AcDbEntity
  8
0
 62
     0
370
     0
100
AcDbLine
 10
-227.5218317442167
 20
-11.67526441274256
 30
0.0
 11
-227.5218915239868
 21
-11.67575857292072
 31
0.0
1001
REVIT
1002
{
1070
     1
1000
251060
1002
}
1002
{
1070
     5
1000
248263
1002
}
1002
{
1070
     2
1000
-2000151
1002
}
1002
{
1070
     3
1000
247327
1002
}
  0
LINE
  5
BFF
330
6C
100
AcDbEntity
  8
0
 62
     0
370
     0
100
AcDbLine
 10
-227.4912805472533
 20
-11.64666950729423
 30
0.0
 11
-227.4912341296928
 21
-11.64712006934857
 31
0.0
1001
REVIT
1002
{
1070
     1
1000
251060
1002
}
1002
{
1070
     5
1000
248263
1002
}
1002
{
1070
     2
1000
-2000151
1002
}
1002
{
1070
     3
1000
247327
1002
}
  0
LINE
  5
C00
330
6C
100
AcDbEntity
  8
0
 62
     0
370
     0
100
AcDbLine
 10
-227.4912341296928
 20
-11.64712006934857
 30
0.0
 11
-227.4910908266877
 21
-11.64752929818594
 31
0.0
1001
REVIT
1002
{
1070
     1
1000
251060
1002
}
1002
{
1070
     5
1000
248263
1002
}
1002
{
1070
     2
1000
-2000151
1002
}
1002
{
1070
     3
1000
247327
1002
}
  0
LINE
  5
C01
330
6C
100
AcDbEntity
  8
0
 62
     0
370
     0
100
AcDbLine
 10
-227.4910908266877
 20
-11.64752929818594
 30
0.0
 11
-227.4908589694487
 21
-11.64787334151175
 31
0.0
1001
REVIT
1002
{
1070
     1
1000
251060
1002
}
1002
{
1070
     5
1000
248263
1002
}
1002
{
1070
     2
1000
-2000151
1002
}
1002
{
1070
     3
1000
247327
1002
}
  0
LINE
  5
C02
330
6C
100
AcDbEntity
  8
0
 62
     0
370
     0
100
AcDbLine
 10
-227.4908589694487
 20
-11.64787334151175
 30
0.0
 11
-227.4905520442349
 21
-11.64813212664568
 31
0.0
1001
REVIT
1002
{
1070
     1
1000
251060
1002
}
1002
{
1070
     5
1000
248263
1002
}
1002
{
1070
     2
1000
-2000151
1002
}
1002
{
1070
     3
1000
247327
1002
}
  0
LINE
  5
C03
330
6C
100
AcDbEntity
  8
0
 62
     0
370
     0
100
AcDbLine
 10
-227.4905520442349
 20
-11.64813212664568
 30
0.0
 11
-227.4901879166145
 21
-11.64829052916173
 31
0.0
1001
REVIT
1002
{
1070
     1
1000
251060
1002
}
1002
{
1070
     5
1000
248263
1002
}
1002
{
1070
     2
1000
-2000151
1002
}
1002
{
1070
     3
1000
247327
1002
}
  0
LINE
  5
C04
330
6C
100
AcDbEntity
  8
0
 62
     0
370
     0
100
AcDbLine
 10
-227.4901879166145
 20
-11.64829052916173
 30
0.0
 11
-227.4897878008625
 21
-11.64833925941173
 31
0.0
1001
REVIT
1002
{
1070
     1
1000
251060
1002
}
1002
{
1070
     5
1000
248263
1002
}
1002
{
1070
     2
1000
-2000151
1002
}
1002
{
1070
     3
1000
247327
1002
}
  0
LINE
  5
C05
330
6C
100
AcDbEntity
  8
0
 62
     0
370
     0
100
AcDbLine
 10
-227.4897878008625
 20
-11.64833925941173
 30
0.0
 11
-227.489375031803
 21
-11.64827541438254
 31
0.0
1001
REVIT
1002
{
1070
     1
1000
251060
1002
}
1002
{
1070
     5
1000
248263
1002
}
1002
{
1070
     2
1000
-2000151
1002
}
1002
{
1070
     3
1000
247327
1002
}
  0
LINE
  5
C06
330
6C
100
AcDbEntity
  8
0
 62
     0
370
     0
100
AcDbLine
 10
-227.489375031803
 20
-11.64827541438254
 30
0.0
 11
-227.4889737083969
 21
-11.64810266049727
 31
0.0
1001
REVIT
1002
{
1070
     1
1000
251060
1002
}
1002
{
1070
     5
1000
248263
1002
}
1002
{
1070
     2
1000
-2000151
1002
}
1002
{
1070
     3
1000
247327
1002
}
  0
LINE
  5
C07
330
6C
100
AcDbEntity
  8
0
 62
     0
370
     0
100
AcDbLine
 10
-227.4889737083969
 20
-11.64810266049727
 30
0.0
 11
-227.4886072868822
 21
-11.64783103363242
 31
0.0
1001
REVIT
1002
{
1070
     1
1000
251060
1002
}
1002
{
1070
     5
1000
248263
1002
}
1002
{
1070
     2
1000
-2000151
1002
}
1002
{
1070
     3
1000
247327
1002
}
  0
LINE
  5
C08
330
6C
100
AcDbEntity
  8
0
 62
     0
370
     0
100
AcDbLine
 10
-227.4886072868822
 20
-11.64783103363242
 30
0.0
 11
-227.4882972055601
 21
-11.64747636478455
 31
0.0
1001
REVIT
1002
{
1070
     1
1000
251060
1002
}
1002
{
1070
     5
1000
248263
1002
}
1002
{
1070
     2
1000
-2000151
1002
}
1002
{
1070
     3
1000
247327
1002
}
  0
LINE
  5
C09
330
6C
100
AcDbEntity
  8
0
 62
     0
370
     0
100
AcDbLine
 10
-227.4882972055601
 20
-11.64747636478455
 30
0.0
 11
-227.4880616228232
 21
-11.64705936223715
 31
0.0
1001
REVIT
1002
{
1070
     1
1000
251060
1002
}
1002
{
1070
     5
1000
248263
1002
}
1002
{
1070
     2
1000
-2000151
1002
}
1002
{
1070
     3
1000
247327
1002
}
  0
LINE
  5
C0A
330
6C
100
AcDbEntity
  8
0
 62
     0
370
     0
100
AcDbLine
 10
-227.4880616228232
 20
-11.64705936223715
 30
0.0
 11
-227.4879143444749
 21
-11.6466044023155
 31
0.0
1001
REVIT
1002
{
1070
     1
1000
251060
1002
}
1002
{
1070
     5
1000
248263
1002
}
1002
{
1070
     2
1000
-2000151
1002
}
1002
{
1070
     3
1000
247327
1002
}
  0
LINE
  5
C0B
330
6C
100
AcDbEntity
  8
0
 62
     0
370
     0
100
AcDbLine
 10
-227.4879143444749
 20
-11.6466044023155
 30
0.0
 11
-227.4878640058536
 21
-11.64613809936573
 31
0.0
1001
REVIT
1002
{
1070
     1
1000
251060
1002
}
1002
{
1070
     5
1000
248263
1002
}
1002
{
1070
     2
1000
-2000151
1002
}
1002
{
1070
     3
1000
247327
1002
}
  0
LINE
  5
C0C
330
6C
100
AcDbEntity
  8
0
 62
     0
370
     0
100
AcDbLine
 10
-227.4878640058536
 20
-11.64613809936573
 30
0.0
 11
-227.487921612274
 21
-11.64565392629926
 31
0.0
1001
REVIT
1002
{
1070
     1
1000
251060
1002
}
1002
{
1070
     5
1000
248263
1002
}
1002
{
1070
     2
1000
-2000151
1002
}
1002
{
1070
     3
1000
247327
1002
}
  0
LINE
  5
C0D
330
6C
100
AcDbEntity
  8
0
 62
     0
370
     0
100
AcDbLine
 10
-227.487921612274
 20
-11.64565392629926
 30
0.0
 11
-227.4880913517289
 21
-11.6452211915023
 31
0.0
1001
REVIT
1002
{
1070
     1
1000
251060
1002
}
1002
{
1070
     5
1000
248263
1002
}
1002
{
1070
     2
1000
-2000151
1002
}
1002
{
1070
     3
1000
247327
1002
}
  0
LINE
  5
C0E
330
6C
100
AcDbEntity
  8
0
 62
     0
370
     0
100
AcDbLine
 10
-227.4880913517289
 20
-11.6452211915023
 30
0.0
 11
-227.4883616619927
 21
-11.64486929558407
 31
0.0
1001
REVIT
1002
{
1070
     1
1000
251060
1002
}
1002
{
1070
     5
1000
248263
1002
}
1002
{
1070
     2
1000
-2000151
1002
}
1002
{
1070
     3
1000
247327
1002
}
  0
LINE
  5
C0F
330
6C
100
AcDbEntity
  8
0
 62
     0
370
     0
100
AcDbLine
 10
-227.4883616619927
 20
-11.64486929558407
 30
0.0
 11
-227.4887141409571
 21
-11.64462211860405
 31
0.0
1001
REVIT
1002
{
1070
     1
1000
251060
1002
}
1002
{
1070
     5
1000
248263
1002
}
1002
{
1070
     2
1000
-2000151
1002
}
1002
{
1070
     3
1000
247327
1002
}
  0
LINE
  5
C10
330
6C
100
AcDbEntity
  8
0
 62
     0
370
     0
100
AcDbLine
 10
-227.4887141409571
 20
-11.64462211860405
 30
0.0
 11
-227.4891248125143
 21
-11.64449639767688
 31
0.0
1001
REVIT
1002
{
1070
     1
1000
251060
1002
}
1002
{
1070
     5
1000
248263
1002
}
1002
{
1070
     2
1000
-2000151
1002
}
1002
{
1070
     3
1000
247327
1002
}
  0
LINE
  5
C11
330
6C
100
AcDbEntity
  8
0
 62
     0
370
     0
100
AcDbLine
 10
-227.4891248125143
 20
-11.64449639767688
 30
0.0
 11
-227.4895657705656
 21
-11.64450059964447
 31
0.0
1001
REVIT
1002
{
1070
     1
1000
251060
1002
}
1002
{
1070
     5
1000
248263
1002
}
1002
{
1070
     2
1000
-2000151
1002
}
1002
{
1070
     3
1000
247327
1002
}
  0
LINE
  5
C12
330
6C
100
AcDbEntity
  8
0
 62
     0
370
     0
100
AcDbLine
 10
-227.4895657705656
 20
-11.64450059964447
 30
0.0
 11
-227.4900070849411
 21
-11.6446343631267
 31
0.0
1001
REVIT
1002
{
1070
     1
1000
251060
1002
}
1002
{
1070
     5
1000
248263
1002
}
1002
{
1070
     2
1000
-2000151
1002
}
1002
{
1070
     3
1000
247327
1002
}
  0
LINE
  5
C13
330
6C
100
AcDbEntity
  8
0
 62
     0
370
     0
100
AcDbLine
 10
-227.4900070849411
 20
-11.6446343631267
 30
0.0
 11
-227.4904188364951
 21
-11.64488854340805
 31
0.0
1001
REVIT
1002
{
1070
     1
1000
251060
1002
}
1002
{
1070
     5
1000
248263
1002
}
1002
{
1070
     2
1000
-2000151
1002
}
1002
{
1070
     3
1000
247327
1002
}
  0
LINE
  5
C14
330
6C
100
AcDbEntity
  8
0
 62
     0
370
     0
100
AcDbLine
 10
-227.4904188364951
 20
-11.64488854340805
 30
0.0
 11
-227.4907731420662
 21
-11.6452458516759
 31
0.0
1001
REVIT
1002
{
1070
     1
1000
251060
1002
}
1002
{
1070
     5
1000
248263
1002
}
1002
{
1070
     2
1000
-2000151
1002
}
1002
{
1070
     3
1000
247327
1002
}
  0
LINE
  5
C15
330
6C
100
AcDbEntity
  8
0
 62
     0
370
     0
100
AcDbLine
 10
-227.4907731420662
 20
-11.6452458516759
 30
0.0
 11
-227.4910460331787
 21
-11.6456820402137
 31
0.0
1001
REVIT
1002
{
1070
     1
1000
251060
1002
}
1002
{
1070
     5
1000
248263
1002
}
1002
{
1070
     2
1000
-2000151
1002
}
1002
{
1070
     3
1000
247327
1002
}
  0
LINE
  5
C16
330
6C
100
AcDbEntity
  8
0
 62
     0
370
     0
100
AcDbLine
 10
-227.4910460331787
 20
-11.6456820402137
 30
0.0
 11
-227.4912190644507
 21
-11.6461675498599
 31
0.0
1001
REVIT
1002
{
1070
     1
1000
251060
1002
}
1002
{
1070
     5
1000
248263
1002
}
1002
{
1070
     2
1000
-2000151
1002
}
1002
{
1070
     3
1000
247327
1002
}
  0
LINE
  5
C17
330
6C
100
AcDbEntity
  8
0
 62
     0
370
     0
100
AcDbLine
 10
-227.4912190644507
 20
-11.6461675498599
 30
0.0
 11
-227.4912805472533
 21
-11.64666950729423
 31
0.0
1001
REVIT
1002
{
1070
     1
1000
251060
1002
}
1002
{
1070
     5
1000
248263
1002
}
1002
{
1070
     2
1000
-2000151
1002
}
1002
{
1070
     3
1000
247327
1002
}
  0
LINE
  5
C18
330
6C
100
AcDbEntity
  8
0
 62
     0
370
     0
100
AcDbLine
 10
-227.6452261520221
 20
-11.67373214651412
 30
0.0
 11
-227.6480860805599
 21
-11.67301421533577
 31
0.0
1001
REVIT
1002
{
1070
     2
1000
-2001320
1002
}
  0
LINE
  5
C19
330
6C
100
AcDbEntity
  8
0
 62
     0
370
     0
100
AcDbLine
 10
-227.6480889200449
 20
-11.673013587593
 30
0.0
 11
-227.6493983546083
 21
-11.67292053119888
 31
0.0
1001
REVIT
1002
{
1070
     2
1000
-2001320
1002
}
  0
LINE
  5
C1A
330
6C
100
AcDbEntity
  8
0
 62
     0
370
     0
100
AcDbLine
 10
-227.6516857786861
 20
-11.67068911744245
 30
0.0
 11
-227.6515077037363
 21
-11.67088098163698
 31
0.0
1001
REVIT
1002
{
1070
     2
1000
-2001320
1002
}
  0
LINE
  5
C1B
330
6C
100
AcDbEntity
  8
0
 62
     0
370
     0
100
AcDbLine
 10
-227.6515110070897
 20
-11.67088023993006
 30
0.0
 11
-227.6560330143378
 21
-11.67012671042355
 31
0.0
1001
REVIT
1002
{
1070
     2
1000
-2001320
1002
}
  0
LINE
  5
C1C
330
6C
100
AcDbEntity
  8
0
 62
     0
370
     0
100
AcDbLine
 10
-227.4596415399988
 20
-11.67935826680884
 30
0.0
 11
-227.4596916178385
 21
-11.67897898790047
 31
0.0
1001
REVIT
1002
{
1070
     2
1000
-2001320
1002
}
  0
LINE
  5
C1D
330
6C
100
AcDbEntity
  8
0
 62
     0
370
     0
100
AcDbLine
 10
-227.4596415250826
 20
-11.65263797184764
 30
0.0
 11
-227.4596916178385
 21
-11.65225629964896
 31
0.0
1001
REVIT
1002
{
1070
     2
1000
-2001320
1002
}
  0
LINE
  5
C1E
330
6C
100
AcDbEntity
  8
0
 62
     0
370
     0
100
AcDbLine
 10
-227.4484522307098
 20
-11.68547056588346
 30
0.0
 11
-227.4497723661185
 21
-11.67529185581977
 31
0.0
1001
REVIT
1002
{
1070
     2
1000
-2001320
1002
}
  0
LINE
  5
C1F
330
6C
100
AcDbEntity
  8
0
 62
     0
370
     0
100
AcDbLine
 10
-227.4484522163569
 20
-11.65925962728528
 30
0.0
 11
-227.448932065276
 21
-11.65553797907374
 31
0.0
1001
REVIT
1002
{
1070
     2
1000
-2001320
1002
}
  0
LINE
  5
C20
330
6C
100
AcDbEntity
  8
0
 62
     0
370
     0
100
AcDbLine
 10
-227.4376815347648
 20
-11.69135419222339
 30
0.0
 11
-227.4389526888119
 21
-11.68137954968301
 31
0.0
1001
REVIT
1002
{
1070
     2
1000
-2001320
1002
}
  0
LINE
  5
C21
330
6C
100
AcDbEntity
  8
0
 62
     0
370
     0
100
AcDbLine
 10
-227.4376815209438
 20
-11.66563355400391
 30
0.0
 11
-227.4381435859326
 21
-11.66198673349507
 31
0.0
1001
REVIT
1002
{
1070
     2
1000
-2001320
1002
}
  0
LINE
  5
C22
330
6C
100
AcDbEntity
  8
0
 62
     0
370
     0
100
AcDbLine
 10
-227.4497804742745
 20
-11.67527209943966
 30
0.0
 11
-227.4513283533069
 21
-11.67124012273299
 31
0.0
1001
REVIT
1002
{
1070
     2
1000
-2001320
1002
}
  0
LINE
  5
C23
330
6C
100
AcDbEntity
  8
0
 62
     0
370
     0
100
AcDbLine
 10
-227.4389606542529
 20
-11.68135984579961
 30
0.0
 11
-227.440450963078
 21
-11.67741968052585
 31
0.0
1001
REVIT
1002
{
1070
     2
1000
-2001320
1002
}
  0
LINE
  5
C24
330
6C
100
AcDbEntity
  8
0
 62
     0
370
     0
100
AcDbLine
 10
-227.4513183878424
 20
-11.67126616066287
 30
0.0
 11
-227.4548876403673
 21
-11.66128730034508
 31
0.0
1001
REVIT
1002
{
1070
     2
1000
-2001320
1002
}
  0
LINE
  5
C25
330
6C
100
AcDbEntity
  8
0
 62
     0
370
     0
100
AcDbLine
 10
-227.4404411717047
 20
-11.67744565049163
 30
0.0
 11
-227.4438771018204
 21
-11.66769289709722
 31
0.0
1001
REVIT
1002
{
1070
     2
1000
-2001320
1002
}
  0
LINE
  5
C26
330
6C
100
AcDbEntity
  8
0
 62
     0
370
     0
100
AcDbLine
 10
-227.4550770635572
 20
-11.68645985922436
 30
0.0
 11
-227.4557871896825
 21
-11.68146716293763
 31
0.0
1001
REVIT
1002
{
1070
     2
1000
-2001320
1002
}
  0
LINE
  5
C27
330
6C
100
AcDbEntity
  8
0
 62
     0
370
     0
100
AcDbLine
 10
-227.4548879634322
 20
-11.66128535159032
 30
0.0
 11
-227.4557871685417
 21
-11.65492236081821
 31
0.0
1001
REVIT
1002
{
1070
     2
1000
-2001320
1002
}
  0
LINE
  5
C28
330
6C
100
AcDbEntity
  8
0
 62
     0
370
     0
100
AcDbLine
 10
-227.4440594459604
 20
-11.69239114105931
 30
0.0
 11
-227.4447429215532
 21
-11.68750025608103
 31
0.0
1001
REVIT
1002
{
1070
     2
1000
-2001320
1002
}
  0
LINE
  5
C29
330
6C
100
AcDbEntity
  8
0
 62
     0
370
     0
100
AcDbLine
 10
-227.4438774097933
 20
-11.66769097838068
 30
0.0
 11
-227.4447429012058
 21
-11.66145820704931
 31
0.0
1001
REVIT
1002
{
1070
     2
1000
-2001320
1002
}
  0
LINE
  5
C2A
330
6C
100
AcDbEntity
  8
0
 62
     0
370
     0
100
AcDbLine
 10
-227.4557892901297
 20
-11.68146045873775
 30
0.0
 11
-227.4557892901297
 21
-11.67615146638338
 31
0.0
1001
REVIT
1002
{
1070
     2
1000
-2001320
1002
}
  0
LINE
  5
C2B
330
6C
100
AcDbEntity
  8
0
 62
     0
370
     0
100
AcDbLine
 10
-227.4557892901297
 20
-11.6549154969659
 30
0.0
 11
-227.4557892901297
 21
-11.65143911048581
 31
0.0
1001
REVIT
1002
{
1070
     2
1000
-2001320
1002
}
  0
LINE
  5
C2C
330
6C
100
AcDbEntity
  8
0
 62
     0
370
     0
100
AcDbLine
 10
-227.4447449960585
 20
-11.68749352730476
 30
0.0
 11
-227.4447449960585
 21
-11.68228508609318
 31
0.0
1001
REVIT
1002
{
1070
     2
1000
-2001320
1002
}
  0
LINE
  5
C2D
330
6C
100
AcDbEntity
  8
0
 62
     0
370
     0
100
AcDbLine
 10
-227.4447449960585
 20
-11.66145132124683
 30
0.0
 11
-227.4447449960585
 21
-11.65804077675897
 31
0.0
1001
REVIT
1002
{
1070
     2
1000
-2001320
1002
}
  0
LINE
  5
C2E
330
6C
100
AcDbEntity
  8
0
 62
     0
370
     0
100
AcDbLine
 10
-227.455794149814
 20
-11.67613678784633
 30
0.0
 11
-227.4587359154898
 21
-11.66169699659098
 31
0.0
1001
REVIT
1002
{
1070
     2
1000
-2001320
1002
}
  0
LINE
  5
C2F
330
6C
100
AcDbEntity
  8
0
 62
     0
370
     0
100
AcDbLine
 10
-227.4447497905369
 20
-11.68227038238424
 30
0.0
 11
-227.4475809084463
 21
-11.66813578396697
 31
0.0
1001
REVIT
1002
{
1070
     2
1000
-2001320
1002
}
  0
LINE
  5
C30
330
6C
100
AcDbEntity
  8
0
 62
     0
370
     0
100
AcDbLine
 10
-227.4360029267109
 20
-11.67859678609647
 30
0.0
 11
-227.4368426068424
 21
-11.67433404458066
 31
0.0
1001
REVIT
1002
{
1070
     2
1000
-2001320
1002
}
  0
LINE
  5
C31
330
6C
100
AcDbEntity
  8
0
 62
     0
370
     0
100
AcDbLine
 10
-227.4587300358208
 20
-11.66171673088681
 30
0.0
 11
-227.4585026964005
 21
-11.65651424361184
 31
0.0
1001
REVIT
1002
{
1070
     2
1000
-2001320
1002
}
  0
LINE
  5
C32
330
6C
100
AcDbEntity
  8
0
 62
     0
370
     0
100
AcDbLine
 10
-227.4585637542972
 20
-11.68458281591
 30
0.0
 11
-227.4585026948432
 21
-11.6831827378647
 31
0.0
1001
REVIT
1002
{
1070
     2
1000
-2001320
1002
}
  0
LINE
  5
C33
330
6C
100
AcDbEntity
  8
0
 62
     0
370
     0
100
AcDbLine
 10
-227.4475751041255
 20
-11.66815558163984
 30
0.0
 11
-227.4473563348711
 21
-11.66304962819816
 31
0.0
1001
REVIT
1002
{
1070
     2
1000
-2001320
1002
}
  0
LINE
  5
C34
330
6C
100
AcDbEntity
  8
0
 62
     0
370
     0
100
AcDbLine
 10
-227.4474150859884
 20
-11.69058464827022
 30
0.0
 11
-227.4473563333725
 21
-11.68921072017504
 31
0.0
1001
REVIT
1002
{
1070
     2
1000
-2001320
1002
}
  0
LINE
  5
C35
330
6C
100
AcDbEntity
  8
0
 62
     0
370
     0
100
AcDbLine
 10
-227.4368368763961
 20
-11.6743539024895
 30
0.0
 11
-227.4366262016731
 21
-11.66934096792589
 31
0.0
1001
REVIT
1002
{
1070
     2
1000
-2001320
1002
}
  0
LINE
  5
C36
330
6C
100
AcDbEntity
  8
0
 62
     0
370
     0
100
AcDbLine
 10
-227.4366827741161
 20
-11.69636233713029
 30
0.0
 11
-227.4366262002302
 21
-11.69501360508411
 31
0.0
1001
REVIT
1002
{
1070
     2
1000
-2001320
1002
}
  0
LINE
  5
C37
330
6C
100
AcDbEntity
  8
0
 62
     0
370
     0
100
AcDbLine
 10
-227.4584997055383
 20
-11.68318992450967
 30
0.0
 11
-227.4596381545253
 21
-11.6793678534637
 31
0.0
1001
REVIT
1002
{
1070
     2
1000
-2001320
1002
}
  0
LINE
  5
C38
330
6C
100
AcDbEntity
  8
0
 62
     0
370
     0
100
AcDbLine
 10
-227.4584996344263
 20
-11.65652181822255
 30
0.0
 11
-227.459638083137
 21
-11.65264792390835
 31
0.0
1001
REVIT
1002
{
1070
     2
1000
-2001320
1002
}
  0
LINE
  5
C39
330
6C
100
AcDbEntity
  8
0
 62
     0
370
     0
100
AcDbLine
 10
-227.4473533947297
 20
-11.6892178673458
 30
0.0
 11
-227.4484488944065
 21
-11.68548014547244
 31
0.0
1001
REVIT
1002
{
1070
     2
1000
-2001320
1002
}
  0
LINE
  5
C3A
330
6C
100
AcDbEntity
  8
0
 62
     0
370
     0
100
AcDbLine
 10
-227.4473533262982
 20
-11.66305715544068
 30
0.0
 11
-227.4484488257139
 21
-11.65926956538909
 31
0.0
1001
REVIT
1002
{
1070
     2
1000
-2001320
1002
}
  0
LINE
  5
C3B
330
6C
100
AcDbEntity
  8
0
 62
     0
370
     0
100
AcDbLine
 10
-227.4366233105855
 20
-11.69502071413156
 30
0.0
 11
-227.437678246356
 21
-11.69136376470267
 31
0.0
1001
REVIT
1002
{
1070
     2
1000
-2001320
1002
}
  0
LINE
  5
C3C
330
6C
100
AcDbEntity
  8
0
 62
     0
370
     0
100
AcDbLine
 10
-227.4366232446855
 20
-11.66934844946472
 30
0.0
 11
-227.4376781802093
 21
-11.66564347836209
 31
0.0
1001
REVIT
1002
{
1070
     2
1000
-2001320
1002
}
  0
LINE
  5
C3D
330
6C
100
AcDbEntity
  8
0
 62
     0
370
     0
100
AcDbLine
 10
-227.4270946216323
 20
-11.64734234375857
 30
0.0
 11
-227.436645939703
 21
-11.65320430253272
 31
0.0
1001
REVIT
1002
{
1070
     2
1000
-2001320
1002
}
  0
LINE
  5
C3E
330
6C
100
AcDbEntity
  8
0
 62
     0
370
     0
100
AcDbLine
 10
-227.448689499791
 20
-11.64183064341669
 30
0.0
 11
-227.460105940456
 21
-11.64895871712062
 31
0.0
1001
REVIT
1002
{
1070
     2
1000
-2001320
1002
}
  0
LINE
  5
C3F
330
6C
100
AcDbEntity
  8
0
 62
     0
370
     0
100
AcDbLine
 10
-227.4366449420954
 20
-11.653204259917
 30
0.0
 11
-227.4453682236722
 21
-11.65766824586741
 31
0.0
1001
REVIT
1002
{
1070
     2
1000
-2001320
1002
}
  0
LINE
  5
C40
330
6C
100
AcDbEntity
  8
0
 62
     0
370
     0
100
AcDbLine
 10
-227.4309432022558
 20
-11.64489437730174
 30
0.0
 11
-227.4355014030246
 21
-11.64723600736015
 31
0.0
1001
REVIT
1002
{
1070
     2
1000
-2001320
1002
}
  0
LINE
  5
C41
330
6C
100
AcDbEntity
  8
0
 62
     0
370
     0
100
AcDbLine
 10
-227.4357213917444
 20
-11.64185511458719
 30
0.0
 11
-227.4551014366817
 21
-11.65185027111587
 31
0.0
1001
REVIT
1002
{
1070
     2
1000
-2001320
1002
}
  0
LINE
  5
C42
330
6C
100
AcDbEntity
  8
0
 62
     0
370
     0
100
AcDbLine
 10
-227.4455274162067
 20
-11.63561779716881
 30
0.0
 11
-227.458374090462
 21
-11.64229712343653
 31
0.0
1001
REVIT
1002
{
1070
     2
1000
-2001320
1002
}
  0
LINE
  5
C43
330
6C
100
AcDbEntity
  8
0
 62
     0
370
     0
100
AcDbLine
 10
-227.4355022342616
 20
-11.6472362252361
 30
0.0
 11
-227.4512003601508
 21
-11.65418211823962
 31
0.0
1001
REVIT
1002
{
1070
     2
1000
-2001320
1002
}
  0
LINE
  5
C44
330
6C
100
AcDbEntity
  8
0
 62
     0
370
     0
100
AcDbLine
 10
-227.441082652507
 20
-11.63844497776092
 30
0.0
 11
-227.4486893490903
 21
-11.6418308253231
 31
0.0
1001
REVIT
1002
{
1070
     2
1000
-2001320
1002
}
  0
LINE
  5
C45
330
6C
100
AcDbEntity
  8
0
 62
     0
370
     0
100
AcDbLine
 10
-227.4583749190204
 20
-11.64229732604578
 30
0.0
 11
-227.4674424178974
 21
-11.64634162777007
 31
0.0
1001
REVIT
1002
{
1070
     2
1000
-2001320
1002
}
  0
LINE
  5
C46
330
6C
100
AcDbEntity
  8
0
 62
     0
370
     0
100
AcDbLine
 10
-227.4596415101661
 20
-11.62591767824447
 30
0.0
 11
-227.4596916178385
 21
-11.62553361139746
 31
0.0
1001
REVIT
1002
{
1070
     2
1000
-2001320
1002
}
  0
LINE
  5
C47
330
6C
100
AcDbEntity
  8
0
 62
     0
370
     0
100
AcDbLine
 10
-227.45964149525
 20
-11.59919738599932
 30
0.0
 11
-227.4596916178385
 21
-11.59881092314595
 31
0.0
1001
REVIT
1002
{
1070
     2
1000
-2001320
1002
}
  0
LINE
  5
C48
330
6C
100
AcDbEntity
  8
0
 62
     0
370
     0
100
AcDbLine
 10
-227.4483533155933
 20
-11.63382014212667
 30
0.0
 11
-227.4497723372807
 21
-11.62274979079618
 31
0.0
1001
REVIT
1002
{
1070
     2
1000
-2001320
1002
}
  0
LINE
  5
C49
330
6C
100
AcDbEntity
  8
0
 62
     0
370
     0
100
AcDbLine
 10
-227.4484521876507
 20
-11.60683775400918
 30
0.0
 11
-227.4492812213744
 21
-11.60033239372915
 31
0.0
1001
REVIT
1002
{
1070
     2
1000
-2001320
1002
}
  0
LINE
  5
C4A
330
6C
100
AcDbEntity
  8
0
 62
     0
370
     0
100
AcDbLine
 10
-227.4375862927463
 20
-11.64066872519973
 30
0.0
 11
-227.4389526610452
 21
-11.62982254477867
 31
0.0
1001
REVIT
1002
{
1070
     2
1000
-2001320
1002
}
  0
LINE
  5
C4B
330
6C
100
AcDbEntity
  8
0
 62
     0
370
     0
100
AcDbLine
 10
-227.4376814933016
 20
-11.61419228133989
 30
0.0
 11
-227.4384797873246
 21
-11.60781911339609
 31
0.0
1001
REVIT
1002
{
1070
     2
1000
-2001320
1002
}
  0
LINE
  5
C4C
330
6C
100
AcDbEntity
  8
0
 62
     0
370
     0
100
AcDbLine
 10
-227.4497808360429
 20
-11.62272836813971
 30
0.0
 11
-227.4513287170186
 21
-11.61855546211434
 31
0.0
1001
REVIT
1002
{
1070
     2
1000
-2001320
1002
}
  0
LINE
  5
C4D
330
6C
100
AcDbEntity
  8
0
 62
     0
370
     0
100
AcDbLine
 10
-227.4389610025835
 20
-11.62980120970914
 30
0.0
 11
-227.4404513132442
 21
-11.62572535671865
 31
0.0
1001
REVIT
1002
{
1070
     2
1000
-2001320
1002
}
  0
LINE
  5
C4E
330
6C
100
AcDbEntity
  8
0
 62
     0
370
     0
100
AcDbLine
 10
-227.4513182761039
 20
-11.6185836817115
 30
0.0
 11
-227.454887527246
 21
-11.60827986852998
 31
0.0
1001
REVIT
1002
{
1070
     2
1000
-2001320
1002
}
  0
LINE
  5
C4F
330
6C
100
AcDbEntity
  8
0
 62
     0
370
     0
100
AcDbLine
 10
-227.4404410641273
 20
-11.62575346276663
 30
0.0
 11
-227.443876992937
 21
-11.61568789446697
 31
0.0
1001
REVIT
1002
{
1070
     2
1000
-2001320
1002
}
  0
LINE
  5
C50
330
6C
100
AcDbEntity
  8
0
 62
     0
370
     0
100
AcDbLine
 10
-227.4553804820941
 20
-11.63127373393868
 30
0.0
 11
-227.455787147401
 21
-11.62837756062349
 31
0.0
1001
REVIT
1002
{
1070
     2
1000
-2001320
1002
}
  0
LINE
  5
C51
330
6C
100
AcDbEntity
  8
0
 62
     0
370
     0
100
AcDbLine
 10
-227.4548879212815
 20
-11.60827761925557
 30
0.0
 11
-227.4557871262605
 21
-11.6018327623535
 31
0.0
1001
REVIT
1002
{
1070
     2
1000
-2001320
1002
}
  0
LINE
  5
C52
330
6C
100
AcDbEntity
  8
0
 62
     0
370
     0
100
AcDbLine
 10
-227.4438773692215
 20
-11.61568568261772
 30
0.0
 11
-227.4447428605109
 21
-11.60937411454334
 31
0.0
1001
REVIT
1002
{
1070
     2
1000
-2001320
1002
}
  0
LINE
  5
C53
330
6C
100
AcDbEntity
  8
0
 62
     0
370
     0
100
AcDbLine
 10
-227.4557892901297
 20
-11.62837053519404
 30
0.0
 11
-227.4557892901297
 21
-11.62306154283967
 31
0.0
1001
REVIT
1002
{
1070
     2
1000
-2001320
1002
}
  0
LINE
  5
C54
330
6C
100
AcDbEntity
  8
0
 62
     0
370
     0
100
AcDbLine
 10
-227.4557892901297
 20
-11.60182557342219
 30
0.0
 11
-227.4557892901297
 21
-11.59651658106782
 31
0.0
1001
REVIT
1002
{
1070
     2
1000
-2001320
1002
}
  0
LINE
  5
C55
330
6C
100
AcDbEntity
  8
0
 62
     0
370
     0
100
AcDbLine
 10
-227.4447449960585
 20
-11.63611528688853
 30
0.0
 11
-227.4447449960585
 21
-11.6302006739773
 31
0.0
1001
REVIT
1002
{
1070
     2
1000
-2001320
1002
}
  0
LINE
  5
C56
330
6C
100
AcDbEntity
  8
0
 62
     0
370
     0
100
AcDbLine
 10
-227.4447449960585
 20
-11.60936690913095
 30
0.0
 11
-227.4447449960585
 21
-11.60415846791937
 31
0.0
1001
REVIT
1002
{
1070
     2
1000
-2001320
1002
}
  0
LINE
  5
C57
330
6C
100
AcDbEntity
  8
0
 62
     0
370
     0
100
AcDbLine
 10
-227.4557942701335
 20
-11.62304601257857
 30
0.0
 11
-227.4587360370265
 21
-11.60833838750113
 31
0.0
1001
REVIT
1002
{
1070
     2
1000
-2001320
1002
}
  0
LINE
  5
C58
330
6C
100
AcDbEntity
  8
0
 62
     0
370
     0
100
AcDbLine
 10
-227.4557943302934
 20
-11.59650061672872
 30
0.0
 11
-227.4559511797614
 21
-11.59570929383306
 31
0.0
1001
REVIT
1002
{
1070
     2
1000
-2001320
1002
}
  0
LINE
  5
C59
330
6C
100
AcDbEntity
  8
0
 62
     0
370
     0
100
AcDbLine
 10
-227.4447499063418
 20
-11.63018513367759
 30
0.0
 11
-227.4475810254003
 21
-11.61579277540753
 31
0.0
1001
REVIT
1002
{
1070
     2
1000
-2001320
1002
}
  0
LINE
  5
C5A
330
6C
100
AcDbEntity
  8
0
 62
     0
370
     0
100
AcDbLine
 10
-227.4447499642446
 20
-11.60414250141668
 30
0.0
 11
-227.4449008628291
 21
-11.6033685198878
 31
0.0
1001
REVIT
1002
{
1070
     2
1000
-2001320
1002
}
  0
LINE
  5
C5B
330
6C
100
AcDbEntity
  8
0
 62
     0
370
     0
100
AcDbLine
 10
-227.4360029267109
 20
-11.62730846850345
 30
0.0
 11
-227.4368427194686
 21
-11.6229686978141
 31
0.0
1001
REVIT
1002
{
1070
     2
1000
-2001320
1002
}
  0
LINE
  5
C5C
330
6C
100
AcDbEntity
  8
0
 62
     0
370
     0
100
AcDbLine
 10
-227.4587300389377
 20
-11.60835904419128
 30
0.0
 11
-227.458502699515
 21
-11.60317725468085
 31
0.0
1001
REVIT
1002
{
1070
     2
1000
-2001320
1002
}
  0
LINE
  5
C5E
330
6C
100
AcDbEntity
  8
0
 62
     0
370
     0
100
AcDbLine
 10
-227.4475751071248
 20
-11.61581347976975
 30
0.0
 11
-227.4473563378679
 21
-11.61072744383513
 31
0.0
1001
REVIT
1002
{
1070
     2
1000
-2001320
1002
}
  0
LINE
  5
C5F
330
6C
100
AcDbEntity
  8
0
 62
     0
370
     0
100
AcDbLine
 10
-227.4368368792843
 20
-11.62298944722599
 30
0.0
 11
-227.4366262045592
 21
-11.61799569321533
 31
0.0
1001
REVIT
1002
{
1070
     2
1000
-2001320
1002
}
  0
LINE
  5
C60
330
6C
100
AcDbEntity
  8
0
 62
     0
370
     0
100
AcDbLine
 10
-227.4583916958477
 20
-11.63022567834671
 30
0.0
 11
-227.4596380117486
 21
-11.62592800085239
 31
0.0
1001
REVIT
1002
{
1070
     2
1000
-2001320
1002
}
  0
LINE
  5
C61
330
6C
100
AcDbEntity
  8
0
 62
     0
370
     0
100
AcDbLine
 10
-227.4584994922028
 20
-11.60318562507092
 30
0.0
 11
-227.4596379403602
 21
-11.59920808429584
 31
0.0
1001
REVIT
1002
{
1070
     2
1000
-2001320
1002
}
  0
LINE
  5
C62
330
6C
100
AcDbEntity
  8
0
 62
     0
370
     0
100
AcDbLine
 10
-227.4473531894349
 20
-11.61073575032104
 30
0.0
 11
-227.4484486883284
 21
-11.60684842398434
 31
0.0
1001
REVIT
1002
{
1070
     2
1000
-2001320
1002
}
  0
LINE
  5
C63
330
6C
100
AcDbEntity
  8
0
 62
     0
370
     0
100
AcDbLine
 10
-227.4366231128854
 20
-11.61800393813015
 30
0.0
 11
-227.4376780479156
 21
-11.61420292374747
 31
0.0
1001
REVIT
1002
{
1070
     2
1000
-2001320
1002
}
  0
ARC
  5
C6B
330
6C
100
AcDbEntity
  8
0
100
AcDbCircle
 10
-227.5365662512889
 20
-11.70196142374251
 30
0.0
 40
0.0018301029580582
100
AcDbArc
 50
281.2800461186614
 51
357.5949897446877
  0
ARC
  5
C6C
330
6C
100
AcDbEntity
  8
0
100
AcDbCircle
 10
-227.5355279288428
 20
-11.7011405909303
 30
0.0
 40
0.0025508140094693
100
AcDbArc
 50
289.467469300467
 51
0.8601640478963807
  0
ARC
  5
C6D
330
6C
100
AcDbEntity
  8
0
100
AcDbCircle
 10
-227.5381221936027
 20
-11.70006743471303
 30
0.0
 40
0.0034353917206988
100
AcDbArc
 50
8.28432388232281
 51
64.76889001806586
  0
ARC
  5
C6E
330
6C
100
AcDbEntity
  8
0
100
AcDbCircle
 10
-227.5355608217878
 20
-11.69931686722533
 30
0.0
 40
0.0025834483191521
100
AcDbArc
 50
359.7294031441972
 51
46.27625084773639
  0
ARC
  5
CD3
330
6C
100
AcDbEntity
  8
0
100
AcDbCircle
 10
-227.5900822485628
 20
-11.7082680134089
 30
0.0
 40
0.0051163942759995
100
AcDbArc
 50
333.6551745633389
 51
359.5364738826831
  0
ARC
  5
CD4
330
6C
100
AcDbEntity
  8
0
100
AcDbCircle
 10
-227.5762203451145
 20
-11.70747036771811
 30
0.0
 40
0.0087909906631136
100
AcDbArc
 50
160.7576284594423
 51
174.1800140363713
  0
LINE
  5
D39
330
6C
100
AcDbEntity
  8
0
100
AcDbLine
 10
-227.5208547857489
 20
-11.74427690842445
 30
0.0
 11
-227.5203555875307
 21
-11.74403522281079
 31
0.0
  0
LINE
  5
DA0
330
6C
100
AcDbEntity
  8
0
 62
     0
370
     0
100
AcDbLine
 10
-227.5366577873735
 20
-11.69494554814758
 30
0.0
 11
-227.485857488555
 21
-11.68768842643406
 31
0.0
1001
REVIT
1002
{
1070
     1
1000
251060
1002
}
1002
{
1070
     5
1000
248263
1002
}
1002
{
1070
     2
1000
-2000151
1002
}
  0
MTEXT
  5
E05
102
{ACAD_XDICTIONARY
360
157A
102
}
330
6C
100
AcDbEntity
  8
A-ANNO-TEXT
 62
     7
100
AcDbMText
 10
-227.4767804988727
 20
-11.71857566984036
 30
0.0
 40
0.0096
 41
0.3079696359949211
 71
     2
 72
     1
  1
\A1;{\fArial|b1|i0|c0|p34;PC44}
 73
     2
 44
0.9385317878468564
1001
REVIT
1002
{
1070
     1
1000
332280
1002
}
1002
{
1070
     5
1000
332282
1002
}
1002
{
1070
     2
1000
-2000300
1002
}
1001
ACAD
1000
MTEXTBEGIN
1070
    73
1070
     2
1070
    44
1040
0.9385317878468564
1070
    74
1070
     0
1000
MTEXTEND
1000
ACAD_MTEXT_DEFINED_HEIGHT_BEGIN
1070
    46
1040
0.0182129625928056
1000
ACAD_MTEXT_DEFINED_HEIGHT_END
  0
LWPOLYLINE
  5
E6D
330
6C
100
AcDbEntity
  8
A-ANNO-TEXT
 62
     7
100
AcDbPolyline
 90
        4
 70
     1
 43
0.0
 10
-227.4928053852959
 20
-11.77306459503478
 10
-227.4375943272536
 20
-11.77306459503478
 10
-227.4375943272536
 20
-11.80326196345585
 10
-227.4928053852959
 20
-11.80326196345585
1001
REVIT
1002
{
1070
     1
1000
332279
1002
}
1002
{
1070
     5
1000
332286
1002
}
1002
{
1070
     2
1000
-2000300
1002
}
  0
MTEXT
  5
E6E
330
6C
100
AcDbEntity
  8
A-ANNO-TEXT
 62
     7
100
AcDbMText
 10
-227.4646917689565
 20
-11.7780016753384
 30
0.0
 40
0.0174664911248931
 41
0.0361434262948207
 71
     2
 72
     1
  1
{\fArial|b1|i0|c163|p34;D\fArial|b1|i0|c0|p34;76}
 73
     2
 44
0.9385317878468564
1001
REVIT
1002
{
1070
     1
1000
332279
1002
}
1002
{
1070
     5
1000
332286
1002
}
1002
{
1070
     2
1000
-2000300
1002
}
1001
ACAD
1000
MTEXTBEGIN
1070
    73
1070
     2
1070
    44
1040
0.9385317878468564
1070
    74
1070
     0
1000
MTEXTEND
  0
MTEXT
  5
ED5
102
{ACAD_XDICTIONARY
360
157C
102
}
330
6C
100
AcDbEntity
  8
A-ANNO-TEXT
 62
     7
100
AcDbMText
 10
-227.6273607110547
 20
-11.57293157282727
 30
0.0
 40
0.00864
 41
0.1057301991250962
 71
     2
 72
     1
  1
\A1;{\fArial|b0|i0|c0|p34;Pilot Holes\P\fArial|b0|i1|c0|p34;(Do not install bolts)}
 73
     2
 44
0.9385317878468564
1001
REVIT
1002
{
1070
     1
1000
332280
1002
}
1002
{
1070
     5
1000
332282
1002
}
1002
{
1070
     2
1000
-2000300
1002
}
1001
ACAD
1000
MTEXTBEGIN
1070
    73
1070
     2
1070
    44
1040
0.9385317878468564
1070
    74
1070
     0
1000
MTEXTEND
1000
ACAD_MTEXT_DEFINED_HEIGHT_BEGIN
1070
    46
1040
0.0179588080106212
1000
ACAD_MTEXT_DEFINED_HEIGHT_END
  0
HATCH
  5
F4A
330
6C
100
AcDbEntity
  8
Layer1
100
AcDbHatch
 10
0.0
 20
0.0
 30
0.0
210
0.0
220
0.0
230
1.0
  2
SOLID
 70
     1
 71
     0
 91
        1
 92
        1
 93
        3
 72
     1
 10
-227.5210707547286
 20
-11.64389436462306
 11
-227.5141209582431
 21
-11.65047135588334
 72
     1
 10
-227.5141209582431
 20
-11.65047135588356
 11
-227.5235670211525
 21
-11.64940253676704
 72
     1
 10
-227.5235670211525
 20
-11.64940253676694
 11
-227.5210707547286
 21
-11.64389436462321
 97
        0
 75
     1
 76
     1
 98
        1
 10
-227.5190209076922
 20
-11.64728679280758
1001
GradientColor1ACI
1070
     5
1001
GradientColor2ACI
1070
     2
1001
ACAD
1010
0.0
1020
0.0
1030
0.0
  0
LINE
  5
F4B
330
6C
100
AcDbEntity
  8
Layer1
100
AcDbLine
 10
-227.5210707547286
 20
-11.64389436462306
 30
0.0
 11
-227.5141209582431
 21
-11.65047135588356
 31
0.0
  0
LINE
  5
F4C
330
6C
100
AcDbEntity
  8
0
100
AcDbLine
 10
-227.5210707547286
 20
-11.64389436462306
 30
0.0
 11
-227.5235670211525
 21
-11.64940253676694
 31
0.0
  0
LINE
  5
F4D
330
6C
100
AcDbEntity
  8
0
100
AcDbLine
 10
-227.5235670211525
 20
-11.64940253676694
 30
0.0
 11
-227.5141209582431
 21
-11.65047135588356
 31
0.0
  0
LINE
  5
F4E
330
6C
100
AcDbEntity
  8
0
100
AcDbLine
 10
-227.5141209582431
 20
-11.65047135588356
 30
0.0
 11
-227.6246947187608
 21
-11.60036007422299
 31
0.0
  0
HATCH
  5
F4F
330
6C
100
AcDbEntity
  8
Layer1
100
AcDbHatch
 10
0.0
 20
0.0
 30
0.0
210
0.0
220
0.0
230
1.0
  2
SOLID
 70
     1
 71
     0
 91
        1
 92
        1
 93
        3
 72
     1
 10
-227.6128075946882
 20
-11.65393572505156
 11
-227.6144350530127
 21
-11.6633648217543
 72
     1
 10
-227.6144350530129
 20
-11.66336482175441
 11
-227.618776397378
 21
-11.65490768229153
 72
     1
 10
-227.6187763973779
 20
-11.65490768229143
 11
-227.6128075946882
 21
-11.65393572505165
 97
        0
 75
     1
 76
     1
 98
        1
 10
-227.6144970655208
 20
-11.65752126966365
1001
GradientColor1ACI
1070
     5
1001
GradientColor2ACI
1070
     2
1001
ACAD
1010
0.0
1020
0.0
1030
0.0
  0
LINE
  5
F50
330
6C
100
AcDbEntity
  8
Layer1
100
AcDbLine
 10
-227.6128075946882
 20
-11.65393572505156
 30
0.0
 11
-227.6144350530129
 21
-11.66336482175441
 31
0.0
  0
LINE
  5
F51
330
6C
100
AcDbEntity
  8
0
100
AcDbLine
 10
-227.6128075946882
 20
-11.65393572505156
 30
0.0
 11
-227.6187763973779
 21
-11.65490768229143
 31
0.0
  0
LINE
  5
F52
330
6C
100
AcDbEntity
  8
0
100
AcDbLine
 10
-227.6187763973779
 20
-11.65490768229143
 30
0.0
 11
-227.6144350530129
 21
-11.66336482175441
 31
0.0
  0
LINE
  5
F53
330
6C
100
AcDbEntity
  8
0
100
AcDbLine
 10
-227.6144350530129
 20
-11.66336482175441
 30
0.0
 11
-227.6246947187608
 21
-11.60036007422299
 31
0.0
  0
LINE
  5
10DE
330
6C
100
AcDbEntity
  8
0
100
AcDbLine
 10
-227.6143189223359
 20
-11.67244711067916
 30
0.0
 11
-227.6152903903859
 21
-11.67163491596856
 31
0.0
  0
ARC
  5
11F6
330
6C
100
AcDbEntity
  8
0
100
AcDbCircle
 10
-227.513296504396
 20
-11.709470121118
 30
0.0
 40
0.0031000557215045
100
AcDbArc
 50
355.77668042782
 51
64.16153911372493
  0
ARC
  5
11F7
330
6C
100
AcDbEntity
  8
0
100
AcDbCircle
 10
-227.5065561981679
 20
-11.71222173098308
 30
0.0
 40
0.0036368515337208
100
AcDbArc
 50
177.9874264394442
 51
235.2786004768291
  0
ARC
  5
1255
330
6C
100
AcDbEntity
  8
0
100
AcDbCircle
 10
-227.4577396202678
 20
-11.69660805252422
 30
0.0
 40
0.0030203568429944
100
AcDbArc
 50
245.6277115322662
 51
275.8744246088432
  0
ARC
  5
1256
330
6C
100
AcDbEntity
  8
0
100
AcDbCircle
 10
-227.4585849490303
 20
-11.699481720301
 30
0.0
 40
0.0018407729737067
100
AcDbArc
 50
235.2193554394272
 51
358.8015029769977
  0
ARC
  5
1257
330
6C
100
AcDbEntity
  8
0
100
AcDbCircle
 10
-227.6059161971089
 20
-11.71919508329766
 30
0.0
 40
0.0019694401410076
100
AcDbArc
 50
233.139955325843
 51
275.489406712149
  0
ARC
  5
1527
330
6C
100
AcDbEntity
  8
0
100
AcDbCircle
 10
-227.4805683151278
 20
-11.68613242856903
 30
0.0
 40
0.0019872395752775
100
AcDbArc
 50
190.3414360001146
 51
222.2768651650975
  0
ENDSEC
  0
SECTION
  2
OBJECTS
  0
DICTIONARY
  5
C
330
0
100
AcDbDictionary
281
     1
  3
ACAD_CIP_PREVIOUS_PRODUCT_INFO
350
75
  3
ACAD_COLOR
350
63
  3
ACAD_GROUP
350
D
  3
ACAD_IMAGE_VARS
350
76
  3
ACAD_LAYOUT
350
62
  3
ACAD_MATERIAL
350
10
  3
ACAD_MLEADERSTYLE
350
66
  3
ACAD_MLINESTYLE
350
5F
  3
ACAD_PLOTSETTINGS
350
61
  3
ACAD_PLOTSTYLENAME
350
E
  3
ACAD_SCALELIST
350
42
  3
ACAD_TABLESTYLE
350
64
  3
ACAD_VISUALSTYLE
350
29
  3
ACDB_RECOMPOSE_DATA
350
157E
  3
AcDbVariableDictionary
350
507
  3
DWGPROPS
350
157F
  3
REVIT_DICTIONARY
350
4FD
  0
DICTIONARY
  5
13D6
330
8
100
AcDbDictionary
280
     1
281
     1
  0
DICTIONARY
  5
516
330
2
100
AcDbDictionary
280
     1
281
     1
  3
ACAD_LAYERSTATES
360
517
  0
DICTIONARY
  5
502
330
6C
100
AcDbDictionary
280
     1
281
     1
  3
ACAD_SORTENTS
360
503
  0
DICTIONARY
  5
157A
330
E05
100
AcDbDictionary
280
     1
281
     1
  3
ACAD_MTEXT_2008_RT
360
157B
  0
DICTIONARY
  5
157C
330
ED5
100
AcDbDictionary
280
     1
281
     1
  3
ACAD_MTEXT_2008_RT
360
157D
  0
XRECORD
  5
75
102
{ACAD_REACTORS
330
C
102
}
330
C
100
AcDbXrecord
280
     1
300
ACD
300
2012
300
85792REVSU_2012_0F
  0
DICTIONARY
  5
63
102
{ACAD_REACTORS
330
C
102
}
330
C
100
AcDbDictionary
281
     1
  0
DICTIONARY
  5
D
102
{ACAD_REACTORS
330
C
102
}
330
C
100
AcDbDictionary
281
     1
  0
RASTERVARIABLES
  5
76
102
{ACAD_REACTORS
330
C
102
}
330
C
100
AcDbRasterVariables
 90
        0
 70
     0
 71
     1
 72
     5
  0
DICTIONARY
  5
62
102
{ACAD_REACTORS
330
C
102
}
330
C
100
AcDbDictionary
281
     1
  3
Layout1
350
6B
  3
Layout2
350
73
  3
Model
350
6F
  0
DICTIONARY
  5
10
102
{ACAD_REACTORS
330
C
102
}
330
C
100
AcDbDictionary
281
     1
  3
ByBlock
350
19
  3
ByLayer
350
11
  3
Global
350
21
  0
DICTIONARY
  5
66
102
{ACAD_REACTORS
330
C
102
}
330
C
100
AcDbDictionary
281
     1
  3
Standard
350
67
  0
DICTIONARY
  5
5F
102
{ACAD_REACTORS
330
C
102
}
330
C
100
AcDbDictionary
281
     1
  3
Standard
350
60
  0
DICTIONARY
  5
61
102
{ACAD_REACTORS
330
C
102
}
330
C
100
AcDbDictionary
281
     1
  0
ACDBDICTIONARYWDFLT
  5
E
102
{ACAD_REACTORS
330
C
102
}
330
C
100
AcDbDictionary
281
     1
  3
Normal
350
F
100
AcDbDictionaryWithDefault
340
F
  0
DICTIONARY
  5
42
102
{ACAD_REACTORS
330
C
102
}
330
C
100
AcDbDictionary
281
     1
  3
A0
350
43
  3
A1
350
44
  3
A2
350
45
  3
A3
350
46
  3
A4
350
47
  3
A5
350
48
  3
A6
350
49
  3
A7
350
4A
  3
A8
350
4B
  3
A9
350
4C
  3
B0
350
4D
  3
B1
350
4E
  3
B2
350
4F
  3
B3
350
50
  3
B4
350
51
  3
B5
350
52
  3
B6
350
53
  0
DICTIONARY
  5
64
102
{ACAD_REACTORS
330
C
102
}
330
C
100
AcDbDictionary
281
     1
  3
Standard
350
65
  0
DICTIONARY
  5
29
102
{ACAD_REACTORS
330
C
102
}
330
C
100
AcDbDictionary
281
     1
  3
2dWireframe
350
2F
  3
Basic
350
2E
  3
Brighten
350
35
  3
ColorChange
350
39
  3
Conceptual
350
32
  3
Dim
350
34
  3
EdgeColorOff
350
41
  3
Facepattern
350
38
  3
Flat
350
2A
  3
FlatWithEdges
350
2B
  3
Gouraud
350
2C
  3
GouraudWithEdges
350
2D
  3
Hidden
350
31
  3
JitterOff
350
3F
  3
Linepattern
350
37
  3
OverhangOff
350
40
  3
Realistic
350
33
  3
Shaded
350
3E
  3
Shaded with edges
350
3D
  3
Shades of Gray
350
3A
  3
Sketchy
350
3B
  3
Thicken
350
36
  3
Wireframe
350
30
  3
X-Ray
350
3C
  0
XRECORD
  5
157E
102
{ACAD_REACTORS
330
C
102
}
330
C
100
AcDbXrecord
280
     1
 90
        1
330
65
330
E05
330
ED5
  0
DICTIONARY
  5
507
102
{ACAD_REACTORS
330
C
102
}
330
C
100
AcDbDictionary
281
     1
  3
CANNOSCALE
350
50A
  3
CMLEADERSTYLE
350
509
  3
CTABLESTYLE
350
508
  3
DIMASSOC
350
1424
  3
HIDETEXT
350
1423
  3
INDEXCTL
350
1422
  3
LATITUDE
350
1573
  3
LAYEREVAL
350
141F
  3
LAYERNOTIFY
350
1420
  3
LIGHTINGUNITS
350
141E
  3
LONGITUDE
350
1574
  3
MSLTSCALE
350
141D
  3
SORTENTS
350
1421
  3
TIMEZONE
350
1575
  3
XCLIPFRAME
350
1576
  0
XRECORD
  5
157F
102
{ACAD_REACTORS
330
C
102
}
330
C
100
AcDbXrecord
280
     1
  1
DWGPROPS COOKIE
  2

  3

  4

  6

  7

  8
dunguyen
  9

300
=
301
=
302
=
303
=
304
=
305
=
306
=
307
=
308
=
309
=
 40
0.0213787268518519
 41
2456195.352719942
 42
2456199.560969942
  1

 90
        0
  0
DICTIONARY
  5
4FD
102
{ACAD_REACTORS
330
C
102
}
330
C
100
AcDbDictionary
281
     1
  3
DRAWING_TOOL
350
501
  3
REVIT_CATEGORY_MAPPING
350
4FF
  3
REVIT_SUB_CATEGORY_MAPPING
350
500
  3
REVIT_TYPE_MAPPING
350
4FE
  0
DICTIONARY
  5
517
102
{ACAD_REACTORS
330
516
102
}
330
516
100
AcDbDictionary
281
     1
  0
SORTENTSTABLE
  5
503
102
{ACAD_REACTORS
330
502
102
}
330
502
100
AcDbSortentsTable
330
6C
331
B36
  5
868
331
B32
  5
864
331
C25
  5
39F
331
BAC
  5
7EB
331
B2E
  5
86E
331
B6D
  5
82A
331
C21
  5
39B
331
BA8
  5
7E7
331
BE7
  5
7A9
331
B2A
  5
87D
331
B69
  5
835
331
C5C
  5
18A
331
C1D
  5
2D1
331
BA4
  5
7FC
331
BE3
  5
7BE
331
C58
  5
186
331
C19
  5
423
331
BA0
  5
7F8
331
39E
  5
911
331
4F4
  5
9FC
331
A3E
  5
998
331
415
  5
967
331
4F0
  5
9F8
331
A3A
  5
994
331
ABC
  5
8E1
331
9F7
  5
9DE
331
2D2
  5
875
331
4EC
  5
9F4
331
A36
  5
99B
331
9F3
  5
9DA
331
AB8
  5
8F5
331
AF7
  5
8AA
331
A32
  5
9A2
331
AB4
  5
8F1
331
AF3
  5
8B8
331
AB0
  5
8ED
331
B26
  5
879
331
BDF
  5
7BA
331
B22
  5
882
331
B61
  5
83C
331
C54
  5
182
331
C15
  5
78C
331
B9C
  5
7F4
331
BDB
  5
7B6
331
B1E
  5
87E
331
C50
  5
17E
331
C11
  5
788
331
B98
  5
80A
331
BD7
  5
7CB
331
B5D
  5
838
331
B1A
  5
887
331
B59
  5
843
331
C4C
  5
17A
331
C0D
  5
784
331
B94
  5
806
331
BD3
  5
7C7
331
C48
  5
176
331
C09
  5
799
331
B90
  5
802
331
405
  5
95D
331
2CE
  5
871
331
9EF
  5
9E3
331
9EB
  5
9F0
331
A2E
  5
99E
331
A75
  5
942
331
AEF
  5
8B4
331
196
  5
4FC
331
4A0
  5
9C8
331
9E7
  5
9EC
331
A2A
  5
9A5
331
A71
  5
94A
331
AAC
  5
901
331
AEB
  5
8B0
331
3D1
  5
938
331
192
  5
4F8
331
9E3
  5
9E8
331
A26
  5
9AA
331
A6D
  5
946
331
AA8
  5
8FD
331
AE7
  5
8C4
331
448
  5
98B
331
A22
  5
9B5
331
A69
  5
955
331
AA4
  5
8F9
331
AE3
  5
8C0
331
AA0
  5
90D
331
B16
  5
891
331
BCF
  5
7C3
331
B12
  5
88D
331
B51
  5
84A
331
C44
  5
2CE
331
C05
  5
795
331
B8C
  5
817
331
BCB
  5
7D8
331
B0E
  5
899
331
C40
  5
195
331
C01
  5
791
331
B88
  5
813
331
BC7
  5
7D4
331
B4D
  5
846
331
B0A
  5
895
331
B49
  5
850
331
C3C
  5
416
331
BFD
  5
7A6
331
B84
  5
80F
331
BC3
  5
7D0
331
C38
  5
405
331
BF9
  5
7A2
331
CD3
  5
CD4
331
B80
  5
821
331
18E
  5
4F4
331
444
  5
987
331
18A
  5
4F0
331
A1E
  5
9B1
331
A65
  5
951
331
ADF
  5
8BC
331
186
  5
4EC
331
A1A
  5
9AD
331
A61
  5
94D
331
A9C
  5
909
331
ADB
  5
8D0
331
182
  5
4A1
331
A16
  5
9BB
331
A55
  5
96A
331
A98
  5
905
331
AD7
  5
8CC
331
430
  5
979
331
A12
  5
9B7
331
A51
  5
96B
331
A94
  5
921
331
AD3
  5
8C8
331
A90
  5
926
331
B06
  5
89F
331
B45
  5
85A
331
BBF
  5
7E5
331
B02
  5
89B
331
B41
  5
856
331
C34
  5
3C5
331
BF5
  5
79E
331
B7C
  5
81D
331
BBB
  5
7E1
331
B3D
  5
861
331
C30
  5
3AA
331
BB7
  5
7DD
331
BF1
  5
7B3
331
C6B
  5
C6C
331
B78
  5
819
331
AFE
  5
8A4
331
C2C
  5
3A6
331
BB3
  5
7F2
331
BED
  5
7AF
331
B74
  5
823
331
AFA
  5
8AD
331
C28
  5
3A2
331
BE9
  5
7AB
331
C63
  5
191
331
B70
  5
82D
331
17E
  5
447
331
3A9
  5
91C
331
17A
  5
443
331
A0E
  5
9C5
331
A4D
  5
973
331
ACF
  5
8DC
331
3A5
  5
918
331
176
  5
436
331
A0A
  5
9C1
331
A8C
  5
92C
331
ACB
  5
8D8
331
3A1
  5
914
331
424
  5
970
331
4FB
  5
A03
331
A45
  5
980
331
AC7
  5
8D4
331
A88
  5
928
331
A41
  5
98F
331
9FA
  5
9E1
331
AC3
  5
8E8
331
B35
  5
867
331
BAF
  5
7EE
331
B31
  5
863
331
C24
  5
39E
331
BAB
  5
7EA
331
B2D
  5
86D
331
C5F
  5
18D
331
C20
  5
2D4
331
BA7
  5
7FF
331
BE6
  5
7A8
331
B6C
  5
829
331
B29
  5
87C
331
B68
  5
834
331
C5B
  5
189
331
C1C
  5
2D0
331
BA3
  5
7FB
331
BE2
  5
7BD
331
C18
  5
422
331
39D
  5
910
331
4F7
  5
9FF
331
4F3
  5
9FB
331
ABF
  5
8E4
331
A3D
  5
997
331
414
  5
966
331
4EF
  5
9F7
331
A39
  5
993
331
ABB
  5
8E0
331
9F6
  5
9DD
331
2D1
  5
874
331
4EB
  5
9F3
331
A35
  5
99A
331
9F2
  5
9E6
331
AB7
  5
8F4
331
AF6
  5
8A9
331
A31
  5
9A1
331
A78
  5
945
331
AB3
  5
8F0
331
AF2
  5
8B7
331
B25
  5
878
331
B64
  5
83F
331
C57
  5
185
331
B9F
  5
7F7
331
BDE
  5
7B9
331
B21
  5
881
331
B60
  5
83B
331
C53
  5
181
331
C14
  5
78B
331
B9B
  5
7F3
331
BDA
  5
7B5
331
B1D
  5
88A
331
C4F
  5
17D
331
C10
  5
787
331
B97
  5
809
331
BD6
  5
7CA
331
B5C
  5
837
331
B19
  5
886
331
B58
  5
842
331
C4B
  5
179
331
C0C
  5
783
331
B93
  5
805
331
BD2
  5
7C6
331
C08
  5
798
331
2CD
  5
870
331
9EE
  5
9E2
331
9EA
  5
9EF
331
A2D
  5
99D
331
A74
  5
941
331
AAF
  5
8EC
331
AEE
  5
8B3
331
195
  5
4FB
331
9E6
  5
9EB
331
A29
  5
9A4
331
A70
  5
949
331
AAB
  5
900
331
AEA
  5
8AF
331
3D0
  5
937
331
191
  5
4F7
331
9E2
  5
9E7
331
A25
  5
9A9
331
A6C
  5
958
331
AA7
  5
8FC
331
AE6
  5
8C3
331
A21
  5
9B4
331
A68
  5
954
331
AA3
  5
8F8
331
AE2
  5
8BF
331
B15
  5
890
331
B54
  5
84D
331
C47
  5
175
331
B8F
  5
801
331
BCE
  5
7C2
331
B11
  5
88C
331
B50
  5
849
331
C43
  5
2CD
331
C04
  5
794
331
B8B
  5
816
331
BCA
  5
7D7
331
B0D
  5
898
331
C3F
  5
194
331
C00
  5
790
331
B87
  5
812
331
BC6
  5
7D3
331
B4C
  5
845
331
B09
  5
894
331
B48
  5
84F
331
C3B
  5
415
331
BFC
  5
7A5
331
B83
  5
80E
331
BC2
  5
7CF
331
BF8
  5
7A1
331
3C4
  5
92E
331
447
  5
98A
331
18D
  5
4F3
331
443
  5
986
331
189
  5
4EF
331
A1D
  5
9B0
331
A64
  5
950
331
A9F
  5
90C
331
ADE
  5
8BB
331
185
  5
4EB
331
437
  5
97D
331
A19
  5
9BE
331
A9B
  5
908
331
ADA
  5
8CF
331
181
  5
4A0
331
A15
  5
9BA
331
A54
  5
969
331
A97
  5
904
331
AD6
  5
8CB
331
A11
  5
9B6
331
A50
  5
976
331
AD2
  5
8C7
331
B05
  5
89E
331
B44
  5
859
331
C37
  5
3DC
331
B7F
  5
820
331
BBE
  5
7E4
331
B01
  5
8A7
331
B40
  5
855
331
C33
  5
3C4
331
B7B
  5
81C
331
BBA
  5
7E0
331
BF4
  5
79D
331
C6E
  5
CD3
331
B3C
  5
860
331
BB6
  5
7DC
331
AFD
  5
8A3
331
B77
  5
826
331
C2F
  5
3A9
331
BF0
  5
7B2
331
B38
  5
86A
331
BB2
  5
7F1
331
AF9
  5
8AC
331
B73
  5
830
331
C2B
  5
3A5
331
BEC
  5
7AE
331
BE8
  5
7AA
331
C62
  5
190
331
42F
  5
978
331
17D
  5
446
331
3A8
  5
91B
331
179
  5
442
331
A0D
  5
9C4
331
A4C
  5
972
331
A8F
  5
925
331
ACE
  5
8DB
331
3A4
  5
917
331
175
  5
430
331
A09
  5
9C0
331
A48
  5
983
331
A8B
  5
92B
331
ACA
  5
8D7
331
3A0
  5
913
331
423
  5
96F
331
4FA
  5
A02
331
A44
  5
97F
331
AC6
  5
8D3
331
A87
  5
927
331
A40
  5
98E
331
9F9
  5
9E0
331
AC2
  5
8E7
331
B34
  5
866
331
BAE
  5
7ED
331
C27
  5
3A1
331
B30
  5
862
331
BAA
  5
7E9
331
B6F
  5
82C
331
C23
  5
39D
331
B2C
  5
86C
331
BE5
  5
7C0
331
B6B
  5
828
331
BA6
  5
7FE
331
C1F
  5
2D3
331
C5E
  5
18C
331
B28
  5
87B
331
BE1
  5
7BC
331
BA2
  5
7FA
331
C1B
  5
42E
331
C5A
  5
188
331
39C
  5
90F
331
4F6
  5
9FE
331
A3C
  5
996
331
ABE
  5
8E3
331
4F2
  5
9FA
331
4EE
  5
9F6
331
A38
  5
992
331
ABA
  5
8DF
331
9F5
  5
9DC
331
2D4
  5
877
331
A34
  5
999
331
9F1
  5
9E5
331
AB6
  5
8F3
331
AF5
  5
8A8
331
2D0
  5
873
331
A30
  5
9A0
331
AB2
  5
8EF
331
AF1
  5
8B6
331
B67
  5
833
331
B24
  5
884
331
B63
  5
83E
331
BDD
  5
7B8
331
B9E
  5
7F6
331
C17
  5
78E
331
C56
  5
184
331
B20
  5
880
331
B5F
  5
83A
331
BD9
  5
7CD
331
B9A
  5
80C
331
C13
  5
78A
331
C52
  5
180
331
B1C
  5
889
331
B5B
  5
836
331
BD5
  5
7C9
331
B96
  5
808
331
C0F
  5
786
331
C4E
  5
17C
331
B18
  5
885
331
BD1
  5
7C5
331
B92
  5
804
331
C0B
  5
79B
331
C4A
  5
178
331
9ED
  5
9F2
331
A77
  5
944
331
9E9
  5
9EE
331
A2C
  5
99C
331
A73
  5
94C
331
AAE
  5
8EB
331
AED
  5
8B2
331
9E5
  5
9EA
331
A28
  5
9AC
331
A6F
  5
948
331
AAA
  5
8FF
331
AE9
  5
8AE
331
194
  5
4FA
331
A24
  5
9A8
331
A6B
  5
957
331
AA6
  5
8FB
331
AE5
  5
8C2
331
190
  5
4F6
331
A20
  5
9B3
331
AA2
  5
8F7
331
AE1
  5
8BE
331
B57
  5
841
331
B14
  5
88F
331
B53
  5
84C
331
BCD
  5
7C1
331
B8E
  5
800
331
C07
  5
797
331
C46
  5
174
331
B4F
  5
848
331
BC9
  5
7D6
331
B8A
  5
815
331
C03
  5
793
331
C42
  5
197
331
B0C
  5
897
331
B4B
  5
852
331
BC5
  5
7D2
331
B86
  5
811
331
BFF
  5
78F
331
D39
  5
D9E
331
C3E
  5
193
331
BC1
  5
7CE
331
B82
  5
80D
331
BFB
  5
7A4
331
C3A
  5
414
331
3C3
  5
92D
331
A67
  5
953
331
446
  5
989
331
18C
  5
4F2
331
A1C
  5
9AF
331
A63
  5
94F
331
A9E
  5
90B
331
ADD
  5
8BA
331
442
  5
985
331
188
  5
4EE
331
A18
  5
9BD
331
A9A
  5
907
331
AD9
  5
8CE
331
184
  5
4AE
331
A14
  5
9B9
331
A53
  5
96D
331
A96
  5
903
331
AD5
  5
8CA
331
180
  5
449
331
A10
  5
9C7
331
AD1
  5
8C6
331
B47
  5
85C
331
B43
  5
858
331
BBD
  5
7E3
331
C36
  5
3D1
331
B04
  5
89D
331
BF7
  5
7A0
331
B7E
  5
81F
331
B3F
  5
854
331
BB9
  5
7DF
331
C32
  5
3C3
331
BF3
  5
79C
331
C6D
  5
C6E
331
B7A
  5
81B
331
B00
  5
8A6
331
B3B
  5
85F
331
C2E
  5
3A8
331
BB5
  5
7DB
331
BEF
  5
7B1
331
B76
  5
825
331
AFC
  5
8A2
331
C2A
  5
3A4
331
BB1
  5
7F0
331
BEB
  5
7AD
331
B72
  5
82F
331
AF8
  5
8AB
331
C61
  5
18F
331
A4F
  5
975
331
42E
  5
977
331
17C
  5
445
331
3A7
  5
91A
331
A4B
  5
971
331
178
  5
441
331
ACD
  5
8DA
331
A0C
  5
9C3
331
A8E
  5
924
331
3A3
  5
916
331
174
  5
42F
331
A47
  5
982
331
AC9
  5
8D6
331
A08
  5
9BF
331
A8A
  5
92A
331
422
  5
96E
331
4F9
  5
A01
331
A43
  5
97E
331
AC5
  5
8D2
331
A86
  5
936
331
9F8
  5
9DF
331
AC1
  5
8E6
331
B37
  5
869
331
B33
  5
865
331
C26
  5
3A0
331
BAD
  5
7EC
331
B2F
  5
86F
331
C22
  5
39C
331
BA9
  5
7E8
331
B6E
  5
82B
331
B2B
  5
86B
331
B6A
  5
827
331
C1E
  5
2D2
331
BA5
  5
7FD
331
BE4
  5
7BF
331
C59
  5
187
331
C1A
  5
424
331
BA1
  5
7F9
331
BE0
  5
7BB
331
39F
  5
912
331
39B
  5
90E
331
4F5
  5
9FD
331
A3F
  5
98D
331
A3B
  5
995
331
ABD
  5
8E2
331
4F1
  5
9F9
331
2D3
  5
876
331
4ED
  5
9F5
331
A37
  5
991
331
AB9
  5
8DE
331
9F4
  5
9DB
331
A33
  5
9A3
331
9F0
  5
9E4
331
AB5
  5
8F2
331
AF4
  5
8B9
331
AB1
  5
8EE
331
AF0
  5
8B5
331
B27
  5
87A
331
B66
  5
832
331
B23
  5
883
331
B62
  5
83D
331
C55
  5
183
331
C16
  5
78D
331
B9D
  5
7F5
331
BDC
  5
7B7
331
B1F
  5
87F
331
B5E
  5
839
331
C51
  5
17F
331
C12
  5
789
331
B99
  5
80B
331
BD8
  5
7CC
331
B1B
  5
888
331
B5A
  5
844
331
C4D
  5
17B
331
C0E
  5
785
331
B95
  5
807
331
BD4
  5
7C8
331
C49
  5
177
331
C0A
  5
79A
331
B91
  5
803
331
BD0
  5
7C4
331
DA0
  5
9D3
331
406
  5
95E
331
2CF
  5
872
331
9EC
  5
9F1
331
A2F
  5
99F
331
A76
  5
943
331
197
  5
782
331
4A1
  5
9C9
331
9E8
  5
9ED
331
A2B
  5
9A6
331
A72
  5
94B
331
AAD
  5
8EA
331
AEC
  5
8B1
331
193
  5
4F9
331
9E4
  5
9E9
331
A27
  5
9AB
331
A6E
  5
947
331
AA9
  5
8FE
331
AE8
  5
8C5
331
449
  5
98C
331
A23
  5
9A7
331
A6A
  5
956
331
AA5
  5
8FA
331
AE4
  5
8C1
331
AA1
  5
8F6
331
AE0
  5
8BD
331
B17
  5
892
331
B13
  5
88E
331
B52
  5
84B
331
C45
  5
2CF
331
C06
  5
796
331
B8D
  5
818
331
BCC
  5
7D9
331
B0F
  5
89A
331
B4E
  5
847
331
C41
  5
196
331
C02
  5
792
331
B89
  5
814
331
BC8
  5
7D5
331
B0B
  5
896
331
B4A
  5
851
331
C3D
  5
192
331
BFE
  5
7A7
331
B85
  5
810
331
BC4
  5
7D1
331
BFA
  5
7A3
331
CD4
  5
D39
331
C39
  5
406
331
BC0
  5
7E6
331
18F
  5
4F5
331
445
  5
988
331
18B
  5
4F1
331
A1F
  5
9B2
331
A66
  5
952
331
187
  5
4ED
331
441
  5
984
331
A1B
  5
9AE
331
A62
  5
94E
331
A9D
  5
90A
331
ADC
  5
8D1
331
3B2
  5
922
331
183
  5
4A2
331
A17
  5
9BC
331
A99
  5
906
331
AD8
  5
8CD
331
A13
  5
9B8
331
A52
  5
96C
331
A95
  5
902
331
AD4
  5
8C9
331
AD0
  5
8DD
331
B07
  5
8A0
331
B03
  5
89C
331
B42
  5
857
331
C35
  5
3D0
331
BF6
  5
79F
331
B7D
  5
81E
331
BBC
  5
7E2
331
B3E
  5
853
331
AFF
  5
8A5
331
C31
  5
3B2
331
BF2
  5
7B4
331
C6C
  5
C6D
331
B79
  5
81A
331
BB8
  5
7DE
331
B3A
  5
85E
331
C2D
  5
3A7
331
BB4
  5
7DA
331
BEE
  5
7B0
331
B75
  5
824
331
AFB
  5
8A1
331
C29
  5
3A3
331
BB0
  5
7EF
331
BEA
  5
7AC
331
B71
  5
82E
331
C60
  5
18E
331
17F
  5
448
331
3AA
  5
91D
331
17B
  5
444
331
A0F
  5
9C6
331
A4E
  5
974
331
3A6
  5
919
331
177
  5
437
331
A0B
  5
9C2
331
A8D
  5
923
331
ACC
  5
8D9
331
3A2
  5
915
331
4FC
  5
A04
331
A46
  5
981
331
A89
  5
929
331
AC8
  5
8D5
331
4F8
  5
A00
331
A42
  5
990
331
AC4
  5
8E9
331
AC0
  5
8E5
  0
XRECORD
  5
157B
102
{ACAD_REACTORS
330
157A
102
}
330
157A
100
AcDbXrecord
280
     1
 40
41482.0
  1
\A1;\pxqc;{\fArial|b1|i0|c0|p34;PC44}
  0
XRECORD
  5
157D
102
{ACAD_REACTORS
330
157C
102
}
330
157C
100
AcDbXrecord
280
     1
 40
319249.0
  1
\A1;\pxqc;{\fArial|b0|i0|c0|p34;Pilot Holes\P\fArial|b0|i1|c0|p34;(Do not install bolts)}
  0
LAYOUT
  5
6B
102
{ACAD_XDICTIONARY
360
15B4
102
}
102
{ACAD_REACTORS
330
62
102
}
330
62
100
AcDbPlotSettings
  1

  2

  4

  6

 40
0.0
 41
0.0
 42
0.0
 43
0.0
 44
0.0
 45
0.0
 46
0.0
 47
0.0
 48
0.0
 49
0.0
140
0.0
141
0.0
142
1.0
143
1.0
 70
   688
 72
     0
 73
     0
 74
     5
  7

 75
    16
147
1.0
148
0.0
149
0.0
100
AcDbLayout
  1
Layout1
 70
     1
 71
     1
 10
0.0
 20
0.0
 11
12.0
 21
9.0
 12
0.0
 22
0.0
 32
0.0
 14
1.000000000000000E+20
 24
1.000000000000000E+20
 34
1.000000000000000E+20
 15
-1.000000000000000E+20
 25
-1.000000000000000E+20
 35
-1.000000000000000E+20
146
0.0
 13
0.0
 23
0.0
 33
0.0
 16
1.0
 26
0.0
 36
0.0
 17
0.0
 27
1.0
 37
0.0
 76
     0
330
68
  0
LAYOUT
  5
73
102
{ACAD_XDICTIONARY
360
15B8
102
}
102
{ACAD_REACTORS
330
62
102
}
330
62
100
AcDbPlotSettings
  1

  2

  4

  6

 40
0.0
 41
0.0
 42
0.0
 43
0.0
 44
0.0
 45
0.0
 46
0.0
 47
0.0
 48
0.0
 49
0.0
140
0.0
141
0.0
142
1.0
143
1.0
 70
   688
 72
     0
 73
     0
 74
     5
  7

 75
    16
147
1.0
148
0.0
149
0.0
100
AcDbLayout
  1
Layout2
 70
     1
 71
     2
 10
0.0
 20
0.0
 11
12.0
 21
9.0
 12
0.0
 22
0.0
 32
0.0
 14
0.0
 24
0.0
 34
0.0
 15
0.0
 25
0.0
 35
0.0
146
0.0
 13
0.0
 23
0.0
 33
0.0
 16
1.0
 26
0.0
 36
0.0
 17
0.0
 27
1.0
 37
0.0
 76
     0
330
70
  0
LAYOUT
  5
6F
102
{ACAD_XDICTIONARY
360
15B6
102
}
102
{ACAD_REACTORS
330
62
102
}
330
62
100
AcDbPlotSettings
  1

  2

  4

  6

 40
0.0
 41
0.0
 42
0.0
 43
0.0
 44
0.0
 45
0.0
 46
0.0
 47
0.0
 48
0.0
 49
0.0
140
0.0
141
0.0
142
1.0
143
1.0
 70
  1712
 72
     0
 73
     0
 74
     0
  7

 75
     0
147
1.0
148
0.0
149
0.0
100
AcDbLayout
  1
Model
 70
     1
 71
     0
 10
0.0
 20
0.0
 11
12.0
 21
9.0
 12
0.0
 22
0.0
 32
0.0
 14
0.0
 24
0.0
 34
0.0
 15
0.0
 25
0.0
 35
0.0
146
0.0
 13
0.0
 23
0.0
 33
0.0
 16
1.0
 26
0.0
 36
0.0
 17
0.0
 27
1.0
 37
0.0
 76
     0
330
6C
331
57
  0
MATERIAL
  5
19
102
{ACAD_XDICTIONARY
360
1A
102
}
102
{ACAD_REACTORS
330
10
102
}
330
10
100
AcDbMaterial
  1
ByBlock
 72
     0
 43
0.0208333333333333
 43
0.0
 43
0.0
 43
0.0
 43
0.0
 43
0.0208333333333333
 43
0.0
 43
0.0
 43
0.0
 43
0.0
 43
1.0
 43
0.0
 43
0.0
 43
0.0
 43
0.0
 43
1.0
 77
     0
 47
0.0208333333333333
 47
0.0
 47
0.0
 47
0.0
 47
0.0
 47
0.0208333333333333
 47
0.0
 47
0.0
 47
0.0
 47
0.0
 47
1.0
 47
0.0
 47
0.0
 47
0.0
 47
0.0
 47
1.0
171
     0
 49
0.0208333333333333
 49
0.0
 49
0.0
 49
0.0
 49
0.0
 49
0.0208333333333333
 49
0.0
 49
0.0
 49
0.0
 49
0.0
 49
1.0
 49
0.0
 49
0.0
 49
0.0
 49
0.0
 49
1.0
175
     0
142
0.0208333333333333
142
0.0
142
0.0
142
0.0
142
0.0
142
0.0208333333333333
142
0.0
142
0.0
142
0.0
142
0.0
142
1.0
142
0.0
142
0.0
142
0.0
142
0.0
142
1.0
179
     0
144
0.0208333333333333
144
0.0
144
0.0
144
0.0
144
0.0
144
0.0208333333333333
144
0.0
144
0.0
144
0.0
144
0.0
144
1.0
144
0.0
144
0.0
144
0.0
144
0.0
144
1.0
147
0.0208333333333333
147
0.0
147
0.0
147
0.0
147
0.0
147
0.0208333333333333
147
0.0
147
0.0
147
0.0
147
0.0
147
1.0
147
0.0
147
0.0
147
0.0
147
0.0
147
1.0
  0
MATERIAL
  5
11
102
{ACAD_XDICTIONARY
360
12
102
}
102
{ACAD_REACTORS
330
10
102
}
330
10
100
AcDbMaterial
  1
ByLayer
 72
     0
 43
0.0208333333333333
 43
0.0
 43
0.0
 43
0.0
 43
0.0
 43
0.0208333333333333
 43
0.0
 43
0.0
 43
0.0
 43
0.0
 43
1.0
 43
0.0
 43
0.0
 43
0.0
 43
0.0
 43
1.0
 77
     0
 47
0.0208333333333333
 47
0.0
 47
0.0
 47
0.0
 47
0.0
 47
0.0208333333333333
 47
0.0
 47
0.0
 47
0.0
 47
0.0
 47
1.0
 47
0.0
 47
0.0
 47
0.0
 47
0.0
 47
1.0
171
     0
 49
0.0208333333333333
 49
0.0
 49
0.0
 49
0.0
 49
0.0
 49
0.0208333333333333
 49
0.0
 49
0.0
 49
0.0
 49
0.0
 49
1.0
 49
0.0
 49
0.0
 49
0.0
 49
0.0
 49
1.0
175
     0
142
0.0208333333333333
142
0.0
142
0.0
142
0.0
142
0.0
142
0.0208333333333333
142
0.0
142
0.0
142
0.0
142
0.0
142
1.0
142
0.0
142
0.0
142
0.0
142
0.0
142
1.0
179
     0
144
0.0208333333333333
144
0.0
144
0.0
144
0.0
144
0.0
144
0.0208333333333333
144
0.0
144
0.0
144
0.0
144
0.0
144
1.0
144
0.0
144
0.0
144
0.0
144
0.0
144
1.0
147
0.0208333333333333
147
0.0
147
0.0
147
0.0
147
0.0
147
0.0208333333333333
147
0.0
147
0.0
147
0.0
147
0.0
147
1.0
147
0.0
147
0.0
147
0.0
147
0.0
147
1.0
  0
MATERIAL
  5
21
102
{ACAD_XDICTIONARY
360
22
102
}
102
{ACAD_REACTORS
330
10
102
}
330
10
100
AcDbMaterial
  1
Global
 72
     0
 43
0.0208333333333333
 43
0.0
 43
0.0
 43
0.0
 43
0.0
 43
0.0208333333333333
 43
0.0
 43
0.0
 43
0.0
 43
0.0
 43
1.0
 43
0.0
 43
0.0
 43
0.0
 43
0.0
 43
1.0
 77
     0
 47
0.0208333333333333
 47
0.0
 47
0.0
 47
0.0
 47
0.0
 47
0.0208333333333333
 47
0.0
 47
0.0
 47
0.0
 47
0.0
 47
1.0
 47
0.0
 47
0.0
 47
0.0
 47
0.0
 47
1.0
171
     0
 49
0.0208333333333333
 49
0.0
 49
0.0
 49
0.0
 49
0.0
 49
0.0208333333333333
 49
0.0
 49
0.0
 49
0.0
 49
0.0
 49
1.0
 49
0.0
 49
0.0
 49
0.0
 49
0.0
 49
1.0
175
     0
142
0.0208333333333333
142
0.0
142
0.0
142
0.0
142
0.0
142
0.0208333333333333
142
0.0
142
0.0
142
0.0
142
0.0
142
1.0
142
0.0
142
0.0
142
0.0
142
0.0
142
1.0
179
     0
144
0.0208333333333333
144
0.0
144
0.0
144
0.0
144
0.0
144
0.0208333333333333
144
0.0
144
0.0
144
0.0
144
0.0
144
1.0
144
0.0
144
0.0
144
0.0
144
0.0
144
1.0
147
0.0208333333333333
147
0.0
147
0.0
147
0.0
147
0.0
147
0.0208333333333333
147
0.0
147
0.0
147
0.0
147
0.0
147
1.0
147
0.0
147
0.0
147
0.0
147
0.0
147
1.0
  0
MLEADERSTYLE
  5
67
102
{ACAD_XDICTIONARY
360
1578
102
}
102
{ACAD_REACTORS
330
66
102
}
330
66
100
AcDbMLeaderStyle
170
     2
171
     1
172
     0
 90
        2
 40
0.0
 41
0.0
173
     1
 91
-1056964608
340
5B
 92
       -2
290
     1
 42
0.09
291
     1
 43
0.36
  3
Standard
 44
0.18
300

342
55
174
     1
178
     6
175
     1
176
     0
 93
-1056964608
 45
0.18
292
     0
297
     0
 46
0.18
 94
-1056964608
 47
1.0
 49
1.0
140
1.0
293
     1
141
0.0
294
     1
177
     0
142
1.0
295
     0
296
     0
143
0.125
1001
ACAD_MLEADERVER
1070
     2
  0
MLINESTYLE
  5
60
102
{ACAD_REACTORS
330
5F
102
}
330
5F
100
AcDbMlineStyle
  2
STANDARD
 70
     0
  3

 62
   256
 51
90.0
 52
90.0
 71
     2
 49
0.5
 62
   256
  6
BYLAYER
 49
-0.5
 62
   256
  6
BYLAYER
  0
ACDBPLACEHOLDER
  5
F
102
{ACAD_REACTORS
330
E
102
}
330
E
  0
SCALE
  5
43
102
{ACAD_REACTORS
330
42
102
}
330
42
100
AcDbScale
 70
     0
300
1:1
140
1.0
141
1.0
290
     1
  0
SCALE
  5
44
102
{ACAD_REACTORS
330
42
102
}
330
42
100
AcDbScale
 70
     0
300
1/128" = 1'-0"
140
0.0078125
141
12.0
290
     0
  0
SCALE
  5
45
102
{ACAD_REACTORS
330
42
102
}
330
42
100
AcDbScale
 70
     0
300
1/64" = 1'-0"
140
0.015625
141
12.0
290
     0
  0
SCALE
  5
46
102
{ACAD_REACTORS
330
42
102
}
330
42
100
AcDbScale
 70
     0
300
1/32" = 1'-0"
140
0.03125
141
12.0
290
     0
  0
SCALE
  5
47
102
{ACAD_REACTORS
330
42
102
}
330
42
100
AcDbScale
 70
     0
300
1/16" = 1'-0"
140
0.0625
141
12.0
290
     0
  0
SCALE
  5
48
102
{ACAD_REACTORS
330
42
102
}
330
42
100
AcDbScale
 70
     0
300
3/32" = 1'-0"
140
0.09375
141
12.0
290
     0
  0
SCALE
  5
49
102
{ACAD_REACTORS
330
42
102
}
330
42
100
AcDbScale
 70
     0
300
1/8" = 1'-0"
140
0.125
141
12.0
290
     0
  0
SCALE
  5
4A
102
{ACAD_REACTORS
330
42
102
}
330
42
100
AcDbScale
 70
     0
300
3/16" = 1'-0"
140
0.1875
141
12.0
290
     0
  0
SCALE
  5
4B
102
{ACAD_REACTORS
330
42
102
}
330
42
100
AcDbScale
 70
     0
300
1/4" = 1'-0"
140
0.25
141
12.0
290
     0
  0
SCALE
  5
4C
102
{ACAD_REACTORS
330
42
102
}
330
42
100
AcDbScale
 70
     0
300
3/8" = 1'-0"
140
0.375
141
12.0
290
     0
  0
SCALE
  5
4D
102
{ACAD_REACTORS
330
42
102
}
330
42
100
AcDbScale
 70
     0
300
1/2" = 1'-0"
140
0.5
141
12.0
290
     0
  0
SCALE
  5
4E
102
{ACAD_REACTORS
330
42
102
}
330
42
100
AcDbScale
 70
     0
300
3/4" = 1'-0"
140
0.75
141
12.0
290
     0
  0
SCALE
  5
4F
102
{ACAD_REACTORS
330
42
102
}
330
42
100
AcDbScale
 70
     0
300
1" = 1'-0"
140
1.0
141
12.0
290
     0
  0
SCALE
  5
50
102
{ACAD_REACTORS
330
42
102
}
330
42
100
AcDbScale
 70
     0
300
1-1/2" = 1'-0"
140
1.5
141
12.0
290
     0
  0
SCALE
  5
51
102
{ACAD_REACTORS
330
42
102
}
330
42
100
AcDbScale
 70
     0
300
3" = 1'-0"
140
3.0
141
12.0
290
     0
  0
SCALE
  5
52
102
{ACAD_REACTORS
330
42
102
}
330
42
100
AcDbScale
 70
     0
300
6" = 1'-0"
140
6.0
141
12.0
290
     0
  0
SCALE
  5
53
102
{ACAD_REACTORS
330
42
102
}
330
42
100
AcDbScale
 70
     0
300
1'-0" = 1'-0"
140
12.0
141
12.0
290
     0
  0
TABLESTYLE
  5
65
102
{ACAD_XDICTIONARY
360
13CC
102
}
102
{ACAD_REACTORS
330
64
102
}
330
64
100
AcDbTableStyle
  3
Standard
 70
     0
 71
     0
 40
0.06
 41
0.06
280
     0
281
     0
  7
Standard
140
0.18
170
     2
 62
     0
 63
     7
283
     0
274
    -2
284
     1
 64
     0
275
    -2
285
     1
 65
     0
276
    -2
286
     1
 66
     0
277
    -2
287
     1
 67
     0
278
    -2
288
     1
 68
     0
279
    -2
289
     1
 69
     0
  7
Standard
140
0.25
170
     5
 62
     0
 63
     7
283
     0
274
    -2
284
     1
 64
     0
275
    -2
285
     1
 65
     0
276
    -2
286
     1
 66
     0
277
    -2
287
     1
 67
     0
278
    -2
288
     1
 68
     0
279
    -2
289
     1
 69
     0
  7
Standard
140
0.18
170
     5
 62
     0
 63
     7
283
     0
274
    -2
284
     1
 64
     0
275
    -2
285
     1
 65
     0
276
    -2
286
     1
 66
     0
277
    -2
287
     1
 67
     0
278
    -2
288
     1
 68
     0
279
    -2
289
     1
 69
     0
  0
VISUALSTYLE
  5
2F
102
{ACAD_XDICTIONARY
360
158D
102
}
102
{ACAD_REACTORS
330
29
102
}
330
29
100
AcDbVisualStyle
  2
2dWireframe
 70
     4
 71
     0
 72
     2
 73
     0
 90
        0
 40
-0.6
 41
-30.0
 62
     5
 63
     7
 74
     1
 91
        4
 64
     7
 65
   257
 75
     1
175
     1
 42
1.0
 92
        0
 66
   257
 43
1.0
 76
     1
 77
     6
 78
     2
 67
     7
 79
     5
170
     0
171
     0
290
     0
174
     0
 93
        1
 44
0.0
173
     0
291
     0
 45
0.0
1001
ACAD
1000
AcDbSavedByObjectVersion
1070
     0
  0
VISUALSTYLE
  5
2E
102
{ACAD_XDICTIONARY
360
158B
102
}
102
{ACAD_REACTORS
330
29
102
}
330
29
100
AcDbVisualStyle
  2
Basic
 70
     7
 71
     1
 72
     0
 73
     1
 90
        0
 40
-0.6
 41
-30.0
 62
     5
 63
     7
 74
     0
 91
        4
 64
     7
 65
   257
 75
     1
175
     1
 42
1.0
 92
        8
 66
     7
 43
1.0
 76
     1
 77
     6
 78
     2
 67
     7
 79
     5
170
     0
171
     0
290
     0
174
     0
 93
        1
 44
0.0
173
     0
291
     1
 45
0.0
1001
ACAD
1000
AcDbSavedByObjectVersion
1070
     0
  0
VISUALSTYLE
  5
35
102
{ACAD_XDICTIONARY
360
1599
102
}
102
{ACAD_REACTORS
330
29
102
}
330
29
100
AcDbVisualStyle
  2
Brighten
 70
    12
 71
     2
 72
     2
 73
     0
 90
        0
 40
-0.6
 41
-30.0
 62
     5
 63
     7
 74
     1
 91
        4
 64
     7
 65
   257
 75
     1
175
     1
 42
1.0
 92
        8
 66
     7
 43
1.0
 76
     1
 77
     6
 78
     2
 67
     7
 79
     5
170
     0
171
     0
290
     0
174
     0
 93
        1
 44
50.0
173
     0
291
     1
 45
0.0
1001
ACAD
1000
AcDbSavedByObjectVersion
1070
     0
  0
VISUALSTYLE
  5
39
102
{ACAD_XDICTIONARY
360
15A1
102
}
102
{ACAD_REACTORS
330
29
102
}
330
29
100
AcDbVisualStyle
  2
ColorChange
 70
    16
 71
     2
 72
     2
 73
     3
 90
        0
 40
-0.6
 41
-30.0
 62
     5
 63
     8
 74
     1
 91
        4
 64
     7
 65
   257
 75
     1
175
     1
 42
1.0
 92
        8
 66
     8
 43
1.0
 76
     1
 77
     6
 78
     2
 67
     7
 79
     5
170
     0
171
     0
290
     0
174
     0
 93
        1
 44
0.0
173
     0
291
     1
 45
0.0
1001
ACAD
1000
AcDbSavedByObjectVersion
1070
     0
  0
VISUALSTYLE
  5
32
102
{ACAD_XDICTIONARY
360
1593
102
}
102
{ACAD_REACTORS
330
29
102
}
330
29
100
AcDbVisualStyle
  2
Conceptual
 70
     9
 71
     3
 72
     2
 73
     0
 90
        0
 40
-0.6
 41
-30.0
 62
     5
 63
     7
 74
     2
 91
        2
 64
     7
 65
   257
 75
     1
175
     1
 42
179.0
 92
        8
 66
     7
 43
1.0
 76
     1
 77
     6
 78
     2
 67
     7
 79
     3
170
     0
171
     0
290
     0
174
     0
 93
        1
 44
0.0
173
     0
291
     0
 45
0.0
1001
ACAD
1000
AcDbSavedByObjectVersion
1070
     0
  0
VISUALSTYLE
  5
34
102
{ACAD_XDICTIONARY
360
1597
102
}
102
{ACAD_REACTORS
330
29
102
}
330
29
100
AcDbVisualStyle
  2
Dim
 70
    11
 71
     2
 72
     2
 73
     0
 90
        0
 40
-0.6
 41
-30.0
 62
     5
 63
     7
 74
     1
 91
        4
 64
     7
 65
   257
 75
     1
175
     1
 42
1.0
 92
        8
 66
     7
 43
1.0
 76
     1
 77
     6
 78
     2
 67
     7
 79
     5
170
     0
171
     0
290
     0
174
     0
 93
        1
 44
-50.0
173
     0
291
     1
 45
0.0
1001
ACAD
1000
AcDbSavedByObjectVersion
1070
     0
  0
VISUALSTYLE
  5
41
102
{ACAD_XDICTIONARY
360
15B1
102
}
102
{ACAD_REACTORS
330
29
102
}
330
29
100
AcDbVisualStyle
  2
EdgeColorOff
 70
    22
 71
     2
 72
     2
 73
     0
 90
        0
 40
-0.6
 41
-30.0
 62
     5
 63
     7
 74
     1
 91
        4
 64
     7
 65
   257
 75
     1
175
     1
 42
1.0
 92
        8
 66
     7
 43
1.0
 76
     1
 77
     6
 78
     2
 67
     7
 79
     5
170
     0
171
     0
290
     0
174
     0
 93
        1
 44
0.0
173
     0
291
     1
 45
0.0
1001
ACAD
1000
AcDbSavedByObjectVersion
1070
     0
  0
VISUALSTYLE
  5
38
102
{ACAD_XDICTIONARY
360
159F
102
}
102
{ACAD_REACTORS
330
29
102
}
330
29
100
AcDbVisualStyle
  2
Facepattern
 70
    15
 71
     2
 72
     2
 73
     0
 90
        0
 40
-0.6
 41
-30.0
 62
     5
 63
     7
 74
     1
 91
        4
 64
     7
 65
   257
 75
     1
175
     1
 42
1.0
 92
        8
 66
     7
 43
1.0
 76
     1
 77
     6
 78
     2
 67
     7
 79
     5
170
     0
171
     0
290
     0
174
     0
 93
        1
 44
0.0
173
     0
291
     1
 45
0.0
1001
ACAD
1000
AcDbSavedByObjectVersion
1070
     0
  0
VISUALSTYLE
  5
2A
102
{ACAD_XDICTIONARY
360
1583
102
}
102
{ACAD_REACTORS
330
29
102
}
330
29
100
AcDbVisualStyle
  2
Flat
 70
     0
 71
     2
 72
     1
 73
     1
 90
        2
 40
-0.6
 41
30.0
 62
     5
 63
     7
 74
     0
 91
        0
 64
     7
 65
   257
 75
     1
175
     1
 42
1.0
 92
        8
 66
     7
 43
1.0
 76
     1
 77
     6
 78
     2
 67
     7
 79
     5
170
     0
171
     0
290
     0
174
     0
 93
       13
 44
0.0
173
     0
291
     1
 45
0.0
1001
ACAD
1000
AcDbSavedByObjectVersion
1070
     0
  0
VISUALSTYLE
  5
2B
102
{ACAD_XDICTIONARY
360
1585
102
}
102
{ACAD_REACTORS
330
29
102
}
330
29
100
AcDbVisualStyle
  2
FlatWithEdges
 70
     1
 71
     2
 72
     1
 73
     1
 90
        2
 40
-0.6
 41
30.0
 62
     5
 63
     7
 74
     1
 91
        0
 64
     7
 65
   257
 75
     1
175
     1
 42
1.0
 92
        0
 66
   257
 43
1.0
 76
     1
 77
     6
 78
     2
 67
     7
 79
     5
170
     0
171
     0
290
     0
174
     0
 93
       13
 44
0.0
173
     0
291
     1
 45
0.0
1001
ACAD
1000
AcDbSavedByObjectVersion
1070
     0
  0
VISUALSTYLE
  5
2C
102
{ACAD_XDICTIONARY
360
1587
102
}
102
{ACAD_REACTORS
330
29
102
}
330
29
100
AcDbVisualStyle
  2
Gouraud
 70
     2
 71
     2
 72
     2
 73
     1
 90
        2
 40
-0.6
 41
30.0
 62
     5
 63
     7
 74
     0
 91
        0
 64
     7
 65
   257
 75
     1
175
     1
 42
1.0
 92
        0
 66
     7
 43
1.0
 76
     1
 77
     6
 78
     2
 67
     7
 79
     5
170
     0
171
     0
290
     0
174
     0
 93
       13
 44
0.0
173
     0
291
     1
 45
0.0
1001
ACAD
1000
AcDbSavedByObjectVersion
1070
     0
  0
VISUALSTYLE
  5
2D
102
{ACAD_XDICTIONARY
360
1589
102
}
102
{ACAD_REACTORS
330
29
102
}
330
29
100
AcDbVisualStyle
  2
GouraudWithEdges
 70
     3
 71
     2
 72
     2
 73
     1
 90
        2
 40
-0.6
 41
30.0
 62
     5
 63
     7
 74
     1
 91
        0
 64
     7
 65
   257
 75
     1
175
     1
 42
1.0
 92
        0
 66
   257
 43
1.0
 76
     1
 77
     6
 78
     2
 67
     7
 79
     5
170
     0
171
     0
290
     0
174
     0
 93
       13
 44
0.0
173
     0
291
     1
 45
0.0
1001
ACAD
1000
AcDbSavedByObjectVersion
1070
     0
  0
VISUALSTYLE
  5
31
102
{ACAD_XDICTIONARY
360
1591
102
}
102
{ACAD_REACTORS
330
29
102
}
330
29
100
AcDbVisualStyle
  2
Hidden
 70
     6
 71
     1
 72
     2
 73
     2
 90
        0
 40
-0.6
 41
-30.0
 62
     5
 63
     7
 74
     2
 91
        2
 64
     7
 65
   257
 75
     2
175
     1
 42
40.0
 92
        0
 66
   257
 43
1.0
 76
     1
 77
     6
 78
     2
 67
     7
 79
     3
170
     0
171
     0
290
     0
174
     0
 93
        1
 44
0.0
173
     0
291
     0
 45
0.0
1001
ACAD
1000
AcDbSavedByObjectVersion
1070
     0
  0
VISUALSTYLE
  5
3F
102
{ACAD_XDICTIONARY
360
15AD
102
}
102
{ACAD_REACTORS
330
29
102
}
330
29
100
AcDbVisualStyle
  2
JitterOff
 70
    20
 71
     2
 72
     2
 73
     0
 90
        0
 40
-0.6
 41
-30.0
 62
     5
 63
     7
 74
     1
 91
        4
 64
     7
 65
   257
 75
     1
175
     1
 42
1.0
 92
       10
 66
     7
 43
1.0
 76
     1
 77
     6
 78
     2
 67
     7
 79
     5
170
     0
171
     0
290
     0
174
     0
 93
        1
 44
0.0
173
     0
291
     1
 45
0.0
1001
ACAD
1000
AcDbSavedByObjectVersion
1070
     0
  0
VISUALSTYLE
  5
37
102
{ACAD_XDICTIONARY
360
159D
102
}
102
{ACAD_REACTORS
330
29
102
}
330
29
100
AcDbVisualStyle
  2
Linepattern
 70
    14
 71
     2
 72
     2
 73
     0
 90
        0
 40
-0.6
 41
-30.0
 62
     5
 63
     7
 74
     1
 91
        4
 64
     7
 65
   257
 75
     7
175
     7
 42
1.0
 92
        8
 66
     7
 43
1.0
 76
     1
 77
     6
 78
     2
 67
     7
 79
     5
170
     0
171
     0
290
     0
174
     0
 93
        1
 44
0.0
173
     0
291
     1
 45
0.0
1001
ACAD
1000
AcDbSavedByObjectVersion
1070
     0
  0
VISUALSTYLE
  5
40
102
{ACAD_XDICTIONARY
360
15AF
102
}
102
{ACAD_REACTORS
330
29
102
}
330
29
100
AcDbVisualStyle
  2
OverhangOff
 70
    21
 71
     2
 72
     2
 73
     0
 90
        0
 40
-0.6
 41
-30.0
 62
     5
 63
     7
 74
     1
 91
        4
 64
     7
 65
   257
 75
     1
175
     1
 42
1.0
 92
        9
 66
     7
 43
1.0
 76
     1
 77
     6
 78
     2
 67
     7
 79
     5
170
     0
171
     0
290
     0
174
     0
 93
        1
 44
0.0
173
     0
291
     1
 45
0.0
1001
ACAD
1000
AcDbSavedByObjectVersion
1070
     0
  0
VISUALSTYLE
  5
33
102
{ACAD_XDICTIONARY
360
1595
102
}
102
{ACAD_REACTORS
330
29
102
}
330
29
100
AcDbVisualStyle
  2
Realistic
 70
     8
 71
     2
 72
     2
 73
     0
 90
        2
 40
-0.6
 41
30.0
 62
     5
 63
     7
 74
     0
 91
        0
 64
     7
 65
   257
 75
     1
175
     1
 42
1.0
 92
        8
 66
   257
 43
1.0
 76
     1
 77
     6
 78
     2
 67
     7
 79
     3
170
     0
171
     0
290
     0
174
     0
 93
       13
 44
0.0
173
     0
291
     0
 45
0.0
1001
ACAD
1000
AcDbSavedByObjectVersion
1070
     0
  0
VISUALSTYLE
  5
3E
102
{ACAD_XDICTIONARY
360
15AB
102
}
102
{ACAD_REACTORS
330
29
102
}
330
29
100
AcDbVisualStyle
  2
Shaded
 70
    27
 71
     2
 72
     2
 73
     1
 90
        2
 40
-0.6
 41
30.0
 62
     5
 63
     7
 74
     0
 91
        4
 64
     7
 65
   257
 75
     1
175
     1
 42
1.0
 92
        8
 66
   257
 43
1.0
 76
     1
 77
     6
 78
     2
 67
     8
 79
     3
170
     0
171
     0
290
     0
174
     0
 93
        5
 44
0.0
173
     0
291
     0
 45
0.0
1001
ACAD
1000
AcDbSavedByObjectVersion
1070
     0
  0
VISUALSTYLE
  5
3D
102
{ACAD_XDICTIONARY
360
15A9
102
}
102
{ACAD_REACTORS
330
29
102
}
330
29
100
AcDbVisualStyle
  2
Shaded with edges
 70
    26
 71
     2
 72
     2
 73
     1
 90
        2
 40
-0.6
 41
30.0
 62
     5
 63
     7
 74
     1
 91
       10
 64
     7
 65
   257
 75
     2
175
     1
 42
1.0
 92
        8
 66
   257
 43
1.0
 76
     1
 77
     6
 78
     2
 67
     7
 79
     3
170
     0
171
     0
290
     0
174
     0
 93
        5
 44
0.0
173
     0
291
     0
 45
0.0
1001
ACAD
1000
AcDbSavedByObjectVersion
1070
     0
  0
VISUALSTYLE
  5
3A
102
{ACAD_XDICTIONARY
360
15A3
102
}
102
{ACAD_REACTORS
330
29
102
}
330
29
100
AcDbVisualStyle
  2
Shades of Gray
 70
    23
 71
     2
 72
     2
 73
     3
 90
        0
 40
-0.6
 41
-30.0
 62
     5
 63
     7
 74
     2
 91
        2
 64
     7
 65
     7
 75
     1
175
     1
 42
40.0
 92
        8
 66
     7
 43
1.0
 76
     1
 77
     6
 78
     2
 67
     7
 79
     3
170
     0
171
     0
290
     0
174
     0
 93
        1
 44
0.0
173
     0
291
     0
 45
0.0
1001
ACAD
1000
AcDbSavedByObjectVersion
1070
     0
  0
VISUALSTYLE
  5
3B
102
{ACAD_XDICTIONARY
360
15A5
102
}
102
{ACAD_REACTORS
330
29
102
}
330
29
100
AcDbVisualStyle
  2
Sketchy
 70
    24
 71
     1
 72
     2
 73
     2
 90
        0
 40
-0.6
 41
-30.0
 62
     5
 63
     7
 74
     2
 91
        2
 64
     7
 65
     7
 75
     1
175
     1
 42
40.0
 92
       11
 66
     7
 43
1.0
 76
     1
 77
     6
 78
     2
 67
     7
 79
     6
170
     0
171
     0
290
     0
174
     0
 93
        1
 44
0.0
173
     0
291
     0
 45
0.0
1001
ACAD
1000
AcDbSavedByObjectVersion
1070
     0
  0
VISUALSTYLE
  5
36
102
{ACAD_XDICTIONARY
360
159B
102
}
102
{ACAD_REACTORS
330
29
102
}
330
29
100
AcDbVisualStyle
  2
Thicken
 70
    13
 71
     2
 72
     2
 73
     0
 90
        0
 40
-0.6
 41
-30.0
 62
     5
 63
     7
 74
     1
 91
        4
 64
     7
 65
   257
 75
     1
175
     1
 42
1.0
 92
       12
 66
     7
 43
1.0
 76
     1
 77
     6
 78
     2
 67
     7
 79
     5
170
     0
171
     0
290
     0
174
     0
 93
        1
 44
0.0
173
     0
291
     1
 45
0.0
1001
ACAD
1000
AcDbSavedByObjectVersion
1070
     0
  0
VISUALSTYLE
  5
30
102
{ACAD_XDICTIONARY
360
158F
102
}
102
{ACAD_REACTORS
330
29
102
}
330
29
100
AcDbVisualStyle
  2
Wireframe
 70
     5
 71
     0
 72
     2
 73
     0
 90
        0
 40
-0.6
 41
-30.0
 62
     5
 63
     7
 74
     1
 91
        4
 64
     7
 65
   257
 75
     1
175
     1
 42
1.0
 92
        0
 66
   257
 43
1.0
 76
     1
 77
     6
 78
     2
 67
     7
 79
     3
170
     0
171
     0
290
     0
174
     0
 93
        1
 44
0.0
173
     0
291
     0
 45
0.0
1001
ACAD
1000
AcDbSavedByObjectVersion
1070
     0
  0
VISUALSTYLE
  5
3C
102
{ACAD_XDICTIONARY
360
15A7
102
}
102
{ACAD_REACTORS
330
29
102
}
330
29
100
AcDbVisualStyle
  2
X-Ray
 70
    25
 71
     2
 72
     2
 73
     1
 90
        1
 40
0.5
 41
-30.0
 62
     5
 63
     7
 74
     1
 91
        0
 64
     7
 65
   257
 75
     1
175
     1
 42
1.0
 92
        8
 66
     7
 43
1.0
 76
     1
 77
     6
 78
     2
 67
     7
 79
     3
170
     0
171
     0
290
     0
174
     0
 93
       13
 44
0.0
173
     0
291
     0
 45
0.0
1001
ACAD
1000
AcDbSavedByObjectVersion
1070
     0
  0
DICTIONARYVAR
  5
50A
102
{ACAD_REACTORS
330
507
102
}
330
507
100
DictionaryVariables
280
     0
  1
1:1
  0
DICTIONARYVAR
  5
509
102
{ACAD_REACTORS
330
507
102
}
330
507
100
DictionaryVariables
280
     0
  1
STANDARD
  0
DICTIONARYVAR
  5
508
102
{ACAD_REACTORS
330
507
102
}
330
507
100
DictionaryVariables
280
     0
  1
STANDARD
  0
DICTIONARYVAR
  5
1424
102
{ACAD_REACTORS
330
507
102
}
330
507
100
DictionaryVariables
280
     0
  1
2
  0
DICTIONARYVAR
  5
1423
102
{ACAD_REACTORS
330
507
102
}
330
507
100
DictionaryVariables
280
     0
  1
1
  0
DICTIONARYVAR
  5
1422
102
{ACAD_REACTORS
330
507
102
}
330
507
100
DictionaryVariables
280
     0
  1
0
  0
DICTIONARYVAR
  5
1573
102
{ACAD_REACTORS
330
507
102
}
330
507
100
DictionaryVariables
280
     0
  1
0.000000
  0
DICTIONARYVAR
  5
141F
102
{ACAD_REACTORS
330
507
102
}
330
507
100
DictionaryVariables
280
     0
  1
0
  0
DICTIONARYVAR
  5
1420
102
{ACAD_REACTORS
330
507
102
}
330
507
100
DictionaryVariables
280
     0
  1
0
  0
DICTIONARYVAR
  5
141E
102
{ACAD_REACTORS
330
507
102
}
330
507
100
DictionaryVariables
280
     0
  1
2
  0
DICTIONARYVAR
  5
1574
102
{ACAD_REACTORS
330
507
102
}
330
507
100
DictionaryVariables
280
     0
  1
0.000000
  0
DICTIONARYVAR
  5
141D
102
{ACAD_REACTORS
330
507
102
}
330
507
100
DictionaryVariables
280
     0
  1
1
  0
DICTIONARYVAR
  5
1421
102
{ACAD_REACTORS
330
507
102
}
330
507
100
DictionaryVariables
280
     0
  1
127
  0
DICTIONARYVAR
  5
1575
102
{ACAD_REACTORS
330
507
102
}
330
507
100
DictionaryVariables
280
     0
  1
0
  0
DICTIONARYVAR
  5
1576
102
{ACAD_REACTORS
330
507
102
}
330
507
100
DictionaryVariables
280
     0
  1
2
  0
XRECORD
  5
501
102
{ACAD_REACTORS
330
4FD
102
}
330
4FD
100
AcDbXrecord
280
     1
  1
BUILDING_ID
  1
D76
  1
FLOOR_ID
  1
251144
  0
XRECORD
  5
4FF
102
{ACAD_REACTORS
330
4FD
102
}
330
4FD
100
AcDbXrecord
280
     1
  1
-2000151
  1
Generic Models
  1
-2000300
  1
Text Notes
  1
-2001320
  1
Structural Framing
  0
XRECORD
  5
500
102
{ACAD_REACTORS
330
4FD
102
}
330
4FD
100
AcDbXrecord
280
     1
  1
247327
  1
AC4.16d.detail.D76
  0
XRECORD
  5
4FE
102
{ACAD_REACTORS
330
4FD
102
}
330
4FD
100
AcDbXrecord
280
     1
  1
248263
  1
PC64-16 : PC64-16
  1
250183
  1
Text : 1/20"
  1
250188
  1
Text : 3/32"
  1
250192
  1
Text : 1/16"
  1
251057
  1
d76 : d76
  1
251091
  1
Generic Models 1 : Generic Models 1
  1
251168
  1
Text : 1/20" Italic
  0
DICTIONARY
  5
15B4
330
6B
100
AcDbDictionary
280
     1
281
     1
  3
ACAD_XREC_ROUNDTRIP
360
15B5
  0
DICTIONARY
  5
15B8
330
73
100
AcDbDictionary
280
     1
281
     1
  3
ACAD_XREC_ROUNDTRIP
360
15B9
  0
DICTIONARY
  5
15B6
330
6F
100
AcDbDictionary
280
     1
281
     1
  3
ACAD_XREC_ROUNDTRIP
360
15B7
  0
DICTIONARY
  5
1A
330
19
100
AcDbDictionary
280
     1
281
     1
  3
ACAD_XREC_ROUNDTRIP
360
1581
  3
BUMPTILE
360
1C
  3
DIFFUSETILE
360
1B
  3
OPACITYTILE
360
1F
  3
REFLECTIONTILE
360
1E
  3
REFRACTIONTILE
360
20
  3
SPECULARTILE
360
1D
  0
DICTIONARY
  5
12
330
11
100
AcDbDictionary
280
     1
281
     1
  3
ACAD_XREC_ROUNDTRIP
360
1580
  3
BUMPTILE
360
14
  3
DIFFUSETILE
360
13
  3
OPACITYTILE
360
17
  3
REFLECTIONTILE
360
16
  3
REFRACTIONTILE
360
18
  3
SPECULARTILE
360
15
  0
DICTIONARY
  5
22
330
21
100
AcDbDictionary
280
     1
281
     1
  3
ACAD_XREC_ROUNDTRIP
360
1582
  3
BUMPTILE
360
24
  3
DIFFUSETILE
360
23
  3
OPACITYTILE
360
27
  3
REFLECTIONTILE
360
26
  3
REFRACTIONTILE
360
28
  3
SPECULARTILE
360
25
  0
DICTIONARY
  5
1578
330
67
100
AcDbDictionary
280
     1
281
     1
  3
ACAD_XREC_ROUNDTRIP
360
1579
  0
DICTIONARY
  5
13CC
330
65
100
AcDbDictionary
280
     1
281
     1
  3
ACAD_ROUNDTRIP_2008_TABLESTYLE_CELLSTYLEMAP
360
1577
  3
ACAD_XREC_ROUNDTRIP
360
15B3
  0
DICTIONARY
  5
158D
330
2F
100
AcDbDictionary
280
     1
281
     1
  3
ACAD_XREC_ROUNDTRIP
360
158E
  0
DICTIONARY
  5
158B
330
2E
100
AcDbDictionary
280
     1
281
     1
  3
ACAD_XREC_ROUNDTRIP
360
158C
  0
DICTIONARY
  5
1599
330
35
100
AcDbDictionary
280
     1
281
     1
  3
ACAD_XREC_ROUNDTRIP
360
159A
  0
DICTIONARY
  5
15A1
330
39
100
AcDbDictionary
280
     1
281
     1
  3
ACAD_XREC_ROUNDTRIP
360
15A2
  0
DICTIONARY
  5
1593
330
32
100
AcDbDictionary
280
     1
281
     1
  3
ACAD_XREC_ROUNDTRIP
360
1594
  0
DICTIONARY
  5
1597
330
34
100
AcDbDictionary
280
     1
281
     1
  3
ACAD_XREC_ROUNDTRIP
360
1598
  0
DICTIONARY
  5
15B1
330
41
100
AcDbDictionary
280
     1
281
     1
  3
ACAD_XREC_ROUNDTRIP
360
15B2
  0
DICTIONARY
  5
159F
330
38
100
AcDbDictionary
280
     1
281
     1
  3
ACAD_XREC_ROUNDTRIP
360
15A0
  0
DICTIONARY
  5
1583
330
2A
100
AcDbDictionary
280
     1
281
     1
  3
ACAD_XREC_ROUNDTRIP
360
1584
  0
DICTIONARY
  5
1585
330
2B
100
AcDbDictionary
280
     1
281
     1
  3
ACAD_XREC_ROUNDTRIP
360
1586
  0
DICTIONARY
  5
1587
330
2C
100
AcDbDictionary
280
     1
281
     1
  3
ACAD_XREC_ROUNDTRIP
360
1588
  0
DICTIONARY
  5
1589
330
2D
100
AcDbDictionary
280
     1
281
     1
  3
ACAD_XREC_ROUNDTRIP
360
158A
  0
DICTIONARY
  5
1591
330
31
100
AcDbDictionary
280
     1
281
     1
  3
ACAD_XREC_ROUNDTRIP
360
1592
  0
DICTIONARY
  5
15AD
330
3F
100
AcDbDictionary
280
     1
281
     1
  3
ACAD_XREC_ROUNDTRIP
360
15AE
  0
DICTIONARY
  5
159D
330
37
100
AcDbDictionary
280
     1
281
     1
  3
ACAD_XREC_ROUNDTRIP
360
159E
  0
DICTIONARY
  5
15AF
330
40
100
AcDbDictionary
280
     1
281
     1
  3
ACAD_XREC_ROUNDTRIP
360
15B0
  0
DICTIONARY
  5
1595
330
33
100
AcDbDictionary
280
     1
281
     1
  3
ACAD_XREC_ROUNDTRIP
360
1596
  0
DICTIONARY
  5
15AB
330
3E
100
AcDbDictionary
280
     1
281
     1
  3
ACAD_XREC_ROUNDTRIP
360
15AC
  0
DICTIONARY
  5
15A9
330
3D
100
AcDbDictionary
280
     1
281
     1
  3
ACAD_XREC_ROUNDTRIP
360
15AA
  0
DICTIONARY
  5
15A3
330
3A
100
AcDbDictionary
280
     1
281
     1
  3
ACAD_XREC_ROUNDTRIP
360
15A4
  0
DICTIONARY
  5
15A5
330
3B
100
AcDbDictionary
280
     1
281
     1
  3
ACAD_XREC_ROUNDTRIP
360
15A6
  0
DICTIONARY
  5
159B
330
36
100
AcDbDictionary
280
     1
281
     1
  3
ACAD_XREC_ROUNDTRIP
360
159C
  0
DICTIONARY
  5
158F
330
30
100
AcDbDictionary
280
     1
281
     1
  3
ACAD_XREC_ROUNDTRIP
360
1590
  0
DICTIONARY
  5
15A7
330
3C
100
AcDbDictionary
280
     1
281
     1
  3
ACAD_XREC_ROUNDTRIP
360
15A8
  0
XRECORD
  5
15B5
102
{ACAD_REACTORS
330
15B4
102
}
330
15B4
100
AcDbXrecord
280
     1
102
SHADEPLOT
 70
     0
102
SHADEPLOTRESLEVEL
 70
     2
102
SHADEPLOTCUSTOMDPI
 70
   300
  0
XRECORD
  5
15B9
102
{ACAD_REACTORS
330
15B8
102
}
330
15B8
100
AcDbXrecord
280
     1
102
SHADEPLOT
 70
     0
102
SHADEPLOTRESLEVEL
 70
     2
102
SHADEPLOTCUSTOMDPI
 70
   300
  0
XRECORD
  5
15B7
102
{ACAD_REACTORS
330
15B6
102
}
330
15B6
100
AcDbXrecord
280
     1
102
SHADEPLOT
 70
     0
102
SHADEPLOTRESLEVEL
 70
     2
102
SHADEPLOTCUSTOMDPI
 70
   300
  0
XRECORD
  5
1581
102
{ACAD_REACTORS
330
1A
102
}
330
1A
100
AcDbXrecord
280
     1
102
MATERIAL
148
0.0
149
0.0
149
0.0
 93
        0
 94
      127
282
     0
 72
     0
 77
     0
171
     0
175
     0
179
     0
273
     0
  0
XRECORD
  5
1C
102
{ACAD_REACTORS
330
1A
102
}
330
1A
100
AcDbXrecord
280
     1
270
     1
271
     1
  0
XRECORD
  5
1B
102
{ACAD_REACTORS
330
1A
102
}
330
1A
100
AcDbXrecord
280
     1
270
     1
271
     1
  0
XRECORD
  5
1F
102
{ACAD_REACTORS
330
1A
102
}
330
1A
100
AcDbXrecord
280
     1
270
     1
271
     1
  0
XRECORD
  5
1E
102
{ACAD_REACTORS
330
1A
102
}
330
1A
100
AcDbXrecord
280
     1
270
     1
271
     1
  0
XRECORD
  5
20
102
{ACAD_REACTORS
330
1A
102
}
330
1A
100
AcDbXrecord
280
     1
270
     1
271
     1
  0
XRECORD
  5
1D
102
{ACAD_REACTORS
330
1A
102
}
330
1A
100
AcDbXrecord
280
     1
270
     1
271
     1
  0
XRECORD
  5
1580
102
{ACAD_REACTORS
330
12
102
}
330
12
100
AcDbXrecord
280
     1
102
MATERIAL
148
0.0
149
0.0
149
0.0
 93
        0
 94
      127
282
     0
 72
     0
 77
     0
171
     0
175
     0
179
     0
273
     0
  0
XRECORD
  5
14
102
{ACAD_REACTORS
330
12
102
}
330
12
100
AcDbXrecord
280
     1
270
     1
271
     1
  0
XRECORD
  5
13
102
{ACAD_REACTORS
330
12
102
}
330
12
100
AcDbXrecord
280
     1
270
     1
271
     1
  0
XRECORD
  5
17
102
{ACAD_REACTORS
330
12
102
}
330
12
100
AcDbXrecord
280
     1
270
     1
271
     1
  0
XRECORD
  5
16
102
{ACAD_REACTORS
330
12
102
}
330
12
100
AcDbXrecord
280
     1
270
     1
271
     1
  0
XRECORD
  5
18
102
{ACAD_REACTORS
330
12
102
}
330
12
100
AcDbXrecord
280
     1
270
     1
271
     1
  0
XRECORD
  5
15
102
{ACAD_REACTORS
330
12
102
}
330
12
100
AcDbXrecord
280
     1
270
     1
271
     1
  0
XRECORD
  5
1582
102
{ACAD_REACTORS
330
22
102
}
330
22
100
AcDbXrecord
280
     1
102
MATERIAL
148
0.0
149
0.0
149
0.0
 93
        0
 94
      127
282
     0
 72
     0
 77
     0
171
     0
175
     0
179
     0
273
     0
  0
XRECORD
  5
24
102
{ACAD_REACTORS
330
22
102
}
330
22
100
AcDbXrecord
280
     1
270
     1
271
     1
  0
XRECORD
  5
23
102
{ACAD_REACTORS
330
22
102
}
330
22
100
AcDbXrecord
280
     1
270
     1
271
     1
  0
XRECORD
  5
27
102
{ACAD_REACTORS
330
22
102
}
330
22
100
AcDbXrecord
280
     1
270
     1
271
     1
  0
XRECORD
  5
26
102
{ACAD_REACTORS
330
22
102
}
330
22
100
AcDbXrecord
280
     1
270
     1
271
     1
  0
XRECORD
  5
28
102
{ACAD_REACTORS
330
22
102
}
330
22
100
AcDbXrecord
280
     1
270
     1
271
     1
  0
XRECORD
  5
25
102
{ACAD_REACTORS
330
22
102
}
330
22
100
AcDbXrecord
280
     1
270
     1
271
     1
  0
XRECORD
  5
1579
102
{ACAD_REACTORS
330
1578
102
}
330
1578
100
AcDbXrecord
280
     1
102
ACAD_ROUNDTRIP_2012_MLEADER_STYLE
298
     1
  0
CELLSTYLEMAP
  5
1577
102
{ACAD_REACTORS
330
13CC
102
}
330
13CC
100
AcDbCellStyleMap
 90
        3
300
CELLSTYLE
  1
TABLEFORMAT_BEGIN
 90
        5
170
     1
 91
        0
 92
    32768
 62
   257
 93
        1
300
CONTENTFORMAT
  1
CONTENTFORMAT_BEGIN
 90
        0
 91
        0
 92
      512
 93
        0
300

 40
0.0
140
1.0
 94
        5
 62
     0
340
55
144
0.25
309
CONTENTFORMAT_END
171
     0
 94
        0
309
TABLEFORMAT_END
  1
CELLSTYLE_BEGIN
 90
        1
 91
        1
300
_TITLE
309
CELLSTYLE_END
300
CELLSTYLE
  1
TABLEFORMAT_BEGIN
 90
        5
170
     1
 91
        0
 92
        0
 62
   257
 93
        1
300
CONTENTFORMAT
  1
CONTENTFORMAT_BEGIN
 90
        0
 91
        0
 92
      512
 93
        0
300

 40
0.0
140
1.0
 94
        5
 62
     0
340
55
144
0.18
309
CONTENTFORMAT_END
171
     0
 94
        0
309
TABLEFORMAT_END
  1
CELLSTYLE_BEGIN
 90
        2
 91
        1
300
_HEADER
309
CELLSTYLE_END
300
CELLSTYLE
  1
TABLEFORMAT_BEGIN
 90
        5
170
     1
 91
        0
 92
        0
 62
   257
 93
        1
300
CONTENTFORMAT
  1
CONTENTFORMAT_BEGIN
 90
        0
 91
        0
 92
      512
 93
        0
300

 40
0.0
140
1.0
 94
        2
 62
     0
340
55
144
0.18
309
CONTENTFORMAT_END
171
     0
 94
        0
309
TABLEFORMAT_END
  1
CELLSTYLE_BEGIN
 90
        3
 91
        2
300
_DATA
309
CELLSTYLE_END
  0
XRECORD
  5
15B3
102
{ACAD_REACTORS
330
13CC
102
}
330
13CC
100
AcDbXrecord
280
     1
102
ACAD_ROUNDTRIP_PRE2007_TABLESTYLE
 90
      512
 91
        0
  1

 92
      512
 93
        0
  2

 94
      512
 95
        0
  3

  0
XRECORD
  5
158E
102
{ACAD_REACTORS
330
158D
102
}
330
158D
100
AcDbXrecord
280
     1
102
RTVSPropertyOp0
 70
     1
102
RTVSPropertyOp1
 70
     1
102
RTVSPropertyOp2
 70
     1
102
RTVSPropertyOp3
 70
     1
102
RTVSPropertyOp4
 70
     1
102
RTVSPropertyOp5
 70
     1
102
RTVSPropertyOp6
 70
     1
102
RTVSPropertyOp7
 70
     1
102
RTVSPropertyOp8
 70
     1
102
RTVSPropertyOp9
 70
     1
102
RTVSPropertyOp10
 70
     1
102
RTVSPropertyOp11
 70
     1
102
RTVSPropertyOp12
 70
     1
102
RTVSPropertyOp13
 70
     1
102
RTVSPropertyOp14
 70
     1
102
RTVSPropertyOp15
 70
     1
102
RTVSPropertyOp16
 70
     1
102
RTVSPropertyOp17
 70
     1
102
RTVSPropertyOp18
 70
     1
102
RTVSPropertyOp19
 70
     1
102
RTVSPropertyOp20
 70
     1
102
RTVSPropertyOp21
 70
     1
102
RTVSPropertyOp22
 70
     1
102
RTVSPropertyOp23
 70
     1
102
RTVSPropertyOp24
 70
     1
102
RTVSPropertyOp25
 70
     1
102
RTVSPropertyOp26
 70
     1
102
RTVSPropertyOp27
 70
     1
102
RTVSPropertyOp28
 70
     1
102
RTVSPropertyOp29
 70
     1
102
RTVSPropertyOp30
 70
     1
102
RTVSPropertyOp31
 70
     1
102
RTVSPropertyOp32
 70
     1
  0
XRECORD
  5
158C
102
{ACAD_REACTORS
330
158B
102
}
330
158B
100
AcDbXrecord
280
     1
102
RTVSPropertyOp0
 70
     1
102
RTVSPropertyOp1
 70
     1
102
RTVSPropertyOp2
 70
     1
102
RTVSPropertyOp3
 70
     1
102
RTVSPropertyOp4
 70
     1
102
RTVSPropertyOp5
 70
     1
102
RTVSPropertyOp6
 70
     1
102
RTVSPropertyOp7
 70
     1
102
RTVSPropertyOp8
 70
     1
102
RTVSPropertyOp9
 70
     1
102
RTVSPropertyOp10
 70
     1
102
RTVSPropertyOp11
 70
     1
102
RTVSPropertyOp12
 70
     1
102
RTVSPropertyOp13
 70
     1
102
RTVSPropertyOp14
 70
     1
102
RTVSPropertyOp15
 70
     1
102
RTVSPropertyOp16
 70
     1
102
RTVSPropertyOp17
 70
     1
102
RTVSPropertyOp18
 70
     1
102
RTVSPropertyOp19
 70
     1
102
RTVSPropertyOp20
 70
     1
102
RTVSPropertyOp21
 70
     1
102
RTVSPropertyOp22
 70
     1
102
RTVSPropertyOp23
 70
     1
102
RTVSPropertyOp24
 70
     1
102
RTVSPropertyOp25
 70
     1
102
RTVSPropertyOp26
 70
     1
102
RTVSPropertyOp27
 70
     1
102
RTVSPropertyOp28
 70
     1
102
RTVSPropertyOp29
 70
     1
102
RTVSPropertyOp30
 70
     1
102
RTVSPropertyOp31
 70
     1
102
RTVSPropertyOp32
 70
     1
  0
XRECORD
  5
159A
102
{ACAD_REACTORS
330
1599
102
}
330
1599
100
AcDbXrecord
280
     1
102
RTVSPropertyOp0
 70
     1
102
RTVSPropertyOp1
 70
     1
102
RTVSPropertyOp2
 70
     1
102
RTVSPropertyOp3
 70
     1
102
RTVSPropertyOp4
 70
     1
102
RTVSPropertyOp5
 70
     1
102
RTVSPropertyOp6
 70
     1
102
RTVSPropertyOp7
 70
     1
102
RTVSPropertyOp8
 70
     1
102
RTVSPropertyOp9
 70
     1
102
RTVSPropertyOp10
 70
     1
102
RTVSPropertyOp11
 70
     1
102
RTVSPropertyOp12
 70
     1
102
RTVSPropertyOp13
 70
     1
102
RTVSPropertyOp14
 70
     1
102
RTVSPropertyOp15
 70
     1
102
RTVSPropertyOp16
 70
     1
102
RTVSPropertyOp17
 70
     1
102
RTVSPropertyOp18
 70
     1
102
RTVSPropertyOp19
 70
     1
102
RTVSPropertyOp20
 70
     1
102
RTVSPropertyOp21
 70
     1
102
RTVSPropertyOp22
 70
     1
102
RTVSPropertyOp23
 70
     1
102
RTVSPropertyOp24
 70
     1
102
RTVSPropertyOp25
 70
     1
102
RTVSPropertyOp26
 70
     1
102
RTVSPropertyOp27
 70
     1
102
RTVSPropertyOp28
 70
     1
102
RTVSPropertyOp29
 70
     1
102
RTVSPropertyOp30
 70
     1
102
RTVSPropertyOp31
 70
     1
102
RTVSPropertyOp32
 70
     1
  0
XRECORD
  5
15A2
102
{ACAD_REACTORS
330
15A1
102
}
330
15A1
100
AcDbXrecord
280
     1
102
RTVSPropertyOp0
 70
     1
102
RTVSPropertyOp1
 70
     1
102
RTVSPropertyOp2
 70
     1
102
RTVSPropertyOp3
 70
     1
102
RTVSPropertyOp4
 70
     1
102
RTVSPropertyOp5
 70
     1
102
RTVSPropertyOp6
 70
     1
102
RTVSPropertyOp7
 70
     1
102
RTVSPropertyOp8
 70
     1
102
RTVSPropertyOp9
 70
     1
102
RTVSPropertyOp10
 70
     1
102
RTVSPropertyOp11
 70
     1
102
RTVSPropertyOp12
 70
     1
102
RTVSPropertyOp13
 70
     1
102
RTVSPropertyOp14
 70
     1
102
RTVSPropertyOp15
 70
     1
102
RTVSPropertyOp16
 70
     1
102
RTVSPropertyOp17
 70
     1
102
RTVSPropertyOp18
 70
     1
102
RTVSPropertyOp19
 70
     1
102
RTVSPropertyOp20
 70
     1
102
RTVSPropertyOp21
 70
     1
102
RTVSPropertyOp22
 70
     1
102
RTVSPropertyOp23
 70
     1
102
RTVSPropertyOp24
 70
     1
102
RTVSPropertyOp25
 70
     1
102
RTVSPropertyOp26
 70
     1
102
RTVSPropertyOp27
 70
     1
102
RTVSPropertyOp28
 70
     1
102
RTVSPropertyOp29
 70
     1
102
RTVSPropertyOp30
 70
     1
102
RTVSPropertyOp31
 70
     1
102
RTVSPropertyOp32
 70
     1
  0
XRECORD
  5
1594
102
{ACAD_REACTORS
330
1593
102
}
330
1593
100
AcDbXrecord
280
     1
102
RTVSPropertyOp0
 70
     1
102
RTVSPropertyOp1
 70
     1
102
RTVSPropertyOp2
 70
     1
102
RTVSPropertyOp3
 70
     1
102
RTVSPropertyOp4
 70
     1
102
RTVSPropertyOp5
 70
     1
102
RTVSPropertyOp6
 70
     1
102
RTVSPropertyOp7
 70
     1
102
RTVSPropertyOp8
 70
     1
102
RTVSPropertyOp9
 70
     1
102
RTVSPropertyOp10
 70
     1
102
RTVSPropertyOp11
 70
     1
102
RTVSPropertyOp12
 70
     1
102
RTVSPropertyOp13
 70
     1
102
RTVSPropertyOp14
 70
     1
102
RTVSPropertyOp15
 70
     1
102
RTVSPropertyOp16
 70
     1
102
RTVSPropertyOp17
 70
     1
102
RTVSPropertyOp18
 70
     1
102
RTVSPropertyOp19
 70
     1
102
RTVSPropertyOp20
 70
     1
102
RTVSPropertyOp21
 70
     1
102
RTVSPropertyOp22
 70
     1
102
RTVSPropertyOp23
 70
     1
102
RTVSPropertyOp24
 70
     1
102
RTVSPropertyOp25
 70
     1
102
RTVSPropertyOp26
 70
     1
102
RTVSPropertyOp27
 70
     1
102
RTVSPropertyOp28
 70
     1
102
RTVSPropertyOp29
 70
     1
102
RTVSPropertyOp30
 70
     1
102
RTVSPropertyOp31
 70
     1
102
RTVSPropertyOp32
 70
     1
  0
XRECORD
  5
1598
102
{ACAD_REACTORS
330
1597
102
}
330
1597
100
AcDbXrecord
280
     1
102
RTVSPropertyOp0
 70
     1
102
RTVSPropertyOp1
 70
     1
102
RTVSPropertyOp2
 70
     1
102
RTVSPropertyOp3
 70
     1
102
RTVSPropertyOp4
 70
     1
102
RTVSPropertyOp5
 70
     1
102
RTVSPropertyOp6
 70
     1
102
RTVSPropertyOp7
 70
     1
102
RTVSPropertyOp8
 70
     1
102
RTVSPropertyOp9
 70
     1
102
RTVSPropertyOp10
 70
     1
102
RTVSPropertyOp11
 70
     1
102
RTVSPropertyOp12
 70
     1
102
RTVSPropertyOp13
 70
     1
102
RTVSPropertyOp14
 70
     1
102
RTVSPropertyOp15
 70
     1
102
RTVSPropertyOp16
 70
     1
102
RTVSPropertyOp17
 70
     1
102
RTVSPropertyOp18
 70
     1
102
RTVSPropertyOp19
 70
     1
102
RTVSPropertyOp20
 70
     1
102
RTVSPropertyOp21
 70
     1
102
RTVSPropertyOp22
 70
     1
102
RTVSPropertyOp23
 70
     1
102
RTVSPropertyOp24
 70
     1
102
RTVSPropertyOp25
 70
     1
102
RTVSPropertyOp26
 70
     1
102
RTVSPropertyOp27
 70
     1
102
RTVSPropertyOp28
 70
     1
102
RTVSPropertyOp29
 70
     1
102
RTVSPropertyOp30
 70
     1
102
RTVSPropertyOp31
 70
     1
102
RTVSPropertyOp32
 70
     1
  0
XRECORD
  5
15B2
102
{ACAD_REACTORS
330
15B1
102
}
330
15B1
100
AcDbXrecord
280
     1
102
RTVSPropertyOp0
 70
     0
102
RTVSPropertyOp1
 70
     0
102
RTVSPropertyOp2
 70
     0
102
RTVSPropertyOp3
 70
     0
102
RTVSPropertyOp4
 70
     0
102
RTVSPropertyOp5
 70
     0
102
RTVSPropertyOp6
 70
     0
102
RTVSPropertyOp7
 70
     0
102
RTVSPropertyOp8
 70
     0
102
RTVSPropertyOp9
 70
     0
102
RTVSPropertyOp10
 70
     0
102
RTVSPropertyOp11
 70
     0
102
RTVSPropertyOp12
 70
     0
102
RTVSPropertyOp13
 70
     0
102
RTVSPropertyOp14
 70
     2
102
RTVSPropertyOp15
 70
     0
102
RTVSPropertyOp16
 70
     0
102
RTVSPropertyOp17
 70
     0
102
RTVSPropertyOp18
 70
     0
102
RTVSPropertyOp19
 70
     0
102
RTVSPropertyOp20
 70
     0
102
RTVSPropertyOp21
 70
     0
102
RTVSPropertyOp22
 70
     0
102
RTVSPropertyOp23
 70
     0
102
RTVSPropertyOp24
 70
     0
102
RTVSPropertyOp25
 70
     0
102
RTVSPropertyOp26
 70
     0
102
RTVSPropertyOp27
 70
     0
102
RTVSPropertyOp28
 70
     1
102
RTVSPropertyOp29
 70
     1
102
RTVSPropertyOp30
 70
     1
102
RTVSPropertyOp31
 70
     1
102
RTVSPropertyOp32
 70
     1
  0
XRECORD
  5
15A0
102
{ACAD_REACTORS
330
159F
102
}
330
159F
100
AcDbXrecord
280
     1
102
RTVSPropertyOp0
 70
     1
102
RTVSPropertyOp1
 70
     1
102
RTVSPropertyOp2
 70
     1
102
RTVSPropertyOp3
 70
     1
102
RTVSPropertyOp4
 70
     1
102
RTVSPropertyOp5
 70
     1
102
RTVSPropertyOp6
 70
     1
102
RTVSPropertyOp7
 70
     1
102
RTVSPropertyOp8
 70
     1
102
RTVSPropertyOp9
 70
     1
102
RTVSPropertyOp10
 70
     1
102
RTVSPropertyOp11
 70
     1
102
RTVSPropertyOp12
 70
     1
102
RTVSPropertyOp13
 70
     1
102
RTVSPropertyOp14
 70
     1
102
RTVSPropertyOp15
 70
     1
102
RTVSPropertyOp16
 70
     1
102
RTVSPropertyOp17
 70
     1
102
RTVSPropertyOp18
 70
     1
102
RTVSPropertyOp19
 70
     1
102
RTVSPropertyOp20
 70
     1
102
RTVSPropertyOp21
 70
     1
102
RTVSPropertyOp22
 70
     1
102
RTVSPropertyOp23
 70
     1
102
RTVSPropertyOp24
 70
     1
102
RTVSPropertyOp25
 70
     1
102
RTVSPropertyOp26
 70
     1
102
RTVSPropertyOp27
 70
     1
102
RTVSPropertyOp28
 70
     1
102
RTVSPropertyOp29
 70
     1
102
RTVSPropertyOp30
 70
     1
102
RTVSPropertyOp31
 70
     1
102
RTVSPropertyOp32
 70
     1
  0
XRECORD
  5
1584
102
{ACAD_REACTORS
330
1583
102
}
330
1583
100
AcDbXrecord
280
     1
102
RTVSPropertyOp0
 70
     1
102
RTVSPropertyOp1
 70
     1
102
RTVSPropertyOp2
 70
     1
102
RTVSPropertyOp3
 70
     1
102
RTVSPropertyOp4
 70
     1
102
RTVSPropertyOp5
 70
     1
102
RTVSPropertyOp6
 70
     1
102
RTVSPropertyOp7
 70
     1
102
RTVSPropertyOp8
 70
     1
102
RTVSPropertyOp9
 70
     1
102
RTVSPropertyOp10
 70
     1
102
RTVSPropertyOp11
 70
     1
102
RTVSPropertyOp12
 70
     1
102
RTVSPropertyOp13
 70
     1
102
RTVSPropertyOp14
 70
     1
102
RTVSPropertyOp15
 70
     1
102
RTVSPropertyOp16
 70
     1
102
RTVSPropertyOp17
 70
     1
102
RTVSPropertyOp18
 70
     1
102
RTVSPropertyOp19
 70
     1
102
RTVSPropertyOp20
 70
     1
102
RTVSPropertyOp21
 70
     1
102
RTVSPropertyOp22
 70
     1
102
RTVSPropertyOp23
 70
     1
102
RTVSPropertyOp24
 70
     1
102
RTVSPropertyOp25
 70
     1
102
RTVSPropertyOp26
 70
     1
102
RTVSPropertyOp27
 70
     1
102
RTVSPropertyOp28
 70
     1
102
RTVSPropertyOp29
 70
     1
102
RTVSPropertyOp30
 70
     1
102
RTVSPropertyOp31
 70
     1
102
RTVSPropertyOp32
 70
     1
  0
XRECORD
  5
1586
102
{ACAD_REACTORS
330
1585
102
}
330
1585
100
AcDbXrecord
280
     1
102
RTVSPropertyOp0
 70
     1
102
RTVSPropertyOp1
 70
     1
102
RTVSPropertyOp2
 70
     1
102
RTVSPropertyOp3
 70
     1
102
RTVSPropertyOp4
 70
     1
102
RTVSPropertyOp5
 70
     1
102
RTVSPropertyOp6
 70
     1
102
RTVSPropertyOp7
 70
     1
102
RTVSPropertyOp8
 70
     1
102
RTVSPropertyOp9
 70
     1
102
RTVSPropertyOp10
 70
     1
102
RTVSPropertyOp11
 70
     1
102
RTVSPropertyOp12
 70
     1
102
RTVSPropertyOp13
 70
     1
102
RTVSPropertyOp14
 70
     1
102
RTVSPropertyOp15
 70
     1
102
RTVSPropertyOp16
 70
     1
102
RTVSPropertyOp17
 70
     1
102
RTVSPropertyOp18
 70
     1
102
RTVSPropertyOp19
 70
     1
102
RTVSPropertyOp20
 70
     1
102
RTVSPropertyOp21
 70
     1
102
RTVSPropertyOp22
 70
     1
102
RTVSPropertyOp23
 70
     1
102
RTVSPropertyOp24
 70
     1
102
RTVSPropertyOp25
 70
     1
102
RTVSPropertyOp26
 70
     1
102
RTVSPropertyOp27
 70
     1
102
RTVSPropertyOp28
 70
     1
102
RTVSPropertyOp29
 70
     1
102
RTVSPropertyOp30
 70
     1
102
RTVSPropertyOp31
 70
     1
102
RTVSPropertyOp32
 70
     1
  0
XRECORD
  5
1588
102
{ACAD_REACTORS
330
1587
102
}
330
1587
100
AcDbXrecord
280
     1
102
RTVSPropertyOp0
 70
     1
102
RTVSPropertyOp1
 70
     1
102
RTVSPropertyOp2
 70
     1
102
RTVSPropertyOp3
 70
     1
102
RTVSPropertyOp4
 70
     1
102
RTVSPropertyOp5
 70
     1
102
RTVSPropertyOp6
 70
     1
102
RTVSPropertyOp7
 70
     1
102
RTVSPropertyOp8
 70
     1
102
RTVSPropertyOp9
 70
     1
102
RTVSPropertyOp10
 70
     1
102
RTVSPropertyOp11
 70
     1
102
RTVSPropertyOp12
 70
     1
102
RTVSPropertyOp13
 70
     1
102
RTVSPropertyOp14
 70
     1
102
RTVSPropertyOp15
 70
     1
102
RTVSPropertyOp16
 70
     1
102
RTVSPropertyOp17
 70
     1
102
RTVSPropertyOp18
 70
     1
102
RTVSPropertyOp19
 70
     1
102
RTVSPropertyOp20
 70
     1
102
RTVSPropertyOp21
 70
     1
102
RTVSPropertyOp22
 70
     1
102
RTVSPropertyOp23
 70
     1
102
RTVSPropertyOp24
 70
     1
102
RTVSPropertyOp25
 70
     1
102
RTVSPropertyOp26
 70
     1
102
RTVSPropertyOp27
 70
     1
102
RTVSPropertyOp28
 70
     1
102
RTVSPropertyOp29
 70
     1
102
RTVSPropertyOp30
 70
     1
102
RTVSPropertyOp31
 70
     1
102
RTVSPropertyOp32
 70
     1
  0
XRECORD
  5
158A
102
{ACAD_REACTORS
330
1589
102
}
330
1589
100
AcDbXrecord
280
     1
102
RTVSPropertyOp0
 70
     1
102
RTVSPropertyOp1
 70
     1
102
RTVSPropertyOp2
 70
     1
102
RTVSPropertyOp3
 70
     1
102
RTVSPropertyOp4
 70
     1
102
RTVSPropertyOp5
 70
     1
102
RTVSPropertyOp6
 70
     1
102
RTVSPropertyOp7
 70
     1
102
RTVSPropertyOp8
 70
     1
102
RTVSPropertyOp9
 70
     1
102
RTVSPropertyOp10
 70
     1
102
RTVSPropertyOp11
 70
     1
102
RTVSPropertyOp12
 70
     1
102
RTVSPropertyOp13
 70
     1
102
RTVSPropertyOp14
 70
     1
102
RTVSPropertyOp15
 70
     1
102
RTVSPropertyOp16
 70
     1
102
RTVSPropertyOp17
 70
     1
102
RTVSPropertyOp18
 70
     1
102
RTVSPropertyOp19
 70
     1
102
RTVSPropertyOp20
 70
     1
102
RTVSPropertyOp21
 70
     1
102
RTVSPropertyOp22
 70
     1
102
RTVSPropertyOp23
 70
     1
102
RTVSPropertyOp24
 70
     1
102
RTVSPropertyOp25
 70
     1
102
RTVSPropertyOp26
 70
     1
102
RTVSPropertyOp27
 70
     1
102
RTVSPropertyOp28
 70
     1
102
RTVSPropertyOp29
 70
     1
102
RTVSPropertyOp30
 70
     1
102
RTVSPropertyOp31
 70
     1
102
RTVSPropertyOp32
 70
     1
  0
XRECORD
  5
1592
102
{ACAD_REACTORS
330
1591
102
}
330
1591
100
AcDbXrecord
280
     1
102
RTVSPropertyOp0
 70
     1
102
RTVSPropertyOp1
 70
     1
102
RTVSPropertyOp2
 70
     1
102
RTVSPropertyOp3
 70
     1
102
RTVSPropertyOp4
 70
     1
102
RTVSPropertyOp5
 70
     1
102
RTVSPropertyOp6
 70
     1
102
RTVSPropertyOp7
 70
     1
102
RTVSPropertyOp8
 70
     1
102
RTVSPropertyOp9
 70
     1
102
RTVSPropertyOp10
 70
     1
102
RTVSPropertyOp11
 70
     1
102
RTVSPropertyOp12
 70
     1
102
RTVSPropertyOp13
 70
     1
102
RTVSPropertyOp14
 70
     1
102
RTVSPropertyOp15
 70
     1
102
RTVSPropertyOp16
 70
     1
102
RTVSPropertyOp17
 70
     1
102
RTVSPropertyOp18
 70
     1
102
RTVSPropertyOp19
 70
     1
102
RTVSPropertyOp20
 70
     1
102
RTVSPropertyOp21
 70
     1
102
RTVSPropertyOp22
 70
     1
102
RTVSPropertyOp23
 70
     1
102
RTVSPropertyOp24
 70
     1
102
RTVSPropertyOp25
 70
     1
102
RTVSPropertyOp26
 70
     1
102
RTVSPropertyOp27
 70
     1
102
RTVSPropertyOp28
 70
     1
102
RTVSPropertyOp29
 70
     1
102
RTVSPropertyOp30
 70
     1
102
RTVSPropertyOp31
 70
     1
102
RTVSPropertyOp32
 70
     1
  0
XRECORD
  5
15AE
102
{ACAD_REACTORS
330
15AD
102
}
330
15AD
100
AcDbXrecord
280
     1
102
RTVSPropertyOp0
 70
     0
102
RTVSPropertyOp1
 70
     0
102
RTVSPropertyOp2
 70
     0
102
RTVSPropertyOp3
 70
     0
102
RTVSPropertyOp4
 70
     0
102
RTVSPropertyOp5
 70
     0
102
RTVSPropertyOp6
 70
     0
102
RTVSPropertyOp7
 70
     0
102
RTVSPropertyOp8
 70
     0
102
RTVSPropertyOp9
 70
     0
102
RTVSPropertyOp10
 70
     0
102
RTVSPropertyOp11
 70
     0
102
RTVSPropertyOp12
 70
     0
102
RTVSPropertyOp13
 70
     0
102
RTVSPropertyOp14
 70
     2
102
RTVSPropertyOp15
 70
     0
102
RTVSPropertyOp16
 70
     0
102
RTVSPropertyOp17
 70
     0
102
RTVSPropertyOp18
 70
     0
102
RTVSPropertyOp19
 70
     0
102
RTVSPropertyOp20
 70
     0
102
RTVSPropertyOp21
 70
     0
102
RTVSPropertyOp22
 70
     0
102
RTVSPropertyOp23
 70
     0
102
RTVSPropertyOp24
 70
     0
102
RTVSPropertyOp25
 70
     0
102
RTVSPropertyOp26
 70
     0
102
RTVSPropertyOp27
 70
     0
102
RTVSPropertyOp28
 70
     1
102
RTVSPropertyOp29
 70
     1
102
RTVSPropertyOp30
 70
     1
102
RTVSPropertyOp31
 70
     1
102
RTVSPropertyOp32
 70
     1
  0
XRECORD
  5
159E
102
{ACAD_REACTORS
330
159D
102
}
330
159D
100
AcDbXrecord
280
     1
102
RTVSPropertyOp0
 70
     1
102
RTVSPropertyOp1
 70
     1
102
RTVSPropertyOp2
 70
     1
102
RTVSPropertyOp3
 70
     1
102
RTVSPropertyOp4
 70
     1
102
RTVSPropertyOp5
 70
     1
102
RTVSPropertyOp6
 70
     1
102
RTVSPropertyOp7
 70
     1
102
RTVSPropertyOp8
 70
     1
102
RTVSPropertyOp9
 70
     1
102
RTVSPropertyOp10
 70
     1
102
RTVSPropertyOp11
 70
     1
102
RTVSPropertyOp12
 70
     1
102
RTVSPropertyOp13
 70
     1
102
RTVSPropertyOp14
 70
     1
102
RTVSPropertyOp15
 70
     1
102
RTVSPropertyOp16
 70
     1
102
RTVSPropertyOp17
 70
     1
102
RTVSPropertyOp18
 70
     1
102
RTVSPropertyOp19
 70
     1
102
RTVSPropertyOp20
 70
     1
102
RTVSPropertyOp21
 70
     1
102
RTVSPropertyOp22
 70
     1
102
RTVSPropertyOp23
 70
     1
102
RTVSPropertyOp24
 70
     1
102
RTVSPropertyOp25
 70
     1
102
RTVSPropertyOp26
 70
     1
102
RTVSPropertyOp27
 70
     1
102
RTVSPropertyOp28
 70
     1
102
RTVSPropertyOp29
 70
     1
102
RTVSPropertyOp30
 70
     1
102
RTVSPropertyOp31
 70
     1
102
RTVSPropertyOp32
 70
     1
  0
XRECORD
  5
15B0
102
{ACAD_REACTORS
330
15AF
102
}
330
15AF
100
AcDbXrecord
280
     1
102
RTVSPropertyOp0
 70
     0
102
RTVSPropertyOp1
 70
     0
102
RTVSPropertyOp2
 70
     0
102
RTVSPropertyOp3
 70
     0
102
RTVSPropertyOp4
 70
     0
102
RTVSPropertyOp5
 70
     0
102
RTVSPropertyOp6
 70
     0
102
RTVSPropertyOp7
 70
     0
102
RTVSPropertyOp8
 70
     0
102
RTVSPropertyOp9
 70
     0
102
RTVSPropertyOp10
 70
     0
102
RTVSPropertyOp11
 70
     0
102
RTVSPropertyOp12
 70
     0
102
RTVSPropertyOp13
 70
     0
102
RTVSPropertyOp14
 70
     2
102
RTVSPropertyOp15
 70
     0
102
RTVSPropertyOp16
 70
     0
102
RTVSPropertyOp17
 70
     0
102
RTVSPropertyOp18
 70
     0
102
RTVSPropertyOp19
 70
     0
102
RTVSPropertyOp20
 70
     0
102
RTVSPropertyOp21
 70
     0
102
RTVSPropertyOp22
 70
     0
102
RTVSPropertyOp23
 70
     0
102
RTVSPropertyOp24
 70
     0
102
RTVSPropertyOp25
 70
     0
102
RTVSPropertyOp26
 70
     0
102
RTVSPropertyOp27
 70
     0
102
RTVSPropertyOp28
 70
     1
102
RTVSPropertyOp29
 70
     1
102
RTVSPropertyOp30
 70
     1
102
RTVSPropertyOp31
 70
     1
102
RTVSPropertyOp32
 70
     1
  0
XRECORD
  5
1596
102
{ACAD_REACTORS
330
1595
102
}
330
1595
100
AcDbXrecord
280
     1
102
RTVSPropertyOp0
 70
     1
102
RTVSPropertyOp1
 70
     1
102
RTVSPropertyOp2
 70
     1
102
RTVSPropertyOp3
 70
     1
102
RTVSPropertyOp4
 70
     1
102
RTVSPropertyOp5
 70
     1
102
RTVSPropertyOp6
 70
     1
102
RTVSPropertyOp7
 70
     1
102
RTVSPropertyOp8
 70
     1
102
RTVSPropertyOp9
 70
     1
102
RTVSPropertyOp10
 70
     1
102
RTVSPropertyOp11
 70
     1
102
RTVSPropertyOp12
 70
     1
102
RTVSPropertyOp13
 70
     1
102
RTVSPropertyOp14
 70
     1
102
RTVSPropertyOp15
 70
     1
102
RTVSPropertyOp16
 70
     1
102
RTVSPropertyOp17
 70
     1
102
RTVSPropertyOp18
 70
     1
102
RTVSPropertyOp19
 70
     1
102
RTVSPropertyOp20
 70
     1
102
RTVSPropertyOp21
 70
     1
102
RTVSPropertyOp22
 70
     1
102
RTVSPropertyOp23
 70
     1
102
RTVSPropertyOp24
 70
     1
102
RTVSPropertyOp25
 70
     1
102
RTVSPropertyOp26
 70
     1
102
RTVSPropertyOp27
 70
     1
102
RTVSPropertyOp28
 70
     1
102
RTVSPropertyOp29
 70
     1
102
RTVSPropertyOp30
 70
     1
102
RTVSPropertyOp31
 70
     1
102
RTVSPropertyOp32
 70
     1
  0
XRECORD
  5
15AC
102
{ACAD_REACTORS
330
15AB
102
}
330
15AB
100
AcDbXrecord
280
     1
102
RTVSPropertyOp0
 70
     1
102
RTVSPropertyOp1
 70
     1
102
RTVSPropertyOp2
 70
     1
102
RTVSPropertyOp3
 70
     1
102
RTVSPropertyOp4
 70
     1
102
RTVSPropertyOp5
 70
     1
102
RTVSPropertyOp6
 70
     1
102
RTVSPropertyOp7
 70
     1
102
RTVSPropertyOp8
 70
     1
102
RTVSPropertyOp9
 70
     1
102
RTVSPropertyOp10
 70
     1
102
RTVSPropertyOp11
 70
     1
102
RTVSPropertyOp12
 70
     1
102
RTVSPropertyOp13
 70
     1
102
RTVSPropertyOp14
 70
     1
102
RTVSPropertyOp15
 70
     1
102
RTVSPropertyOp16
 70
     1
102
RTVSPropertyOp17
 70
     1
102
RTVSPropertyOp18
 70
     1
102
RTVSPropertyOp19
 70
     1
102
RTVSPropertyOp20
 70
     1
102
RTVSPropertyOp21
 70
     1
102
RTVSPropertyOp22
 70
     1
102
RTVSPropertyOp23
 70
     1
102
RTVSPropertyOp24
 70
     1
102
RTVSPropertyOp25
 70
     1
102
RTVSPropertyOp26
 70
     1
102
RTVSPropertyOp27
 70
     1
102
RTVSPropertyOp28
 70
     1
102
RTVSPropertyOp29
 70
     1
102
RTVSPropertyOp30
 70
     1
102
RTVSPropertyOp31
 70
     1
102
RTVSPropertyOp32
 70
     1
  0
XRECORD
  5
15AA
102
{ACAD_REACTORS
330
15A9
102
}
330
15A9
100
AcDbXrecord
280
     1
102
RTVSPropertyOp0
 70
     1
102
RTVSPropertyOp1
 70
     1
102
RTVSPropertyOp2
 70
     1
102
RTVSPropertyOp3
 70
     1
102
RTVSPropertyOp4
 70
     1
102
RTVSPropertyOp5
 70
     1
102
RTVSPropertyOp6
 70
     1
102
RTVSPropertyOp7
 70
     1
102
RTVSPropertyOp8
 70
     1
102
RTVSPropertyOp9
 70
     1
102
RTVSPropertyOp10
 70
     1
102
RTVSPropertyOp11
 70
     1
102
RTVSPropertyOp12
 70
     1
102
RTVSPropertyOp13
 70
     1
102
RTVSPropertyOp14
 70
     1
102
RTVSPropertyOp15
 70
     1
102
RTVSPropertyOp16
 70
     1
102
RTVSPropertyOp17
 70
     1
102
RTVSPropertyOp18
 70
     1
102
RTVSPropertyOp19
 70
     1
102
RTVSPropertyOp20
 70
     1
102
RTVSPropertyOp21
 70
     1
102
RTVSPropertyOp22
 70
     1
102
RTVSPropertyOp23
 70
     1
102
RTVSPropertyOp24
 70
     1
102
RTVSPropertyOp25
 70
     1
102
RTVSPropertyOp26
 70
     1
102
RTVSPropertyOp27
 70
     1
102
RTVSPropertyOp28
 70
     1
102
RTVSPropertyOp29
 70
     1
102
RTVSPropertyOp30
 70
     1
102
RTVSPropertyOp31
 70
     1
102
RTVSPropertyOp32
 70
     1
  0
XRECORD
  5
15A4
102
{ACAD_REACTORS
330
15A3
102
}
330
15A3
100
AcDbXrecord
280
     1
102
RTVSPropertyOp0
 70
     1
102
RTVSPropertyOp1
 70
     1
102
RTVSPropertyOp2
 70
     1
102
RTVSPropertyOp3
 70
     1
102
RTVSPropertyOp4
 70
     1
102
RTVSPropertyOp5
 70
     1
102
RTVSPropertyOp6
 70
     1
102
RTVSPropertyOp7
 70
     1
102
RTVSPropertyOp8
 70
     1
102
RTVSPropertyOp9
 70
     1
102
RTVSPropertyOp10
 70
     1
102
RTVSPropertyOp11
 70
     1
102
RTVSPropertyOp12
 70
     1
102
RTVSPropertyOp13
 70
     1
102
RTVSPropertyOp14
 70
     1
102
RTVSPropertyOp15
 70
     1
102
RTVSPropertyOp16
 70
     1
102
RTVSPropertyOp17
 70
     1
102
RTVSPropertyOp18
 70
     1
102
RTVSPropertyOp19
 70
     1
102
RTVSPropertyOp20
 70
     1
102
RTVSPropertyOp21
 70
     1
102
RTVSPropertyOp22
 70
     1
102
RTVSPropertyOp23
 70
     1
102
RTVSPropertyOp24
 70
     1
102
RTVSPropertyOp25
 70
     1
102
RTVSPropertyOp26
 70
     1
102
RTVSPropertyOp27
 70
     1
102
RTVSPropertyOp28
 70
     1
102
RTVSPropertyOp29
 70
     1
102
RTVSPropertyOp30
 70
     1
102
RTVSPropertyOp31
 70
     1
102
RTVSPropertyOp32
 70
     1
  0
XRECORD
  5
15A6
102
{ACAD_REACTORS
330
15A5
102
}
330
15A5
100
AcDbXrecord
280
     1
102
RTVSPropertyOp0
 70
     1
102
RTVSPropertyOp1
 70
     1
102
RTVSPropertyOp2
 70
     1
102
RTVSPropertyOp3
 70
     1
102
RTVSPropertyOp4
 70
     1
102
RTVSPropertyOp5
 70
     1
102
RTVSPropertyOp6
 70
     1
102
RTVSPropertyOp7
 70
     1
102
RTVSPropertyOp8
 70
     1
102
RTVSPropertyOp9
 70
     1
102
RTVSPropertyOp10
 70
     1
102
RTVSPropertyOp11
 70
     1
102
RTVSPropertyOp12
 70
     1
102
RTVSPropertyOp13
 70
     1
102
RTVSPropertyOp14
 70
     1
102
RTVSPropertyOp15
 70
     1
102
RTVSPropertyOp16
 70
     1
102
RTVSPropertyOp17
 70
     1
102
RTVSPropertyOp18
 70
     1
102
RTVSPropertyOp19
 70
     1
102
RTVSPropertyOp20
 70
     1
102
RTVSPropertyOp21
 70
     1
102
RTVSPropertyOp22
 70
     1
102
RTVSPropertyOp23
 70
     1
102
RTVSPropertyOp24
 70
     1
102
RTVSPropertyOp25
 70
     1
102
RTVSPropertyOp26
 70
     1
102
RTVSPropertyOp27
 70
     1
102
RTVSPropertyOp28
 70
     1
102
RTVSPropertyOp29
 70
     1
102
RTVSPropertyOp30
 70
     1
102
RTVSPropertyOp31
 70
     1
102
RTVSPropertyOp32
 70
     1
  0
XRECORD
  5
159C
102
{ACAD_REACTORS
330
159B
102
}
330
159B
100
AcDbXrecord
280
     1
102
RTVSPropertyOp0
 70
     1
102
RTVSPropertyOp1
 70
     1
102
RTVSPropertyOp2
 70
     1
102
RTVSPropertyOp3
 70
     1
102
RTVSPropertyOp4
 70
     1
102
RTVSPropertyOp5
 70
     1
102
RTVSPropertyOp6
 70
     1
102
RTVSPropertyOp7
 70
     1
102
RTVSPropertyOp8
 70
     1
102
RTVSPropertyOp9
 70
     1
102
RTVSPropertyOp10
 70
     1
102
RTVSPropertyOp11
 70
     1
102
RTVSPropertyOp12
 70
     1
102
RTVSPropertyOp13
 70
     1
102
RTVSPropertyOp14
 70
     1
102
RTVSPropertyOp15
 70
     1
102
RTVSPropertyOp16
 70
     1
102
RTVSPropertyOp17
 70
     1
102
RTVSPropertyOp18
 70
     1
102
RTVSPropertyOp19
 70
     1
102
RTVSPropertyOp20
 70
     1
102
RTVSPropertyOp21
 70
     1
102
RTVSPropertyOp22
 70
     1
102
RTVSPropertyOp23
 70
     1
102
RTVSPropertyOp24
 70
     1
102
RTVSPropertyOp25
 70
     1
102
RTVSPropertyOp26
 70
     1
102
RTVSPropertyOp27
 70
     1
102
RTVSPropertyOp28
 70
     1
102
RTVSPropertyOp29
 70
     1
102
RTVSPropertyOp30
 70
     1
102
RTVSPropertyOp31
 70
     1
102
RTVSPropertyOp32
 70
     1
  0
XRECORD
  5
1590
102
{ACAD_REACTORS
330
158F
102
}
330
158F
100
AcDbXrecord
280
     1
102
RTVSPropertyOp0
 70
     1
102
RTVSPropertyOp1
 70
     1
102
RTVSPropertyOp2
 70
     1
102
RTVSPropertyOp3
 70
     1
102
RTVSPropertyOp4
 70
     1
102
RTVSPropertyOp5
 70
     1
102
RTVSPropertyOp6
 70
     1
102
RTVSPropertyOp7
 70
     1
102
RTVSPropertyOp8
 70
     1
102
RTVSPropertyOp9
 70
     1
102
RTVSPropertyOp10
 70
     1
102
RTVSPropertyOp11
 70
     1
102
RTVSPropertyOp12
 70
     1
102
RTVSPropertyOp13
 70
     1
102
RTVSPropertyOp14
 70
     1
102
RTVSPropertyOp15
 70
     1
102
RTVSPropertyOp16
 70
     1
102
RTVSPropertyOp17
 70
     1
102
RTVSPropertyOp18
 70
     1
102
RTVSPropertyOp19
 70
     1
102
RTVSPropertyOp20
 70
     1
102
RTVSPropertyOp21
 70
     1
102
RTVSPropertyOp22
 70
     1
102
RTVSPropertyOp23
 70
     1
102
RTVSPropertyOp24
 70
     1
102
RTVSPropertyOp25
 70
     1
102
RTVSPropertyOp26
 70
     1
102
RTVSPropertyOp27
 70
     1
102
RTVSPropertyOp28
 70
     1
102
RTVSPropertyOp29
 70
     1
102
RTVSPropertyOp30
 70
     1
102
RTVSPropertyOp31
 70
     1
102
RTVSPropertyOp32
 70
     1
  0
XRECORD
  5
15A8
102
{ACAD_REACTORS
330
15A7
102
}
330
15A7
100
AcDbXrecord
280
     1
102
RTVSPropertyOp0
 70
     1
102
RTVSPropertyOp1
 70
     1
102
RTVSPropertyOp2
 70
     1
102
RTVSPropertyOp3
 70
     1
102
RTVSPropertyOp4
 70
     1
102
RTVSPropertyOp5
 70
     1
102
RTVSPropertyOp6
 70
     1
102
RTVSPropertyOp7
 70
     1
102
RTVSPropertyOp8
 70
     1
102
RTVSPropertyOp9
 70
     1
102
RTVSPropertyOp10
 70
     1
102
RTVSPropertyOp11
 70
     1
102
RTVSPropertyOp12
 70
     1
102
RTVSPropertyOp13
 70
     1
102
RTVSPropertyOp14
 70
     1
102
RTVSPropertyOp15
 70
     1
102
RTVSPropertyOp16
 70
     1
102
RTVSPropertyOp17
 70
     1
102
RTVSPropertyOp18
 70
     1
102
RTVSPropertyOp19
 70
     1
102
RTVSPropertyOp20
 70
     1
102
RTVSPropertyOp21
 70
     1
102
RTVSPropertyOp22
 70
     1
102
RTVSPropertyOp23
 70
     1
102
RTVSPropertyOp24
 70
     1
102
RTVSPropertyOp25
 70
     1
102
RTVSPropertyOp26
 70
     1
102
RTVSPropertyOp27
 70
     1
102
RTVSPropertyOp28
 70
     1
102
RTVSPropertyOp29
 70
     1
102
RTVSPropertyOp30
 70
     1
102
RTVSPropertyOp31
 70
     1
102
RTVSPropertyOp32
 70
     1
  0
ENDSEC
  0
EOF
