  0
SECTION
  2
HEADER
  9
$ACADVER
  1
AC1015
  9
$ACADMAINTVER
 70
    20
  9
$DWGCODEPAGE
  3
ANSI_1258
  9
$INSBASE
 10
0.0
 20
0.0
 30
0.0
  9
$EXTMIN
 10
-171.6030622804221
 20
47.45948206436159
 30
0.0
  9
$EXTMAX
 10
-171.3584499225403
 20
47.62635744639897
 30
0.0
  9
$LIMMIN
 10
0.0
 20
0.0
  9
$LIMMAX
 10
12.0
 20
9.0
  9
$ORTHOMODE
 70
     0
  9
$REGENMODE
 70
     1
  9
$FILLMODE
 70
     1
  9
$QTEXTMODE
 70
     0
  9
$MIRRTEXT
 70
     0
  9
$LTSCALE
 40
0.04
  9
$ATTMODE
 70
     1
  9
$TEXTSIZE
 40
0.2
  9
$TRACEWID
 40
0.05
  9
$TEXTSTYLE
  7
Standard
  9
$CLAYER
  8
0
  9
$CELTYPE
  6
ByLayer
  9
$CECOLOR
 62
   256
  9
$CELTSCALE
 40
1.0
  9
$DISPSILH
 70
     0
  9
$DIMSCALE
 40
1.0
  9
$DIMASZ
 40
0.18
  9
$DIMEXO
 40
0.0625
  9
$DIMDLI
 40
0.38
  9
$DIMRND
 40
0.0
  9
$DIMDLE
 40
0.0
  9
$DIMEXE
 40
0.18
  9
$DIMTP
 40
0.0
  9
$DIMTM
 40
0.0
  9
$DIMTXT
 40
0.18
  9
$DIMCEN
 40
0.09
  9
$DIMTSZ
 40
0.0
  9
$DIMTOL
 70
     0
  9
$DIMLIM
 70
     0
  9
$DIMTIH
 70
     1
  9
$DIMTOH
 70
     1
  9
$DIMSE1
 70
     0
  9
$DIMSE2
 70
     0
  9
$DIMTAD
 70
     0
  9
$DIMZIN
 70
     0
  9
$DIMBLK
  1

  9
$DIMASO
 70
     1
  9
$DIMSHO
 70
     1
  9
$DIMPOST
  1

  9
$DIMAPOST
  1

  9
$DIMALT
 70
     0
  9
$DIMALTD
 70
     2
  9
$DIMALTF
 40
25.4
  9
$DIMLFAC
 40
1.0
  9
$DIMTOFL
 70
     0
  9
$DIMTVP
 40
0.0
  9
$DIMTIX
 70
     0
  9
$DIMSOXD
 70
     0
  9
$DIMSAH
 70
     0
  9
$DIMBLK1
  1

  9
$DIMBLK2
  1

  9
$DIMSTYLE
  2
Standard
  9
$DIMCLRD
 70
     0
  9
$DIMCLRE
 70
     0
  9
$DIMCLRT
 70
     0
  9
$DIMTFAC
 40
1.0
  9
$DIMGAP
 40
0.09
  9
$DIMJUST
 70
     0
  9
$DIMSD1
 70
     0
  9
$DIMSD2
 70
     0
  9
$DIMTOLJ
 70
     1
  9
$DIMTZIN
 70
     0
  9
$DIMALTZ
 70
     0
  9
$DIMALTTZ
 70
     0
  9
$DIMUPT
 70
     0
  9
$DIMDEC
 70
     4
  9
$DIMTDEC
 70
     4
  9
$DIMALTU
 70
     4
  9
$DIMALTTD
 70
     2
  9
$DIMTXSTY
  7
Standard
  9
$DIMAUNIT
 70
     0
  9
$DIMADEC
 70
     0
  9
$DIMALTRND
 40
0.0
  9
$DIMAZIN
 70
     0
  9
$DIMDSEP
 70
    46
  9
$DIMATFIT
 70
     3
  9
$DIMFRAC
 70
     0
  9
$DIMLDRBLK
  1

  9
$DIMLUNIT
 70
     4
  9
$DIMLWD
 70
    -2
  9
$DIMLWE
 70
    -2
  9
$DIMTMOVE
 70
     0
  9
$LUNITS
 70
     4
  9
$LUPREC
 70
     4
  9
$SKETCHINC
 40
0.1
  9
$FILLETRAD
 40
0.0
  9
$AUNITS
 70
     0
  9
$AUPREC
 70
     0
  9
$MENU
  1
.
  9
$ELEVATION
 40
0.0
  9
$PELEVATION
 40
0.0
  9
$THICKNESS
 40
0.0
  9
$LIMCHECK
 70
     0
  9
$CHAMFERA
 40
0.0
  9
$CHAMFERB
 40
0.0
  9
$CHAMFERC
 40
0.0
  9
$CHAMFERD
 40
0.0
  9
$SKPOLY
 70
     0
  9
$TDCREATE
 40
2456195.354592234
  9
$TDUCREATE
 40
2456195.062925567
  9
$TDUPDATE
 40
2456196.622143831
  9
$TDUUPDATE
 40
2456196.330477165
  9
$TDINDWG
 40
0.1799573495
  9
$TDUSRTIMER
 40
0.1799573495
  9
$USRTIMER
 70
     1
  9
$ANGBASE
 50
0.0
  9
$ANGDIR
 70
     0
  9
$PDMODE
 70
     0
  9
$PDSIZE
 40
0.0
  9
$PLINEWID
 40
0.0
  9
$SPLFRAME
 70
     0
  9
$SPLINETYPE
 70
     6
  9
$SPLINESEGS
 70
     8
  9
$HANDSEED
  5
1AAF
  9
$SURFTAB1
 70
     6
  9
$SURFTAB2
 70
     6
  9
$SURFTYPE
 70
     6
  9
$SURFU
 70
     6
  9
$SURFV
 70
     6
  9
$UCSBASE
  2

  9
$UCSNAME
  2

  9
$UCSORG
 10
0.0
 20
0.0
 30
0.0
  9
$UCSXDIR
 10
1.0
 20
0.0
 30
0.0
  9
$UCSYDIR
 10
0.0
 20
1.0
 30
0.0
  9
$UCSORTHOREF
  2

  9
$UCSORTHOVIEW
 70
     0
  9
$UCSORGTOP
 10
0.0
 20
0.0
 30
0.0
  9
$UCSORGBOTTOM
 10
0.0
 20
0.0
 30
0.0
  9
$UCSORGLEFT
 10
0.0
 20
0.0
 30
0.0
  9
$UCSORGRIGHT
 10
0.0
 20
0.0
 30
0.0
  9
$UCSORGFRONT
 10
0.0
 20
0.0
 30
0.0
  9
$UCSORGBACK
 10
0.0
 20
0.0
 30
0.0
  9
$PUCSBASE
  2

  9
$PUCSNAME
  2

  9
$PUCSORG
 10
0.0
 20
0.0
 30
0.0
  9
$PUCSXDIR
 10
1.0
 20
0.0
 30
0.0
  9
$PUCSYDIR
 10
0.0
 20
1.0
 30
0.0
  9
$PUCSORTHOREF
  2

  9
$PUCSORTHOVIEW
 70
     0
  9
$PUCSORGTOP
 10
0.0
 20
0.0
 30
0.0
  9
$PUCSORGBOTTOM
 10
0.0
 20
0.0
 30
0.0
  9
$PUCSORGLEFT
 10
0.0
 20
0.0
 30
0.0
  9
$PUCSORGRIGHT
 10
0.0
 20
0.0
 30
0.0
  9
$PUCSORGFRONT
 10
0.0
 20
0.0
 30
0.0
  9
$PUCSORGBACK
 10
0.0
 20
0.0
 30
0.0
  9
$USERI1
 70
     0
  9
$USERI2
 70
     0
  9
$USERI3
 70
     0
  9
$USERI4
 70
     0
  9
$USERI5
 70
     0
  9
$USERR1
 40
0.0
  9
$USERR2
 40
0.0
  9
$USERR3
 40
0.0
  9
$USERR4
 40
0.0
  9
$USERR5
 40
0.0
  9
$WORLDVIEW
 70
     1
  9
$SHADEDGE
 70
     3
  9
$SHADEDIF
 70
    70
  9
$TILEMODE
 70
     1
  9
$MAXACTVP
 70
    64
  9
$PINSBASE
 10
0.0
 20
0.0
 30
0.0
  9
$PLIMCHECK
 70
     0
  9
$PEXTMIN
 10
97.115038725935
 20
95.28912673125191
 30
-0.0015258207003583
  9
$PEXTMAX
 10
98.75101266331421
 20
96.6699572260063
 30
0.0000000349246037
  9
$PLIMMIN
 10
97.07994808121549
 20
95.24688377827493
  9
$PLIMMAX
 10
99.17019191798818
 20
96.72471659171664
  9
$UNITMODE
 70
     0
  9
$VISRETAIN
 70
     1
  9
$PLINEGEN
 70
     0
  9
$PSLTSCALE
 70
     1
  9
$TREEDEPTH
 70
  3020
  9
$CMLSTYLE
  2
Standard
  9
$CMLJUST
 70
     0
  9
$CMLSCALE
 40
1.0
  9
$PROXYGRAPHICS
 70
     1
  9
$MEASUREMENT
 70
     0
  9
$CELWEIGHT
370
    -1
  9
$ENDCAPS
280
     0
  9
$JOINSTYLE
280
     0
  9
$LWDISPLAY
290
     0
  9
$INSUNITS
 70
     1
  9
$HYPERLINKBASE
  1

  9
$STYLESHEET
  1

  9
$XEDIT
290
     1
  9
$CEPSNTYPE
380
     0
  9
$PSTYLEMODE
290
     1
  9
$FINGERPRINTGUID
  2
{C1709762-A08E-44E4-A614-20F457497545}
  9
$VERSIONGUID
  2
{86BA0FCB-559C-44E7-AE33-04760A5B6D37}
  9
$EXTNAMES
290
     1
  9
$PSVPSCALE
 40
0.0
  9
$OLESTARTUP
290
     0
  0
ENDSEC
  0
SECTION
  2
CLASSES
  0
CLASS
  1
ACDBDICTIONARYWDFLT
  2
AcDbDictionaryWithDefault
  3
ObjectDBX Classes
 90
        0
280
     0
281
     0
  0
CLASS
  1
MATERIAL
  2
AcDbMaterial
  3
ObjectDBX Classes
 90
     1153
280
     0
281
     0
  0
CLASS
  1
VISUALSTYLE
  2
AcDbVisualStyle
  3
ObjectDBX Classes
 90
     4095
280
     0
281
     0
  0
CLASS
  1
SCALE
  2
AcDbScale
  3
ObjectDBX Classes
 90
     1153
280
     0
281
     0
  0
CLASS
  1
TABLESTYLE
  2
AcDbTableStyle
  3
ObjectDBX Classes
 90
     4095
280
     0
281
     0
  0
CLASS
  1
MLEADERSTYLE
  2
AcDbMLeaderStyle
  3
ACDB_MLEADERSTYLE_CLASS
 90
     4095
280
     0
281
     0
  0
CLASS
  1
RASTERVARIABLES
  2
AcDbRasterVariables
  3
ISM
 90
        0
280
     0
281
     0
  0
CLASS
  1
CELLSTYLEMAP
  2
AcDbCellStyleMap
  3
ObjectDBX Classes
 90
     1152
280
     0
281
     0
  0
CLASS
  1
DICTIONARYVAR
  2
AcDbDictionaryVar
  3
ObjectDBX Classes
 90
        0
280
     0
281
     0
  0
CLASS
  1
SORTENTSTABLE
  2
AcDbSortentsTable
  3
ObjectDBX Classes
 90
        0
280
     0
281
     0
  0
CLASS
  1
SUN
  2
AcDbSun
  3
SCENEOE
 90
     1153
280
     0
281
     0
  0
CLASS
  1
ACDBPLACEHOLDER
  2
AcDbPlaceHolder
  3
ObjectDBX Classes
 90
        0
280
     0
281
     0
  0
CLASS
  1
LAYOUT
  2
AcDbLayout
  3
ObjectDBX Classes
 90
        0
280
     0
281
     0
  0
ENDSEC
  0
SECTION
  2
TABLES
  0
TABLE
  2
VPORT
  5
8
102
{ACAD_XDICTIONARY
360
451
102
}
330
0
100
AcDbSymbolTable
 70
     1
  0
VPORT
  5
57
330
8
100
AcDbSymbolTableRecord
100
AcDbViewportTableRecord
  2
*Active
 70
     0
 10
0.0
 20
0.0
 11
1.0
 21
1.0
 12
-171.4744197628008
 22
47.54543824004523
 13
0.0
 23
0.0
 14
1.0
 24
1.0
 15
0.0
 25
0.0
 16
0.0
 26
0.0
 36
1.0
 17
0.0
 27
0.0
 37
0.0
 40
0.1963261150381541
 41
1.791616766467066
 42
50.0
 43
0.0
 44
0.0
 50
0.0
 51
0.0
 71
     0
 72
  1000
 73
     1
 74
     1
 75
     0
 76
     0
 77
     0
 78
     0
281
     0
 65
     1
110
0.0
120
0.0
130
0.0
111
1.0
121
0.0
131
0.0
112
0.0
122
1.0
132
0.0
 79
     0
146
0.0
1001
ACAD_NAV_VCDISPLAY
1070
     3
  0
ENDTAB
  0
TABLE
  2
LTYPE
  5
5
330
0
100
AcDbSymbolTable
 70
     2
  0
LTYPE
  5
5B
330
5
100
AcDbSymbolTableRecord
100
AcDbLinetypeTableRecord
  2
ByBlock
 70
     0
  3

 72
    65
 73
     0
 40
0.0
  0
LTYPE
  5
5C
330
5
100
AcDbSymbolTableRecord
100
AcDbLinetypeTableRecord
  2
ByLayer
 70
     0
  3

 72
    65
 73
     0
 40
0.0
  0
LTYPE
  5
5D
330
5
100
AcDbSymbolTableRecord
100
AcDbLinetypeTableRecord
  2
Continuous
 70
     0
  3
Solid line
 72
    65
 73
     0
 40
0.0
  0
LTYPE
  5
4B3
330
5
100
AcDbSymbolTableRecord
100
AcDbLinetypeTableRecord
  2
Dash
 70
     0
  3

 72
    65
 73
     2
 40
0.25
 49
0.125
 74
     0
 49
-0.125
 74
     0
  0
ENDTAB
  0
TABLE
  2
LAYER
  5
2
102
{ACAD_XDICTIONARY
360
4AC
102
}
330
0
100
AcDbSymbolTable
 70
     8
  0
LAYER
  5
54
330
2
100
AcDbSymbolTableRecord
100
AcDbLayerTableRecord
  2
0
 70
     0
 62
     7
  6
Continuous
370
    -3
390
F
  0
LAYER
  5
C6
330
2
100
AcDbSymbolTableRecord
100
AcDbLayerTableRecord
  2
S-BEAM
 70
     0
 62
     4
  6
Continuous
370
     5
390
F
  0
LAYER
  5
115
330
2
100
AcDbSymbolTableRecord
100
AcDbLayerTableRecord
  2
A-GENM
 70
     0
 62
     6
  6
Continuous
370
     5
390
F
  0
LAYER
  5
272
330
2
100
AcDbSymbolTableRecord
100
AcDbLayerTableRecord
  2
G-IMPT
 70
     0
 62
     1
  6
Continuous
370
     5
390
F
  0
LAYER
  5
436
330
2
100
AcDbSymbolTableRecord
100
AcDbLayerTableRecord
  2
A-ANNO-NPLT
 70
     0
 62
     5
  6
Continuous
290
     0
370
    -3
390
F
  0
LAYER
  5
43C
330
2
100
AcDbSymbolTableRecord
100
AcDbLayerTableRecord
  2
A-ANNO-TEXT
 70
     0
 62
     2
  6
Continuous
370
     9
390
F
  0
LAYER
  5
4B4
330
2
100
AcDbSymbolTableRecord
100
AcDbLayerTableRecord
  2
Layer1
 70
     0
 62
     7
  6
Continuous
370
    -3
390
F
1001
AcAecLayerStandard
1000

1000

1001
AcCmTransparency
1071
        0
  0
LAYER
  5
4B5
330
2
100
AcDbSymbolTableRecord
100
AcDbLayerTableRecord
  2
Hiden
 70
     0
 62
     7
  6
Dash
370
    -3
390
F
1001
AcAecLayerStandard
1000

1000

1001
AcCmTransparency
1071
        0
  0
ENDTAB
  0
TABLE
  2
STYLE
  5
3
330
0
100
AcDbSymbolTable
 70
     2
  0
STYLE
  5
55
330
3
100
AcDbSymbolTableRecord
100
AcDbTextStyleTableRecord
  2
Standard
 70
     0
 40
0.0
 41
1.0
 50
0.0
 71
     0
 42
0.2
  3
txt
  4

  0
STYLE
  5
5A
330
3
100
AcDbSymbolTableRecord
100
AcDbTextStyleTableRecord
  2
Annotative
 70
     0
 40
0.0
 41
1.0
 50
0.0
 71
     0
 42
0.2
  3
txt
  4

1001
AcadAnnotative
1000
AnnotativeData
1002
{
1070
     1
1070
     1
1002
}
  0
ENDTAB
  0
TABLE
  2
VIEW
  5
6
330
0
100
AcDbSymbolTable
 70
     0
  0
ENDTAB
  0
TABLE
  2
UCS
  5
7
330
0
100
AcDbSymbolTable
 70
     0
  0
ENDTAB
  0
TABLE
  2
APPID
  5
9
330
0
100
AcDbSymbolTable
 70
    11
  0
APPID
  5
56
330
9
100
AcDbSymbolTableRecord
100
AcDbRegAppTableRecord
  2
ACAD
 70
     0
  0
APPID
  5
5E
330
9
100
AcDbSymbolTableRecord
100
AcDbRegAppTableRecord
  2
AcadAnnotative
 70
     0
  0
APPID
  5
74
330
9
100
AcDbSymbolTableRecord
100
AcDbRegAppTableRecord
  2
REVIT
 70
     0
  0
APPID
  5
487
330
9
100
AcDbSymbolTableRecord
100
AcDbRegAppTableRecord
  2
ACAD_MLEADERVER
 70
     0
  0
APPID
  5
4A7
330
9
100
AcDbSymbolTableRecord
100
AcDbRegAppTableRecord
  2
ACAD_PSEXT
 70
     0
  0
APPID
  5
4B6
330
9
100
AcDbSymbolTableRecord
100
AcDbRegAppTableRecord
  2
ACAD_NAV_VCDISPLAY
 70
     0
  0
APPID
  5
4B7
330
9
100
AcDbSymbolTableRecord
100
AcDbRegAppTableRecord
  2
AcAecLayerStandard
 70
     0
  0
APPID
  5
4B8
330
9
100
AcDbSymbolTableRecord
100
AcDbRegAppTableRecord
  2
AcCmTransparency
 70
     0
  0
APPID
  5
4B9
330
9
100
AcDbSymbolTableRecord
100
AcDbRegAppTableRecord
  2
GradientColor1ACI
 70
     0
  0
APPID
  5
4BA
330
9
100
AcDbSymbolTableRecord
100
AcDbRegAppTableRecord
  2
GradientColor2ACI
 70
     0
  0
APPID
  5
159B
330
9
100
AcDbSymbolTableRecord
100
AcDbRegAppTableRecord
  2
ACAD_EXEMPT_FROM_CAD_STANDARDS
 70
     0
  0
ENDTAB
  0
TABLE
  2
DIMSTYLE
  5
A
330
0
100
AcDbSymbolTable
 70
     2
100
AcDbDimStyleTable
 71
     1
340
58
  0
DIMSTYLE
105
58
330
A
100
AcDbSymbolTableRecord
100
AcDbDimStyleTableRecord
  2
Standard
 70
     0
340
55
  0
DIMSTYLE
105
59
330
A
100
AcDbSymbolTableRecord
100
AcDbDimStyleTableRecord
  2
Annotative
 70
     0
340
55
1001
AcadAnnotative
1000
AnnotativeData
1002
{
1070
     1
1070
     1
1002
}
  0
ENDTAB
  0
TABLE
  2
BLOCK_RECORD
  5
1
330
0
100
AcDbSymbolTable
 70
    12
  0
BLOCK_RECORD
  5
6C
102
{ACAD_XDICTIONARY
360
446
102
}
330
1
100
AcDbSymbolTableRecord
100
AcDbBlockTableRecord
  2
*Model_Space
340
6F
  0
BLOCK_RECORD
  5
68
330
1
100
AcDbSymbolTableRecord
100
AcDbBlockTableRecord
  2
*Paper_Space
340
6B
  0
BLOCK_RECORD
  5
70
330
1
100
AcDbSymbolTableRecord
100
AcDbBlockTableRecord
  2
*Paper_Space0
340
73
  0
BLOCK_RECORD
  5
1B2
330
1
100
AcDbSymbolTableRecord
100
AcDbBlockTableRecord
  2
FP_1-Perspective D78
340
0
  0
BLOCK_RECORD
  5
1BA
330
1
100
AcDbSymbolTableRecord
100
AcDbBlockTableRecord
  2
FP_2-Perspective D78
340
0
  0
BLOCK_RECORD
  5
1C2
330
1
100
AcDbSymbolTableRecord
100
AcDbBlockTableRecord
  2
FP_3-Perspective D78
340
0
  0
BLOCK_RECORD
  5
1D8
330
1
100
AcDbSymbolTableRecord
100
AcDbBlockTableRecord
  2
FP_4-Perspective D78
340
0
  0
BLOCK_RECORD
  5
1E7
330
1
100
AcDbSymbolTableRecord
100
AcDbBlockTableRecord
  2
FP_5-Perspective D78
340
0
  0
BLOCK_RECORD
  5
1F1
330
1
100
AcDbSymbolTableRecord
100
AcDbBlockTableRecord
  2
FP_6-Perspective D78
340
0
  0
BLOCK_RECORD
  5
1FC
330
1
100
AcDbSymbolTableRecord
100
AcDbBlockTableRecord
  2
FP_7-Perspective D78
340
0
  0
BLOCK_RECORD
  5
229
330
1
100
AcDbSymbolTableRecord
100
AcDbBlockTableRecord
  2
FP_8-Perspective D78
340
0
  0
BLOCK_RECORD
  5
23A
330
1
100
AcDbSymbolTableRecord
100
AcDbBlockTableRecord
  2
FP_9-Perspective D78
340
0
  0
BLOCK_RECORD
  5
248
330
1
100
AcDbSymbolTableRecord
100
AcDbBlockTableRecord
  2
FP_10-Perspective D78
340
0
  0
BLOCK_RECORD
  5
251
330
1
100
AcDbSymbolTableRecord
100
AcDbBlockTableRecord
  2
FP_11-Perspective D78
340
0
  0
ENDTAB
  0
ENDSEC
  0
SECTION
  2
BLOCKS
  0
BLOCK
  5
6D
330
6C
100
AcDbEntity
  8
0
100
AcDbBlockBegin
  2
*Model_Space
 70
     0
 10
0.0
 20
0.0
 30
0.0
  3
*Model_Space
  1

  0
ENDBLK
  5
6E
330
6C
100
AcDbEntity
  8
0
100
AcDbBlockEnd
  0
BLOCK
  5
69
330
68
100
AcDbEntity
 67
     1
  8
0
100
AcDbBlockBegin
  2
*Paper_Space
 70
     0
 10
0.0
 20
0.0
 30
0.0
  3
*Paper_Space
  1

  0
ENDBLK
  5
6A
330
68
100
AcDbEntity
 67
     1
  8
0
100
AcDbBlockEnd
  0
BLOCK
  5
71
330
70
100
AcDbEntity
 67
     1
  8
0
100
AcDbBlockBegin
  2
*Paper_Space0
 70
     0
 10
0.0
 20
0.0
 30
0.0
  3
*Paper_Space0
  1

  0
ENDBLK
  5
72
330
70
100
AcDbEntity
 67
     1
  8
0
100
AcDbBlockEnd
  0
BLOCK
  5
1B4
330
1B2
100
AcDbEntity
  8
0
100
AcDbBlockBegin
  2
FP_1-Perspective D78
 70
     0
 10
0.0
 20
0.0
 30
0.0
  3
FP_1-Perspective D78
  1

  0
LINE
  5
1B3
330
1B2
100
AcDbEntity
  8
S-BEAM
100
AcDbLine
 10
-171.4809629805541
 20
47.51629879340519
 30
0.0
 11
-171.4937142941017
 21
47.51888165671252
 31
0.0
1001
REVIT
1002
{
1070
     2
1000
-2001320
1002
}
  0
ENDBLK
  5
1B5
330
1B2
100
AcDbEntity
  8
0
100
AcDbBlockEnd
  0
BLOCK
  5
1BC
330
1BA
100
AcDbEntity
  8
0
100
AcDbBlockBegin
  2
FP_2-Perspective D78
 70
     0
 10
0.0
 20
0.0
 30
0.0
  3
FP_2-Perspective D78
  1

  0
LINE
  5
1BB
330
1BA
100
AcDbEntity
  8
S-BEAM
100
AcDbLine
 10
-171.4980722400204
 20
47.46567228087076
 30
0.0
 11
-171.4981758653082
 21
47.46551227936344
 31
0.0
1001
REVIT
1002
{
1070
     2
1000
-2001320
1002
}
  0
ENDBLK
  5
1BD
330
1BA
100
AcDbEntity
  8
0
100
AcDbBlockEnd
  0
BLOCK
  5
1C4
330
1C2
100
AcDbEntity
  8
0
100
AcDbBlockBegin
  2
FP_3-Perspective D78
 70
     0
 10
0.0
 20
0.0
 30
0.0
  3
FP_3-Perspective D78
  1

  0
LINE
  5
1C3
330
1C2
100
AcDbEntity
  8
S-BEAM
100
AcDbLine
 10
-171.494915080894
 20
47.46295305852869
 30
0.0
 11
-171.4963333178285
 21
47.46076421185098
 31
0.0
1001
REVIT
1002
{
1070
     2
1000
-2001320
1002
}
  0
ENDBLK
  5
1C5
330
1C2
100
AcDbEntity
  8
0
100
AcDbBlockEnd
  0
BLOCK
  5
1E1
330
1D8
100
AcDbEntity
  8
0
100
AcDbBlockBegin
  2
FP_4-Perspective D78
 70
     0
 10
0.0
 20
0.0
 30
0.0
  3
FP_4-Perspective D78
  1

  0
LINE
  5
1D9
330
1D8
100
AcDbEntity
  8
S-BEAM
100
AcDbLine
 10
-171.4205417158738
 20
47.51028071518482
 30
0.0
 11
-171.4211836050204
 21
47.51388543264242
 31
0.0
1001
REVIT
1002
{
1070
     2
1000
-2001320
1002
}
  0
LINE
  5
1DA
330
1D8
100
AcDbEntity
  8
S-BEAM
100
AcDbLine
 10
-171.4196264276938
 20
47.5326328239192
 30
0.0
 11
-171.4211835880113
 21
47.54144284794652
 31
0.0
1001
REVIT
1002
{
1070
     2
1000
-2001320
1002
}
  0
LINE
  5
1DB
330
1D8
100
AcDbEntity
  8
S-BEAM
100
AcDbLine
 10
-171.4211860640422
 20
47.5138886316177
 30
0.0
 11
-171.4230121518656
 21
47.51585325702131
 31
0.0
1001
REVIT
1002
{
1070
     2
1000
-2001320
1002
}
  0
LINE
  5
1DC
330
1D8
100
AcDbEntity
  8
S-BEAM
100
AcDbLine
 10
-171.4211862774167
 20
47.54144634208747
 30
0.0
 11
-171.4230123664282
 21
47.5434875833651
 31
0.0
1001
REVIT
1002
{
1070
     2
1000
-2001320
1002
}
  0
LINE
  5
1DD
330
1D8
100
AcDbEntity
  8
S-BEAM
100
AcDbLine
 10
-171.4230090498546
 20
47.5158497254576
 30
0.0
 11
-171.4272212915745
 21
47.52109666520774
 31
0.0
1001
REVIT
1002
{
1070
     2
1000
-2001320
1002
}
  0
LINE
  5
1DE
330
1D8
100
AcDbEntity
  8
S-BEAM
100
AcDbLine
 10
-171.4230089839355
 20
47.54348361199734
 30
0.0
 11
-171.4237471345717
 21
47.54443405202072
 31
0.0
1001
REVIT
1002
{
1070
     2
1000
-2001320
1002
}
  0
LINE
  5
1DF
330
1D8
100
AcDbEntity
  8
S-BEAM
100
AcDbLine
 10
-171.4272204199745
 20
47.52109561410708
 30
0.0
 11
-171.4274061703243
 21
47.52203377948267
 31
0.0
1001
REVIT
1002
{
1070
     2
1000
-2001320
1002
}
  0
LINE
  5
1E0
330
1D8
100
AcDbEntity
  8
S-BEAM
100
AcDbLine
 10
-171.4192674445357
 20
47.5319764393108
 30
0.0
 11
-171.4196244441343
 21
47.5326315852586
 31
0.0
1001
REVIT
1002
{
1070
     2
1000
-2001320
1002
}
  0
ENDBLK
  5
1E2
330
1D8
100
AcDbEntity
  8
0
100
AcDbBlockEnd
  0
BLOCK
  5
1EE
330
1E7
100
AcDbEntity
  8
0
100
AcDbBlockBegin
  2
FP_5-Perspective D78
 70
     0
 10
0.0
 20
0.0
 30
0.0
  3
FP_5-Perspective D78
  1

  0
LINE
  5
1E8
330
1E7
100
AcDbEntity
  8
S-BEAM
100
AcDbLine
 10
-171.4197033625718
 20
47.56056350904516
 30
0.0
 11
-171.421183571002
 21
47.56900026182337
 31
0.0
1001
REVIT
1002
{
1070
     2
1000
-2001320
1002
}
  0
LINE
  5
1E9
330
1E7
100
AcDbEntity
  8
S-BEAM
100
AcDbLine
 10
-171.4196263938366
 20
47.58761698741262
 30
0.0
 11
-171.4210104301761
 21
47.59556365588108
 31
0.0
1001
REVIT
1002
{
1070
     2
1000
-2001320
1002
}
  0
LINE
  5
1EA
330
1E7
100
AcDbEntity
  8
S-BEAM
100
AcDbLine
 10
-171.4211864907913
 20
47.56900407046186
 30
0.0
 11
-171.423012580991
 21
47.57112192771328
 31
0.0
1001
REVIT
1002
{
1070
     2
1000
-2001320
1002
}
  0
LINE
  5
1EB
330
1E7
100
AcDbEntity
  8
S-BEAM
100
AcDbLine
 10
-171.4230089180164
 20
47.57111749300581
 30
0.0
 11
-171.4272211580445
 21
47.5767178846602
 31
0.0
1001
REVIT
1002
{
1070
     2
1000
-2001320
1002
}
  0
LINE
  5
1EC
330
1E7
100
AcDbEntity
  8
S-BEAM
100
AcDbLine
 10
-171.4272203702192
 20
47.57671694129805
 30
0.0
 11
-171.4274061703243
 21
47.57767094874981
 31
0.0
1001
REVIT
1002
{
1070
     2
1000
-2001320
1002
}
  0
LINE
  5
1ED
330
1E7
100
AcDbEntity
  8
S-BEAM
100
AcDbLine
 10
-171.4192674445357
 20
47.58693050566639
 30
0.0
 11
-171.4196242820945
 21
47.58761529695351
 31
0.0
1001
REVIT
1002
{
1070
     2
1000
-2001320
1002
}
  0
ENDBLK
  5
1EF
330
1E7
100
AcDbEntity
  8
0
100
AcDbBlockEnd
  0
BLOCK
  5
1F6
330
1F1
100
AcDbEntity
  8
0
100
AcDbBlockBegin
  2
FP_6-Perspective D78
 70
     0
 10
0.0
 20
0.0
 30
0.0
  3
FP_6-Perspective D78
  1

  0
LINE
  5
1F2
330
1F1
100
AcDbEntity
  8
S-BEAM
100
AcDbLine
 10
-171.4147546492213
 20
47.55346234033196
 30
0.0
 11
-171.4172730689606
 21
47.55574630968225
 31
0.0
1001
REVIT
1002
{
1070
     2
1000
-2001320
1002
}
  0
LINE
  5
1F3
330
1F1
100
AcDbEntity
  8
S-BEAM
100
AcDbLine
 10
-171.4172758413504
 20
47.55574956040331
 30
0.0
 11
-171.4195667620252
 21
47.56002538860799
 31
0.0
1001
REVIT
1002
{
1070
     2
1000
-2001320
1002
}
  0
LINE
  5
1F4
330
1F1
100
AcDbEntity
  8
S-BEAM
100
AcDbLine
 10
-171.4195697158064
 20
47.56002829659683
 30
0.0
 11
-171.4196105123938
 21
47.56062588833223
 31
0.0
1001
REVIT
1002
{
1070
     2
1000
-2001320
1002
}
  0
LINE
  5
1F5
330
1F1
100
AcDbEntity
  8
S-BEAM
100
AcDbLine
 10
-171.4216289022268
 20
47.55110509858368
 30
0.0
 11
-171.4255330007206
 21
47.55665459574113
 31
0.0
1001
REVIT
1002
{
1070
     2
1000
-2001320
1002
}
  0
ENDBLK
  5
1F7
330
1F1
100
AcDbEntity
  8
0
100
AcDbBlockEnd
  0
BLOCK
  5
200
330
1FC
100
AcDbEntity
  8
0
100
AcDbBlockBegin
  2
FP_7-Perspective D78
 70
     0
 10
0.0
 20
0.0
 30
0.0
  3
FP_7-Perspective D78
  1

  0
LINE
  5
1FD
330
1FC
100
AcDbEntity
  8
S-BEAM
100
AcDbLine
 10
-171.420216965416
 20
47.54687314113719
 30
0.0
 11
-171.4208917946963
 21
47.54749072264048
 31
0.0
1001
REVIT
1002
{
1070
     2
1000
-2001320
1002
}
  0
LINE
  5
1FE
330
1FC
100
AcDbEntity
  8
S-BEAM
100
AcDbLine
 10
-171.4208945525656
 20
47.54749399405659
 30
0.0
 11
-171.4215059927137
 21
47.54865435737212
 31
0.0
1001
REVIT
1002
{
1070
     2
1000
-2001320
1002
}
  0
LINE
  5
1FF
330
1FC
100
AcDbEntity
  8
S-BEAM
100
AcDbLine
 10
-171.4255550477765
 20
47.5431850935428
 30
0.0
 11
-171.4287247119752
 21
47.5477521336559
 31
0.0
1001
REVIT
1002
{
1070
     2
1000
-2001320
1002
}
  0
ENDBLK
  5
201
330
1FC
100
AcDbEntity
  8
0
100
AcDbBlockEnd
  0
BLOCK
  5
234
330
229
100
AcDbEntity
  8
0
100
AcDbBlockBegin
  2
FP_8-Perspective D78
 70
     0
 10
0.0
 20
0.0
 30
0.0
  3
FP_8-Perspective D78
  1

  0
LINE
  5
22A
330
229
100
AcDbEntity
  8
S-BEAM
100
AcDbLine
 10
-171.4134977699899
 20
47.5305458530371
 30
0.0
 11
-171.4150472710016
 21
47.53939032941751
 31
0.0
1001
REVIT
1002
{
1070
     2
1000
-2001320
1002
}
  0
LINE
  5
22B
330
229
100
AcDbEntity
  8
S-BEAM
100
AcDbLine
 10
-171.4165077595806
 20
47.5132913275874
 30
0.0
 11
-171.4168668825627
 21
47.5136801384812
 31
0.0
1001
REVIT
1002
{
1070
     2
1000
-2001320
1002
}
  0
LINE
  5
22C
330
229
100
AcDbEntity
  8
S-BEAM
100
AcDbLine
 10
-171.4150499472069
 20
47.53939383075662
 30
0.0
 11
-171.4168670960777
 21
47.54143850230572
 31
0.0
1001
REVIT
1002
{
1070
     2
1000
-2001320
1002
}
  0
LINE
  5
22D
330
229
100
AcDbEntity
  8
S-BEAM
100
AcDbLine
 10
-171.4168637957005
 20
47.5136766013465
 30
0.0
 11
-171.4192674445356
 21
47.51669087715001
 31
0.0
1001
REVIT
1002
{
1070
     2
1000
-2001320
1002
}
  0
LINE
  5
22E
330
229
100
AcDbEntity
  8
S-BEAM
100
AcDbLine
 10
-171.4168637301032
 20
47.5414345236826
 30
0.0
 11
-171.4192674445356
 21
47.54455113772309
 31
0.0
1001
REVIT
1002
{
1070
     2
1000
-2001320
1002
}
  0
LINE
  5
22F
330
229
100
AcDbEntity
  8
S-BEAM
100
AcDbLine
 10
-171.4113260978709
 20
47.51877382565363
 30
0.0
 11
-171.4124725222444
 21
47.52247343720141
 31
0.0
1001
REVIT
1002
{
1070
     2
1000
-2001320
1002
}
  0
LINE
  5
230
330
229
100
AcDbEntity
  8
S-BEAM
100
AcDbLine
 10
-171.411326097871
 20
47.54629619453522
 30
0.0
 11
-171.4124725908658
 21
47.55004480017228
 31
0.0
1001
REVIT
1002
{
1070
     2
1000
-2001320
1002
}
  0
LINE
  5
231
330
229
100
AcDbEntity
  8
S-BEAM
100
AcDbLine
 10
-171.4124678903077
 20
47.55003579133012
 30
0.0
 11
-171.4123658614085
 21
47.55229730423236
 31
0.0
1001
REVIT
1002
{
1070
     2
1000
-2001320
1002
}
  0
LINE
  5
232
330
229
100
AcDbEntity
  8
S-BEAM
100
AcDbLine
 10
-171.4124678885478
 20
47.52246473818598
 30
0.0
 11
-171.4122111701001
 21
47.52816593019625
 31
0.0
1001
REVIT
1002
{
1070
     2
1000
-2001320
1002
}
  0
LINE
  5
233
330
229
100
AcDbEntity
  8
S-BEAM
100
AcDbLine
 10
-171.412210174246
 20
47.5281671712696
 30
0.0
 11
-171.4134957962081
 21
47.53054461519114
 31
0.0
1001
REVIT
1002
{
1070
     2
1000
-2001320
1002
}
  0
ENDBLK
  5
235
330
229
100
AcDbEntity
  8
0
100
AcDbBlockEnd
  0
BLOCK
  5
245
330
23A
100
AcDbEntity
  8
0
100
AcDbBlockBegin
  2
FP_9-Perspective D78
 70
     0
 10
0.0
 20
0.0
 30
0.0
  3
FP_9-Perspective D78
  1

  0
LINE
  5
23B
330
23A
100
AcDbEntity
  8
S-BEAM
100
AcDbLine
 10
-171.4145200101217
 20
47.56403917900445
 30
0.0
 11
-171.415047254076
 21
47.56707109133365
 31
0.0
1001
REVIT
1002
{
1070
     2
1000
-2001320
1002
}
  0
LINE
  5
23C
330
23A
100
AcDbEntity
  8
S-BEAM
100
AcDbLine
 10
-171.4134977362994
 20
47.58577554167378
 30
0.0
 11
-171.4150472371503
 21
47.59475185180972
 31
0.0
1001
REVIT
1002
{
1070
     2
1000
-2001320
1002
}
  0
LINE
  5
23D
330
23A
100
AcDbEntity
  8
S-BEAM
100
AcDbLine
 10
-171.4150501595343
 20
47.56707490840565
 30
0.0
 11
-171.4168673095926
 21
47.56919688429659
 31
0.0
1001
REVIT
1002
{
1070
     2
1000
-2001320
1002
}
  0
LINE
  5
23E
330
23A
100
AcDbEntity
  8
S-BEAM
100
AcDbLine
 10
-171.4150503718619
 20
47.59475600412
 30
0.0
 11
-171.4168675231078
 21
47.59695528445382
 31
0.0
1001
REVIT
1002
{
1070
     2
1000
-2001320
1002
}
  0
LINE
  5
23F
330
23A
100
AcDbEntity
  8
S-BEAM
100
AcDbLine
 10
-171.416863664506
 20
47.56919244043764
 30
0.0
 11
-171.4192674445356
 21
47.57241139829615
 31
0.0
1001
REVIT
1002
{
1070
     2
1000
-2001320
1002
}
  0
LINE
  5
240
330
23A
100
AcDbEntity
  8
S-BEAM
100
AcDbLine
 10
-171.4168635989087
 20
47.59695035161154
 30
0.0
 11
-171.4174479954428
 21
47.59775779133565
 31
0.0
1001
REVIT
1002
{
1070
     2
1000
-2001320
1002
}
  0
LINE
  5
241
330
23A
100
AcDbEntity
  8
S-BEAM
100
AcDbLine
 10
-171.4113260978709
 20
47.57381856341678
 30
0.0
 11
-171.4124726594875
 21
47.57761616898164
 31
0.0
1001
REVIT
1002
{
1070
     2
1000
-2001320
1002
}
  0
LINE
  5
242
330
23A
100
AcDbEntity
  8
S-BEAM
100
AcDbLine
 10
-171.411326097871
 20
47.60134093229837
 30
0.0
 11
-171.4113732921752
 21
47.60149925547838
 31
0.0
1001
REVIT
1002
{
1070
     2
1000
-2001320
1002
}
  0
LINE
  5
243
330
23A
100
AcDbEntity
  8
S-BEAM
100
AcDbLine
 10
-171.4124678920675
 20
47.57760684462399
 30
0.0
 11
-171.4122111736168
 21
47.58328619459957
 31
0.0
1001
REVIT
1002
{
1070
     2
1000
-2001320
1002
}
  0
LINE
  5
244
330
23A
100
AcDbEntity
  8
S-BEAM
100
AcDbLine
 10
-171.412210013643
 20
47.58328702395186
 30
0.0
 11
-171.4134956349669
 21
47.58577384962711
 31
0.0
1001
REVIT
1002
{
1070
     2
1000
-2001320
1002
}
  0
ENDBLK
  5
246
330
23A
100
AcDbEntity
  8
0
100
AcDbBlockEnd
  0
BLOCK
  5
24B
330
248
100
AcDbEntity
  8
0
100
AcDbBlockBegin
  2
FP_10-Perspective D78
 70
     0
 10
0.0
 20
0.0
 30
0.0
  3
FP_10-Perspective D78
  1

  0
LINE
  5
249
330
248
100
AcDbEntity
  8
S-BEAM
100
AcDbLine
 10
-171.4089456062825
 20
47.55745062638947
 30
0.0
 11
-171.4140337323713
 21
47.56203163883996
 31
0.0
1001
REVIT
1002
{
1070
     2
1000
-2001320
1002
}
  0
LINE
  5
24A
330
248
100
AcDbEntity
  8
S-BEAM
100
AcDbLine
 10
-171.4140365231501
 20
47.56203488055651
 30
0.0
 11
-171.4149636709389
 21
47.56374180279649
 31
0.0
1001
REVIT
1002
{
1070
     2
1000
-2001320
1002
}
  0
ENDBLK
  5
24C
330
248
100
AcDbEntity
  8
0
100
AcDbBlockEnd
  0
BLOCK
  5
253
330
251
100
AcDbEntity
  8
0
100
AcDbBlockBegin
  2
FP_11-Perspective D78
 70
     0
 10
0.0
 20
0.0
 30
0.0
  3
FP_11-Perspective D78
  1

  0
LINE
  5
252
330
251
100
AcDbEntity
  8
S-BEAM
100
AcDbLine
 10
-171.41439652853
 20
47.55089444444521
 30
0.0
 11
-171.4154794475025
 21
47.55187828118173
 31
0.0
1001
REVIT
1002
{
1070
     2
1000
-2001320
1002
}
  0
ENDBLK
  5
254
330
251
100
AcDbEntity
  8
0
100
AcDbBlockEnd
  0
ENDSEC
  0
SECTION
  2
ENTITIES
  0
LINE
  5
1CA
330
6C
100
AcDbEntity
  8
0
 62
     0
370
     0
100
AcDbLine
 10
-171.461711151556
 20
47.51329826697162
 30
0.0
 11
-171.461711151556
 21
47.47436934036449
 31
0.0
1001
REVIT
1002
{
1070
     1
1000
248186
1002
}
1002
{
1070
     5
1000
248184
1002
}
1002
{
1070
     2
1000
-2001320
1002
}
  0
LINE
  5
1CB
330
6C
100
AcDbEntity
  8
0
 62
     0
370
     0
100
AcDbLine
 10
-171.4814619897378
 20
47.51596196583942
 30
0.0
 11
-171.5146885640503
 21
47.52387976831029
 31
0.0
1001
REVIT
1002
{
1070
     1
1000
248186
1002
}
1002
{
1070
     5
1000
248184
1002
}
1002
{
1070
     2
1000
-2001320
1002
}
  0
LINE
  5
1CC
330
6C
100
AcDbEntity
  8
0
 62
     0
370
     0
100
AcDbLine
 10
-171.5146885640503
 20
47.52387976831029
 30
0.0
 11
-171.5146885640503
 21
47.46832375436177
 31
0.0
1001
REVIT
1002
{
1070
     1
1000
248186
1002
}
1002
{
1070
     5
1000
248184
1002
}
1002
{
1070
     2
1000
-2001320
1002
}
  0
LINE
  5
1CD
330
6C
100
AcDbEntity
  8
0
 62
     0
370
     0
100
AcDbLine
 10
-171.5146885640503
 20
47.46832375436177
 30
0.0
 11
-171.4997677614054
 21
47.46435328451137
 31
0.0
1001
REVIT
1002
{
1070
     1
1000
248186
1002
}
1002
{
1070
     5
1000
248184
1002
}
1002
{
1070
     2
1000
-2001320
1002
}
  0
LINE
  5
1CE
330
6C
100
AcDbEntity
  8
0
 62
     0
370
     0
100
AcDbLine
 10
-171.4997677614054
 20
47.46435328451137
 30
0.0
 11
-171.4982954431999
 21
47.46696399249032
 31
0.0
1001
REVIT
1002
{
1070
     1
1000
248186
1002
}
1002
{
1070
     5
1000
248184
1002
}
1002
{
1070
     2
1000
-2001320
1002
}
  0
LINE
  5
1CF
330
6C
100
AcDbEntity
  8
0
 62
     0
370
     0
100
AcDbLine
 10
-171.4982954431999
 20
47.46696399249032
 30
0.0
 11
-171.4968776902835
 21
47.46036367456775
 31
0.0
1001
REVIT
1002
{
1070
     1
1000
248186
1002
}
1002
{
1070
     5
1000
248184
1002
}
1002
{
1070
     2
1000
-2001320
1002
}
  0
LINE
  5
1D0
330
6C
100
AcDbEntity
  8
0
 62
     0
370
     0
100
AcDbLine
 10
-171.4968776902835
 20
47.46036367456775
 30
0.0
 11
-171.4952949353517
 21
47.46316305222861
 31
0.0
1001
REVIT
1002
{
1070
     1
1000
248186
1002
}
1002
{
1070
     5
1000
248184
1002
}
1002
{
1070
     2
1000
-2001320
1002
}
  0
LINE
  5
1D1
330
6C
100
AcDbEntity
  8
0
 62
     0
370
     0
100
AcDbLine
 10
-171.4952949353517
 20
47.46316305222861
 30
0.0
 11
-171.4814619897378
 21
47.45948206436159
 31
0.0
1001
REVIT
1002
{
1070
     1
1000
248186
1002
}
1002
{
1070
     5
1000
248184
1002
}
1002
{
1070
     2
1000
-2001320
1002
}
  0
LINE
  5
1D2
330
6C
100
AcDbEntity
  8
0
 62
     0
370
     0
100
AcDbLine
 10
-171.4814619897378
 20
47.45948206436159
 30
0.0
 11
-171.4814619897378
 21
47.51596196583942
 31
0.0
1001
REVIT
1002
{
1070
     1
1000
248186
1002
}
1002
{
1070
     5
1000
248184
1002
}
1002
{
1070
     2
1000
-2001320
1002
}
  0
LINE
  5
1D3
330
6C
100
AcDbEntity
  8
0
 62
     0
370
     0
100
AcDbLine
 10
-171.4814619897378
 20
47.51596196583942
 30
0.0
 11
-171.4796531001362
 21
47.51718295315019
 31
0.0
1001
REVIT
1002
{
1070
     1
1000
248186
1002
}
1002
{
1070
     5
1000
248184
1002
}
1002
{
1070
     2
1000
-2001320
1002
}
  0
LINE
  5
1D4
330
6C
100
AcDbEntity
  8
0
 62
     0
370
     0
100
AcDbLine
 10
-171.5128267439862
 20
47.52506118572047
 30
0.0
 11
-171.5146885640503
 21
47.52387976831029
 31
0.0
1001
REVIT
1002
{
1070
     1
1000
248186
1002
}
1002
{
1070
     5
1000
248184
1002
}
1002
{
1070
     2
1000
-2001320
1002
}
  0
LINE
  5
1D5
330
6C
100
AcDbEntity
  8
0
 62
     0
370
     0
100
AcDbLine
 10
-171.498009714607
 20
47.46563378922934
 30
0.0
 11
-171.4997677614054
 21
47.46435328451137
 31
0.0
1001
REVIT
1002
{
1070
     1
1000
248186
1002
}
1002
{
1070
     5
1000
248184
1002
}
1002
{
1070
     2
1000
-2001320
1002
}
  0
LINE
  5
1D6
330
6C
100
AcDbEntity
  8
0
 62
     0
370
     0
100
AcDbLine
 10
-171.4936661001697
 20
47.46272961435432
 30
0.0
 11
-171.4968776902835
 21
47.46036367456775
 31
0.0
1001
REVIT
1002
{
1070
     1
1000
248186
1002
}
1002
{
1070
     5
1000
248184
1002
}
1002
{
1070
     2
1000
-2001320
1002
}
  0
LINE
  5
1D7
330
6C
100
AcDbEntity
  8
0
 62
     0
370
     0
100
AcDbLine
 10
-171.461711151556
 20
47.47436934036449
 30
0.0
 11
-171.4814619897378
 21
47.45948206436159
 31
0.0
1001
REVIT
1002
{
1070
     1
1000
248186
1002
}
1002
{
1070
     5
1000
248184
1002
}
1002
{
1070
     2
1000
-2001320
1002
}
  0
LINE
  5
20F
330
6C
100
AcDbEntity
  8
0
 62
     0
370
     0
100
AcDbLine
 10
-171.5512112065698
 20
47.62206013943437
 30
0.0
 11
-171.4192674445356
 21
47.59663717634581
 31
0.0
1001
REVIT
1002
{
1070
     1
1000
248186
1002
}
1002
{
1070
     5
1000
248184
1002
}
1002
{
1070
     2
1000
-2001320
1002
}
  0
LINE
  5
210
330
6C
100
AcDbEntity
  8
0
 62
     0
370
     0
100
AcDbLine
 10
-171.4192674445356
 20
47.59663717634581
 30
0.0
 11
-171.4192674445356
 21
47.56085581161144
 31
0.0
1001
REVIT
1002
{
1070
     1
1000
248186
1002
}
1002
{
1070
     5
1000
248184
1002
}
1002
{
1070
     2
1000
-2001320
1002
}
  0
LINE
  5
211
330
6C
100
AcDbEntity
  8
0
 62
     0
370
     0
100
AcDbLine
 10
-171.4192674445356
 20
47.56085581161144
 30
0.0
 11
-171.4119008250618
 21
47.55542155854042
 31
0.0
1001
REVIT
1002
{
1070
     1
1000
248186
1002
}
1002
{
1070
     5
1000
248184
1002
}
1002
{
1070
     2
1000
-2001320
1002
}
  0
LINE
  5
212
330
6C
100
AcDbEntity
  8
0
 62
     0
370
     0
100
AcDbLine
 10
-171.4208842705441
 20
47.54873204538495
 30
0.0
 11
-171.4192674445356
 21
47.54752904254408
 31
0.0
1001
REVIT
1002
{
1070
     1
1000
248186
1002
}
1002
{
1070
     5
1000
248184
1002
}
1002
{
1070
     2
1000
-2001320
1002
}
  0
LINE
  5
213
330
6C
100
AcDbEntity
  8
0
 62
     0
370
     0
100
AcDbLine
 10
-171.4192674445356
 20
47.54752904254408
 30
0.0
 11
-171.4192674445356
 21
47.51123172625582
 31
0.0
1001
REVIT
1002
{
1070
     1
1000
248186
1002
}
1002
{
1070
     5
1000
248184
1002
}
1002
{
1070
     2
1000
-2001320
1002
}
  0
LINE
  5
214
330
6C
100
AcDbEntity
  8
0
 62
     0
370
     0
100
AcDbLine
 10
-171.5603661570106
 20
47.61766283471797
 30
0.0
 11
-171.5603661570106
 21
47.5837466065477
 31
0.0
1001
REVIT
1002
{
1070
     1
1000
248186
1002
}
1002
{
1070
     5
1000
248184
1002
}
1002
{
1070
     2
1000
-2001320
1002
}
  0
LINE
  5
215
330
6C
100
AcDbEntity
  8
0
 62
     0
370
     0
100
AcDbLine
 10
-171.5603661570106
 20
47.5837466065477
 30
0.0
 11
-171.5668338185353
 21
47.58146443639268
 31
0.0
1001
REVIT
1002
{
1070
     1
1000
248186
1002
}
1002
{
1070
     5
1000
248184
1002
}
1002
{
1070
     2
1000
-2001320
1002
}
  0
LINE
  5
216
330
6C
100
AcDbEntity
  8
0
 62
     0
370
     0
100
AcDbLine
 10
-171.5668338185353
 20
47.58146443639268
 30
0.0
 11
-171.5543034966034
 21
47.57321454259709
 31
0.0
1001
REVIT
1002
{
1070
     1
1000
248186
1002
}
1002
{
1070
     5
1000
248184
1002
}
1002
{
1070
     2
1000
-2001320
1002
}
  0
LINE
  5
217
330
6C
100
AcDbEntity
  8
0
 62
     0
370
     0
100
AcDbLine
 10
-171.5543034966034
 20
47.57321454259709
 30
0.0
 11
-171.5603661570106
 21
47.57111450758176
 31
0.0
1001
REVIT
1002
{
1070
     1
1000
248186
1002
}
1002
{
1070
     5
1000
248184
1002
}
1002
{
1070
     2
1000
-2001320
1002
}
  0
LINE
  5
218
330
6C
100
AcDbEntity
  8
0
 62
     0
370
     0
100
AcDbLine
 10
-171.5603661570106
 20
47.57111450758176
 30
0.0
 11
-171.5603661570106
 21
47.53670922230713
 31
0.0
1001
REVIT
1002
{
1070
     1
1000
248186
1002
}
1002
{
1070
     5
1000
248184
1002
}
1002
{
1070
     2
1000
-2001320
1002
}
  0
LINE
  5
219
330
6C
100
AcDbEntity
  8
0
 62
     0
370
     0
100
AcDbLine
 10
-171.5603661570106
 20
47.53670922230713
 30
0.0
 11
-171.5109303638893
 21
47.52497804719435
 31
0.0
1001
REVIT
1002
{
1070
     1
1000
248186
1002
}
1002
{
1070
     5
1000
248184
1002
}
1002
{
1070
     2
1000
-2001320
1002
}
  0
LINE
  5
21A
330
6C
100
AcDbEntity
  8
0
 62
     0
370
     0
100
AcDbLine
 10
-171.4833823318327
 20
47.51844086496945
 30
0.0
 11
-171.4274061703243
 21
47.5051576523145
 31
0.0
1001
REVIT
1002
{
1070
     1
1000
248186
1002
}
1002
{
1070
     5
1000
248184
1002
}
1002
{
1070
     2
1000
-2001320
1002
}
  0
LINE
  5
21B
330
6C
100
AcDbEntity
  8
0
 62
     0
370
     0
100
AcDbLine
 10
-171.4274061703243
 20
47.5051576523145
 30
0.0
 11
-171.4274061703243
 21
47.54190604653652
 31
0.0
1001
REVIT
1002
{
1070
     1
1000
248186
1002
}
1002
{
1070
     5
1000
248184
1002
}
1002
{
1070
     2
1000
-2001320
1002
}
  0
LINE
  5
21C
330
6C
100
AcDbEntity
  8
0
 62
     0
370
     0
100
AcDbLine
 10
-171.4274061703243
 20
47.54190604653652
 30
0.0
 11
-171.4342785865462
 21
47.54705797130743
 31
0.0
1001
REVIT
1002
{
1070
     1
1000
248186
1002
}
1002
{
1070
     5
1000
248184
1002
}
1002
{
1070
     2
1000
-2001320
1002
}
  0
LINE
  5
21D
330
6C
100
AcDbEntity
  8
0
 62
     0
370
     0
100
AcDbLine
 10
-171.4342785865462
 20
47.54705797130743
 30
0.0
 11
-171.4199766741588
 21
47.54987696105144
 31
0.0
1001
REVIT
1002
{
1070
     1
1000
248186
1002
}
1002
{
1070
     5
1000
248184
1002
}
1002
{
1070
     2
1000
-2001320
1002
}
  0
LINE
  5
21E
330
6C
100
AcDbEntity
  8
0
 62
     0
370
     0
100
AcDbLine
 10
-171.4199766741588
 20
47.54987696105144
 30
0.0
 11
-171.4274061703243
 21
47.55539843146944
 31
0.0
1001
REVIT
1002
{
1070
     1
1000
248186
1002
}
1002
{
1070
     5
1000
248184
1002
}
1002
{
1070
     2
1000
-2001320
1002
}
  0
LINE
  5
21F
330
6C
100
AcDbEntity
  8
0
 62
     0
370
     0
100
AcDbLine
 10
-171.4274061703243
 20
47.55539843146944
 30
0.0
 11
-171.4274061703243
 21
47.59162446224863
 31
0.0
1001
REVIT
1002
{
1070
     1
1000
248186
1002
}
1002
{
1070
     5
1000
248184
1002
}
1002
{
1070
     2
1000
-2001320
1002
}
  0
LINE
  5
220
330
6C
100
AcDbEntity
  8
0
 62
     0
370
     0
100
AcDbLine
 10
-171.4274061703243
 20
47.59162446224863
 30
0.0
 11
-171.5603661570106
 21
47.61766283471797
 31
0.0
1001
REVIT
1002
{
1070
     1
1000
248186
1002
}
1002
{
1070
     5
1000
248184
1002
}
1002
{
1070
     2
1000
-2001320
1002
}
  0
LINE
  5
221
330
6C
100
AcDbEntity
  8
0
 62
     0
370
     0
100
AcDbLine
 10
-171.5512112065698
 20
47.62206013943437
 30
0.0
 11
-171.5603661570106
 21
47.61766283471797
 31
0.0
1001
REVIT
1002
{
1070
     1
1000
248186
1002
}
1002
{
1070
     5
1000
248184
1002
}
1002
{
1070
     2
1000
-2001320
1002
}
  0
LINE
  5
222
330
6C
100
AcDbEntity
  8
0
 62
     0
370
     0
100
AcDbLine
 10
-171.4192674445356
 20
47.54752904254408
 30
0.0
 11
-171.4274061703243
 21
47.54190604653652
 31
0.0
1001
REVIT
1002
{
1070
     1
1000
248186
1002
}
1002
{
1070
     5
1000
248184
1002
}
1002
{
1070
     2
1000
-2001320
1002
}
  0
LINE
  5
223
330
6C
100
AcDbEntity
  8
0
 62
     0
370
     0
100
AcDbLine
 10
-171.4274061703243
 20
47.5051576523145
 30
0.0
 11
-171.4192674445356
 21
47.51123172625582
 31
0.0
1001
REVIT
1002
{
1070
     1
1000
248186
1002
}
1002
{
1070
     5
1000
248184
1002
}
1002
{
1070
     2
1000
-2001320
1002
}
  0
LINE
  5
224
330
6C
100
AcDbEntity
  8
0
 62
     0
370
     0
100
AcDbLine
 10
-171.4274061703243
 20
47.59162446224863
 30
0.0
 11
-171.4192674445356
 21
47.59663717634581
 31
0.0
1001
REVIT
1002
{
1070
     1
1000
248186
1002
}
1002
{
1070
     5
1000
248184
1002
}
1002
{
1070
     2
1000
-2001320
1002
}
  0
LINE
  5
225
330
6C
100
AcDbEntity
  8
0
 62
     0
370
     0
100
AcDbLine
 10
-171.4274061703243
 20
47.55539843146944
 30
0.0
 11
-171.4192674445356
 21
47.56085581161144
 31
0.0
1001
REVIT
1002
{
1070
     1
1000
248186
1002
}
1002
{
1070
     5
1000
248184
1002
}
1002
{
1070
     2
1000
-2001320
1002
}
  0
LINE
  5
226
330
6C
100
AcDbEntity
  8
0
 62
     0
370
     0
100
AcDbLine
 10
-171.4199766741588
 20
47.54987696105144
 30
0.0
 11
-171.4119008250618
 21
47.55542155854042
 31
0.0
1001
REVIT
1002
{
1070
     1
1000
248186
1002
}
1002
{
1070
     5
1000
248184
1002
}
1002
{
1070
     2
1000
-2001320
1002
}
  0
LINE
  5
227
330
6C
100
AcDbEntity
  8
0
 62
     0
370
     0
100
AcDbLine
 10
-171.5603661570106
 20
47.57111450758176
 30
0.0
 11
-171.5556843404961
 21
47.57363705763974
 31
0.0
1001
REVIT
1002
{
1070
     1
1000
248186
1002
}
1002
{
1070
     5
1000
248184
1002
}
1002
{
1070
     2
1000
-2001320
1002
}
  0
LINE
  5
228
330
6C
100
AcDbEntity
  8
0
 62
     0
370
     0
100
AcDbLine
 10
-171.5668338185353
 20
47.58146443639268
 30
0.0
 11
-171.56048995672
 21
47.58477312335517
 31
0.0
1001
REVIT
1002
{
1070
     1
1000
248186
1002
}
1002
{
1070
     5
1000
248184
1002
}
1002
{
1070
     2
1000
-2001320
1002
}
  0
LINE
  5
262
330
6C
100
AcDbEntity
  8
0
 62
     0
370
     0
100
AcDbLine
 10
-171.5422644460365
 20
47.62635744639897
 30
0.0
 11
-171.411326097871
 21
47.601528322873
 31
0.0
1001
REVIT
1002
{
1070
     1
1000
248186
1002
}
1002
{
1070
     5
1000
248184
1002
}
1002
{
1070
     2
1000
-2001320
1002
}
  0
LINE
  5
263
330
6C
100
AcDbEntity
  8
0
 62
     0
370
     0
100
AcDbLine
 10
-171.411326097871
 20
47.601528322873
 30
0.0
 11
-171.411326097871
 21
47.56618084021104
 31
0.0
1001
REVIT
1002
{
1070
     1
1000
248186
1002
}
1002
{
1070
     5
1000
248184
1002
}
1002
{
1070
     2
1000
-2001320
1002
}
  0
LINE
  5
264
330
6C
100
AcDbEntity
  8
0
 62
     0
370
     0
100
AcDbLine
 10
-171.411326097871
 20
47.56618084021104
 30
0.0
 11
-171.4040215110225
 21
47.56083122188505
 31
0.0
1001
REVIT
1002
{
1070
     1
1000
248186
1002
}
1002
{
1070
     5
1000
248184
1002
}
1002
{
1070
     2
1000
-2001320
1002
}
  0
LINE
  5
265
330
6C
100
AcDbEntity
  8
0
 62
     0
370
     0
100
AcDbLine
 10
-171.4132910757253
 20
47.55446706072286
 30
0.0
 11
-171.411326097871
 21
47.55301567051879
 31
0.0
1001
REVIT
1002
{
1070
     1
1000
248186
1002
}
1002
{
1070
     5
1000
248184
1002
}
1002
{
1070
     2
1000
-2001320
1002
}
  0
LINE
  5
266
330
6C
100
AcDbEntity
  8
0
 62
     0
370
     0
100
AcDbLine
 10
-171.411326097871
 20
47.55301567051879
 30
0.0
 11
-171.411326097871
 21
47.51715849269173
 31
0.0
1001
REVIT
1002
{
1070
     1
1000
248186
1002
}
1002
{
1070
     5
1000
248184
1002
}
1002
{
1070
     2
1000
-2001320
1002
}
  0
LINE
  5
267
330
6C
100
AcDbEntity
  8
0
 62
     0
370
     0
100
AcDbLine
 10
-171.4192674445355
 20
47.51123172625582
 30
0.0
 11
-171.4192674445355
 21
47.54752904254408
 31
0.0
1001
REVIT
1002
{
1070
     1
1000
248186
1002
}
1002
{
1070
     5
1000
248184
1002
}
1002
{
1070
     2
1000
-2001320
1002
}
  0
LINE
  5
268
330
6C
100
AcDbEntity
  8
0
 62
     0
370
     0
100
AcDbLine
 10
-171.4192674445355
 20
47.54752904254408
 30
0.0
 11
-171.4219106903823
 21
47.54949575525525
 31
0.0
1001
REVIT
1002
{
1070
     1
1000
248186
1002
}
1002
{
1070
     5
1000
248184
1002
}
1002
{
1070
     2
1000
-2001320
1002
}
  0
LINE
  5
269
330
6C
100
AcDbEntity
  8
0
 62
     0
370
     0
100
AcDbLine
 10
-171.4119008250618
 20
47.55542155854042
 30
0.0
 11
-171.4192674445355
 21
47.56085581161144
 31
0.0
1001
REVIT
1002
{
1070
     1
1000
248186
1002
}
1002
{
1070
     5
1000
248184
1002
}
1002
{
1070
     2
1000
-2001320
1002
}
  0
LINE
  5
26A
330
6C
100
AcDbEntity
  8
0
 62
     0
370
     0
100
AcDbLine
 10
-171.4192674445355
 20
47.56085581161144
 30
0.0
 11
-171.4192674445355
 21
47.59663717634581
 31
0.0
1001
REVIT
1002
{
1070
     1
1000
248186
1002
}
1002
{
1070
     5
1000
248184
1002
}
1002
{
1070
     2
1000
-2001320
1002
}
  0
LINE
  5
26B
330
6C
100
AcDbEntity
  8
0
 62
     0
370
     0
100
AcDbLine
 10
-171.4192674445355
 20
47.59663717634581
 30
0.0
 11
-171.5512112065696
 21
47.62206013943437
 31
0.0
1001
REVIT
1002
{
1070
     1
1000
248186
1002
}
1002
{
1070
     5
1000
248184
1002
}
1002
{
1070
     2
1000
-2001320
1002
}
  0
LINE
  5
26C
330
6C
100
AcDbEntity
  8
0
 62
     0
370
     0
100
AcDbLine
 10
-171.5422644460365
 20
47.62635744639897
 30
0.0
 11
-171.5512112065696
 21
47.62206013943437
 31
0.0
1001
REVIT
1002
{
1070
     1
1000
248186
1002
}
1002
{
1070
     5
1000
248184
1002
}
1002
{
1070
     2
1000
-2001320
1002
}
  0
LINE
  5
26D
330
6C
100
AcDbEntity
  8
0
 62
     0
370
     0
100
AcDbLine
 10
-171.411326097871
 20
47.55301567051879
 30
0.0
 11
-171.4192674445355
 21
47.54752904254408
 31
0.0
1001
REVIT
1002
{
1070
     1
1000
248186
1002
}
1002
{
1070
     5
1000
248184
1002
}
1002
{
1070
     2
1000
-2001320
1002
}
  0
LINE
  5
26E
330
6C
100
AcDbEntity
  8
0
 62
     0
370
     0
100
AcDbLine
 10
-171.4192674445355
 20
47.51123172625582
 30
0.0
 11
-171.411326097871
 21
47.51715849269173
 31
0.0
1001
REVIT
1002
{
1070
     1
1000
248186
1002
}
1002
{
1070
     5
1000
248184
1002
}
1002
{
1070
     2
1000
-2001320
1002
}
  0
LINE
  5
26F
330
6C
100
AcDbEntity
  8
0
 62
     0
370
     0
100
AcDbLine
 10
-171.4192674445355
 20
47.59663717634581
 30
0.0
 11
-171.411326097871
 21
47.601528322873
 31
0.0
1001
REVIT
1002
{
1070
     1
1000
248186
1002
}
1002
{
1070
     5
1000
248184
1002
}
1002
{
1070
     2
1000
-2001320
1002
}
  0
LINE
  5
270
330
6C
100
AcDbEntity
  8
0
 62
     0
370
     0
100
AcDbLine
 10
-171.4192674445355
 20
47.56085581161144
 30
0.0
 11
-171.411326097871
 21
47.56618084021104
 31
0.0
1001
REVIT
1002
{
1070
     1
1000
248186
1002
}
1002
{
1070
     5
1000
248184
1002
}
1002
{
1070
     2
1000
-2001320
1002
}
  0
LINE
  5
271
330
6C
100
AcDbEntity
  8
0
 62
     0
370
     0
100
AcDbLine
 10
-171.4119008250618
 20
47.55542155854042
 30
0.0
 11
-171.4040215110225
 21
47.56083122188505
 31
0.0
1001
REVIT
1002
{
1070
     1
1000
248186
1002
}
1002
{
1070
     5
1000
248184
1002
}
1002
{
1070
     2
1000
-2001320
1002
}
  0
LINE
  5
275
330
6C
100
AcDbEntity
  8
0
 62
     0
370
     0
100
AcDbLine
 10
-171.4833179675986
 20
47.51753116830733
 30
0.0
 11
-171.5106054495476
 21
47.52401807749822
 31
0.0
1001
REVIT
1002
{
1070
     1
1000
249276
1002
}
1002
{
1070
     5
1000
249148
1002
}
1002
{
1070
     2
1000
-2000196
1002
}
1002
{
1070
     3
1000
249093
1002
}
  0
LINE
  5
276
330
6C
100
AcDbEntity
  8
0
 62
     0
370
     0
100
AcDbLine
 10
-171.4994778467448
 20
47.55446843056794
 30
0.0
 11
-171.4947360473242
 21
47.55341905635695
 31
0.0
1001
REVIT
1002
{
1070
     1
1000
249276
1002
}
1002
{
1070
     5
1000
249148
1002
}
1002
{
1070
     2
1000
-2000196
1002
}
1002
{
1070
     3
1000
249093
1002
}
  0
LINE
  5
277
330
6C
100
AcDbEntity
  8
0
 62
     0
370
     0
100
AcDbLine
 10
-171.4947360473242
 20
47.55341905635695
 30
0.0
 11
-171.4833842475456
 21
47.53757470599849
 31
0.0
1001
REVIT
1002
{
1070
     1
1000
249276
1002
}
1002
{
1070
     5
1000
249148
1002
}
1002
{
1070
     2
1000
-2000196
1002
}
1002
{
1070
     3
1000
249093
1002
}
  0
LINE
  5
278
330
6C
100
AcDbEntity
  8
0
 62
     0
370
     0
100
AcDbLine
 10
-171.4833842475456
 20
47.53757470599849
 30
0.0
 11
-171.4833842475456
 21
47.51844365582876
 31
0.0
1001
REVIT
1002
{
1070
     1
1000
249276
1002
}
1002
{
1070
     5
1000
249148
1002
}
1002
{
1070
     2
1000
-2000196
1002
}
1002
{
1070
     3
1000
249093
1002
}
  0
LINE
  5
2A1
330
6C
100
AcDbEntity
  8
0
 62
     0
370
     0
100
AcDbLine
 10
-171.4958448070793
 20
47.53388784765529
 30
0.0
 11
-171.4967889822844
 21
47.53304132287675
 31
0.0
1001
REVIT
1002
{
1070
     1
1000
249276
1002
}
1002
{
1070
     5
1000
249148
1002
}
1002
{
1070
     2
1000
-2000196
1002
}
1002
{
1070
     3
1000
249093
1002
}
  0
LINE
  5
2A2
330
6C
100
AcDbEntity
  8
0
 62
     0
370
     0
100
AcDbLine
 10
-171.4993592623497
 20
47.53459683770759
 30
0.0
 11
-171.4993482956884
 21
47.53469760758069
 31
0.0
1001
REVIT
1002
{
1070
     1
1000
249276
1002
}
1002
{
1070
     5
1000
249148
1002
}
1002
{
1070
     2
1000
-2000196
1002
}
1002
{
1070
     3
1000
249093
1002
}
  0
LINE
  5
2A3
330
6C
100
AcDbEntity
  8
0
 62
     0
370
     0
100
AcDbLine
 10
-171.4959945331634
 20
47.53452582112383
 30
0.0
 11
-171.4967183772728
 21
47.53469289116837
 31
0.0
1001
REVIT
1002
{
1070
     1
1000
249276
1002
}
1002
{
1070
     5
1000
249148
1002
}
1002
{
1070
     2
1000
-2000196
1002
}
1002
{
1070
     3
1000
249093
1002
}
  0
LINE
  5
2A4
330
6C
100
AcDbEntity
  8
0
 62
     0
370
     0
100
AcDbLine
 10
-171.4968137293553
 20
47.53355048356911
 30
0.0
 11
-171.4959945331634
 21
47.53452582112383
 31
0.0
1001
REVIT
1002
{
1070
     1
1000
249276
1002
}
1002
{
1070
     5
1000
249148
1002
}
1002
{
1070
     2
1000
-2000196
1002
}
1002
{
1070
     3
1000
249093
1002
}
  0
LINE
  5
2A5
330
6C
100
AcDbEntity
  8
0
 62
     0
370
     0
100
AcDbLine
 10
-171.4989367734158
 20
47.53520491791218
 30
0.0
 11
-171.4996134218411
 21
47.53536109474792
 31
0.0
1001
REVIT
1002
{
1070
     1
1000
249276
1002
}
1002
{
1070
     5
1000
249148
1002
}
1002
{
1070
     2
1000
-2000196
1002
}
1002
{
1070
     3
1000
249093
1002
}
  0
LINE
  5
2A6
330
6C
100
AcDbEntity
  8
0
 62
     0
370
     0
100
AcDbLine
 10
-171.4951414946452
 20
47.53432893179177
 30
0.0
 11
-171.4959945331634
 21
47.53452582112383
 31
0.0
1001
REVIT
1002
{
1070
     1
1000
249276
1002
}
1002
{
1070
     5
1000
249148
1002
}
1002
{
1070
     2
1000
-2000196
1002
}
1002
{
1070
     3
1000
249093
1002
}
  0
LINE
  5
2A7
330
6C
100
AcDbEntity
  8
0
 62
     0
370
     0
100
AcDbLine
 10
-171.4836511955625
 20
47.53740302379839
 30
0.0
 11
-171.495005692445
 21
47.55325418441666
 31
0.0
1001
REVIT
1002
{
1070
     1
1000
249276
1002
}
1002
{
1070
     5
1000
249148
1002
}
1002
{
1070
     2
1000
-2000196
1002
}
1002
{
1070
     3
1000
249093
1002
}
  0
LINE
  5
2A8
330
6C
100
AcDbEntity
  8
0
 62
     0
370
     0
100
AcDbLine
 10
-171.495005692445
 20
47.55325418441666
 30
0.0
 11
-171.4997486045175
 21
47.55430433269056
 31
0.0
1001
REVIT
1002
{
1070
     1
1000
249276
1002
}
1002
{
1070
     5
1000
249148
1002
}
1002
{
1070
     2
1000
-2000196
1002
}
1002
{
1070
     3
1000
249093
1002
}
  0
LINE
  5
2A9
330
6C
100
AcDbEntity
  8
0
 62
     0
370
     0
100
AcDbLine
 10
-171.4997486045175
 20
47.55430433269056
 30
0.0
 11
-171.5109241507779
 21
47.5436209121297
 31
0.0
1001
REVIT
1002
{
1070
     1
1000
249276
1002
}
1002
{
1070
     5
1000
249148
1002
}
1002
{
1070
     2
1000
-2000196
1002
}
1002
{
1070
     3
1000
249093
1002
}
  0
LINE
  5
2AA
330
6C
100
AcDbEntity
  8
0
 62
     0
370
     0
100
AcDbLine
 10
-171.5109241507779
 20
47.5436209121297
 30
0.0
 11
-171.5109241507779
 21
47.52474000025112
 31
0.0
1001
REVIT
1002
{
1070
     1
1000
249276
1002
}
1002
{
1070
     5
1000
249148
1002
}
1002
{
1070
     2
1000
-2000196
1002
}
1002
{
1070
     3
1000
249093
1002
}
  0
LINE
  5
2AC
330
6C
100
AcDbEntity
  8
0
 62
     0
370
     0
100
AcDbLine
 10
-171.4836511955625
 20
47.51826487094456
 30
0.0
 11
-171.4836511955625
 21
47.53740302379839
 31
0.0
1001
REVIT
1002
{
1070
     1
1000
249276
1002
}
1002
{
1070
     5
1000
249148
1002
}
1002
{
1070
     2
1000
-2000196
1002
}
1002
{
1070
     3
1000
249093
1002
}
  0
LINE
  5
2AD
330
6C
100
AcDbEntity
  8
0
 62
     0
370
     0
100
AcDbLine
 10
-171.5135468883594
 20
47.52460421830629
 30
0.0
 11
-171.5135468883594
 21
47.52472413323885
 31
0.0
1001
REVIT
1002
{
1070
     1
1000
249276
1002
}
1002
{
1070
     5
1000
249148
1002
}
1002
{
1070
     2
1000
-2000196
1002
}
1002
{
1070
     3
1000
249093
1002
}
  0
LINE
  5
2AE
330
6C
100
AcDbEntity
  8
0
 62
     0
370
     0
100
AcDbLine
 10
-171.4721219441459
 20
47.48959245304926
 30
0.0
 11
-171.4789084923287
 21
47.49804162203393
 31
0.0
1001
REVIT
1002
{
1070
     1
1000
249276
1002
}
1002
{
1070
     5
1000
249148
1002
}
1002
{
1070
     2
1000
-2000196
1002
}
1002
{
1070
     3
1000
249093
1002
}
  0
LINE
  5
2AF
330
6C
100
AcDbEntity
  8
0
 62
     0
370
     0
100
AcDbLine
 10
-171.4789084923287
 20
47.49804162203393
 30
0.0
 11
-171.4793519490642
 21
47.49815107132546
 31
0.0
1001
REVIT
1002
{
1070
     1
1000
249276
1002
}
1002
{
1070
     5
1000
249148
1002
}
1002
{
1070
     2
1000
-2000196
1002
}
1002
{
1070
     3
1000
249093
1002
}
  0
LINE
  5
2B0
330
6C
100
AcDbEntity
  8
0
 62
     0
370
     0
100
AcDbLine
 10
-171.4793519490642
 20
47.49815107132546
 30
0.0
 11
-171.4725626556972
 21
47.48970268785194
 31
0.0
1001
REVIT
1002
{
1070
     1
1000
249276
1002
}
1002
{
1070
     5
1000
249148
1002
}
1002
{
1070
     2
1000
-2000196
1002
}
1002
{
1070
     3
1000
249093
1002
}
  0
LINE
  5
2B1
330
6C
100
AcDbEntity
  8
0
 62
     0
370
     0
100
AcDbLine
 10
-171.4725626556972
 20
47.48970268785194
 30
0.0
 11
-171.4721219441459
 21
47.48959245304926
 31
0.0
1001
REVIT
1002
{
1070
     1
1000
249276
1002
}
1002
{
1070
     5
1000
249148
1002
}
1002
{
1070
     2
1000
-2000196
1002
}
1002
{
1070
     3
1000
249093
1002
}
  0
LINE
  5
2B2
330
6C
100
AcDbEntity
  8
0
 62
     0
370
     0
100
AcDbLine
 10
-171.469302863327
 20
47.49162545568164
 30
0.0
 11
-171.4721219441459
 21
47.48959245304926
 31
0.0
1001
REVIT
1002
{
1070
     1
1000
249276
1002
}
1002
{
1070
     5
1000
249148
1002
}
1002
{
1070
     2
1000
-2000196
1002
}
1002
{
1070
     3
1000
249093
1002
}
  0
LINE
  5
2B3
330
6C
100
AcDbEntity
  8
0
 62
     0
370
     0
100
AcDbLine
 10
-171.4793519490642
 20
47.49815107132546
 30
0.0
 11
-171.4793519490642
 21
47.51659466813688
 31
0.0
1001
REVIT
1002
{
1070
     1
1000
249276
1002
}
1002
{
1070
     5
1000
249148
1002
}
1002
{
1070
     2
1000
-2000196
1002
}
1002
{
1070
     3
1000
249093
1002
}
  0
LINE
  5
2B4
330
6C
100
AcDbEntity
  8
0
 62
     0
370
     0
100
AcDbLine
 10
-171.4626967077492
 20
47.50943014372933
 30
0.0
 11
-171.469302863327
 21
47.49162545568164
 31
0.0
1001
REVIT
1002
{
1070
     1
1000
249276
1002
}
1002
{
1070
     5
1000
249148
1002
}
1002
{
1070
     2
1000
-2000196
1002
}
1002
{
1070
     3
1000
249093
1002
}
  0
LINE
  5
2B5
330
6C
100
AcDbEntity
  8
0
 62
     0
370
     0
100
AcDbLine
 10
-171.4947360473241
 20
47.55341905635695
 30
0.0
 11
-171.495005692445
 21
47.55325418441666
 31
0.0
1001
REVIT
1002
{
1070
     1
1000
249276
1002
}
1002
{
1070
     5
1000
249148
1002
}
1002
{
1070
     2
1000
-2000196
1002
}
1002
{
1070
     3
1000
249093
1002
}
  0
LINE
  5
2B6
330
6C
100
AcDbEntity
  8
0
 62
     0
370
     0
100
AcDbLine
 10
-171.4836511955625
 20
47.53740302379839
 30
0.0
 11
-171.4833842475456
 21
47.53757470599849
 31
0.0
1001
REVIT
1002
{
1070
     1
1000
249276
1002
}
1002
{
1070
     5
1000
249148
1002
}
1002
{
1070
     2
1000
-2000196
1002
}
1002
{
1070
     3
1000
249093
1002
}
  0
LINE
  5
2B7
330
6C
100
AcDbEntity
  8
0
 62
     0
370
     0
100
AcDbLine
 10
-171.4994778467446
 20
47.55446843056794
 30
0.0
 11
-171.4997486045175
 21
47.55430433269056
 31
0.0
1001
REVIT
1002
{
1070
     1
1000
249276
1002
}
1002
{
1070
     5
1000
249148
1002
}
1002
{
1070
     2
1000
-2000196
1002
}
1002
{
1070
     3
1000
249093
1002
}
  0
LINE
  5
2BE
330
6C
100
AcDbEntity
  8
0
 62
     0
370
     0
100
AcDbLine
 10
-171.4796531001361
 20
47.51718295315022
 30
0.0
 11
-171.4814582181729
 21
47.51761164105
 31
0.0
1001
REVIT
1002
{
1070
     1
1000
249276
1002
}
1002
{
1070
     5
1000
249148
1002
}
1002
{
1070
     2
1000
-2000196
1002
}
1002
{
1070
     3
1000
249093
1002
}
  0
LINE
  5
2C4
330
6C
100
AcDbEntity
  8
0
 62
     0
370
     0
100
AcDbLine
 10
-171.510907440854
 20
47.52459405336334
 30
0.0
 11
-171.51107713416
 21
47.52464568017095
 31
0.0
1001
REVIT
1002
{
1070
     1
1000
249276
1002
}
1002
{
1070
     5
1000
249148
1002
}
1002
{
1070
     2
1000
-2000196
1002
}
1002
{
1070
     3
1000
249093
1002
}
  0
LINE
  5
2C5
330
6C
100
AcDbEntity
  8
0
 62
     0
370
     0
100
AcDbLine
 10
-171.51107713416
 20
47.52464568017095
 30
0.0
 11
-171.5128267439862
 21
47.52506118572048
 31
0.0
1001
REVIT
1002
{
1070
     1
1000
249276
1002
}
1002
{
1070
     5
1000
249148
1002
}
1002
{
1070
     2
1000
-2000196
1002
}
1002
{
1070
     3
1000
249093
1002
}
  0
LINE
  5
2D3
330
6C
100
AcDbEntity
  8
0
 62
     0
370
     0
100
AcDbLine
 10
-171.4830332225041
 20
47.51808604386235
 30
0.0
 11
-171.4823911632552
 21
47.51819790317958
 31
0.0
1001
REVIT
1002
{
1070
     1
1000
249276
1002
}
1002
{
1070
     5
1000
249148
1002
}
1002
{
1070
     2
1000
-2000196
1002
}
1002
{
1070
     3
1000
249093
1002
}
  0
LINE
  5
301
330
6C
100
AcDbEntity
  8
0
 62
     0
370
     0
100
AcDbLine
 10
-171.4789084923287
 20
47.49804162203393
 30
0.0
 11
-171.4789084923287
 21
47.51648924124829
 31
0.0
1001
REVIT
1002
{
1070
     1
1000
249276
1002
}
1002
{
1070
     5
1000
249148
1002
}
1002
{
1070
     2
1000
-2000196
1002
}
1002
{
1070
     3
1000
249093
1002
}
  0
LINE
  5
302
330
6C
100
AcDbEntity
  8
0
 62
     0
370
     0
100
AcDbLine
 10
-171.4626967077492
 20
47.51353214068045
 30
0.0
 11
-171.4626967077492
 21
47.50943014372933
 31
0.0
1001
REVIT
1002
{
1070
     1
1000
249276
1002
}
1002
{
1070
     5
1000
249148
1002
}
1002
{
1070
     2
1000
-2000196
1002
}
1002
{
1070
     3
1000
249093
1002
}
  0
LINE
  5
303
330
6C
100
AcDbEntity
  8
0
 62
     0
370
     0
100
AcDbLine
 10
-171.4989712531655
 20
47.53296466772581
 30
0.0
 11
-171.4992317512783
 21
47.53329253626021
 31
0.0
1001
REVIT
1002
{
1070
     1
1000
249276
1002
}
1002
{
1070
     5
1000
249148
1002
}
1002
{
1070
     2
1000
-2000151
1002
}
1002
{
1070
     3
1000
249105
1002
}
  0
LINE
  5
304
330
6C
100
AcDbEntity
  8
0
 62
     0
370
     0
100
AcDbLine
 10
-171.4971443664058
 20
47.53529940896537
 30
0.0
 11
-171.4968847718796
 21
47.53497103772098
 31
0.0
1001
REVIT
1002
{
1070
     1
1000
249276
1002
}
1002
{
1070
     5
1000
249148
1002
}
1002
{
1070
     2
1000
-2000151
1002
}
1002
{
1070
     3
1000
249105
1002
}
  0
LINE
  5
323
330
6C
100
AcDbEntity
  8
0
 62
     0
370
     0
100
AcDbLine
 10
-171.496741080052
 20
47.53369369719249
 30
0.0
 11
-171.4968858424098
 21
47.53340832705305
 31
0.0
1001
REVIT
1002
{
1070
     1
1000
249276
1002
}
1002
{
1070
     5
1000
249148
1002
}
1002
{
1070
     2
1000
-2000151
1002
}
1002
{
1070
     3
1000
249105
1002
}
  0
LINE
  5
335
330
6C
100
AcDbEntity
  8
0
 62
     0
370
     0
100
AcDbLine
 10
-171.4983254781422
 20
47.5486334892038
 30
0.0
 11
-171.4979578497673
 21
47.54885954104621
 31
0.0
1001
REVIT
1002
{
1070
     1
1000
249276
1002
}
1002
{
1070
     5
1000
249148
1002
}
1002
{
1070
     2
1000
-2000151
1002
}
1002
{
1070
     3
1000
249105
1002
}
  0
LINE
  5
336
330
6C
100
AcDbEntity
  8
0
 62
     0
370
     0
100
AcDbLine
 10
-171.496621300434
 20
47.54626582828858
 30
0.0
 11
-171.4971393552777
 21
47.54595055828791
 31
0.0
1001
REVIT
1002
{
1070
     1
1000
249276
1002
}
1002
{
1070
     5
1000
249148
1002
}
1002
{
1070
     2
1000
-2000151
1002
}
1002
{
1070
     3
1000
249105
1002
}
  0
LINE
  5
337
330
6C
100
AcDbEntity
  8
0
 62
     0
370
     0
100
AcDbLine
 10
-171.4899870379187
 20
47.52856620749057
 30
0.0
 11
-171.4896220721828
 21
47.52880329017687
 31
0.0
1001
REVIT
1002
{
1070
     1
1000
249276
1002
}
1002
{
1070
     5
1000
249148
1002
}
1002
{
1070
     2
1000
-2000151
1002
}
1002
{
1070
     3
1000
249105
1002
}
  0
LINE
  5
338
330
6C
100
AcDbEntity
  8
0
 62
     0
370
     0
100
AcDbLine
 10
-171.4882465184565
 20
47.52626098675945
 30
0.0
 11
-171.4886109845522
 21
47.5260224659218
 31
0.0
1001
REVIT
1002
{
1070
     1
1000
249276
1002
}
1002
{
1070
     5
1000
249148
1002
}
1002
{
1070
     2
1000
-2000151
1002
}
1002
{
1070
     3
1000
249105
1002
}
  0
LINE
  5
339
330
6C
100
AcDbEntity
  8
0
 62
     0
370
     0
100
AcDbLine
 10
-171.5065833481582
 20
47.53243431751723
 30
0.0
 11
-171.5062131041407
 21
47.53266752456402
 31
0.0
1001
REVIT
1002
{
1070
     1
1000
249276
1002
}
1002
{
1070
     5
1000
249148
1002
}
1002
{
1070
     2
1000
-2000151
1002
}
1002
{
1070
     3
1000
249105
1002
}
  0
LINE
  5
33A
330
6C
100
AcDbEntity
  8
0
 62
     0
370
     0
100
AcDbLine
 10
-171.504877601307
 20
47.53008092346081
 30
0.0
 11
-171.5054069304262
 21
47.52975289308873
 31
0.0
1001
REVIT
1002
{
1070
     1
1000
249276
1002
}
1002
{
1070
     5
1000
249148
1002
}
1002
{
1070
     2
1000
-2000151
1002
}
1002
{
1070
     3
1000
249105
1002
}
  0
LINE
  5
34A
330
6C
100
AcDbEntity
  8
0
 62
     0
370
     0
100
AcDbLine
 10
-171.4977325908174
 20
47.54868752138317
 30
0.0
 11
-171.4980101423403
 21
47.54871094099253
 31
0.0
1001
REVIT
1002
{
1070
     1
1000
249276
1002
}
1002
{
1070
     5
1000
249148
1002
}
1002
{
1070
     2
1000
-2000151
1002
}
1002
{
1070
     3
1000
249105
1002
}
  0
LINE
  5
3CE
330
6C
100
AcDbEntity
  8
0
 62
     0
370
     0
100
AcDbLine
 10
-171.4754569660843
 20
47.50632954867297
 30
0.0
 11
-171.476058174554
 21
47.5064752238848
 31
0.0
1001
REVIT
1002
{
1070
     1
1000
249276
1002
}
1002
{
1070
     5
1000
249148
1002
}
1002
{
1070
     2
1000
-2000151
1002
}
1002
{
1070
     3
1000
249105
1002
}
  0
LINE
  5
3CF
330
6C
100
AcDbEntity
  8
0
 62
     0
370
     0
100
AcDbLine
 10
-171.4753434120895
 20
47.50939150975578
 30
0.0
 11
-171.4747425758519
 21
47.50924683752582
 31
0.0
1001
REVIT
1002
{
1070
     1
1000
249276
1002
}
1002
{
1070
     5
1000
249148
1002
}
1002
{
1070
     2
1000
-2000151
1002
}
1002
{
1070
     3
1000
249105
1002
}
  0
LINE
  5
3D0
330
6C
100
AcDbEntity
  8
0
 62
     0
370
     0
100
AcDbLine
 10
-171.4704503985493
 20
47.4924435466754
 30
0.0
 11
-171.4710488469852
 21
47.49259226635653
 31
0.0
1001
REVIT
1002
{
1070
     1
1000
249276
1002
}
1002
{
1070
     5
1000
249148
1002
}
1002
{
1070
     2
1000
-2000151
1002
}
1002
{
1070
     3
1000
249105
1002
}
  0
LINE
  5
3D1
330
6C
100
AcDbEntity
  8
0
 62
     0
370
     0
100
AcDbLine
 10
-171.4703441059323
 20
47.49550189094049
 30
0.0
 11
-171.4697460342432
 21
47.49535416919586
 31
0.0
1001
REVIT
1002
{
1070
     1
1000
249276
1002
}
1002
{
1070
     5
1000
249148
1002
}
1002
{
1070
     2
1000
-2000151
1002
}
1002
{
1070
     3
1000
249105
1002
}
  0
LINE
  5
1461
330
6C
100
AcDbEntity
  8
0
 62
     0
370
     0
100
AcDbLine
 10
-171.4710488469852
 20
47.49259226635653
 30
0.0
 11
-171.4711949795477
 21
47.4927081435439
 31
0.0
1001
REVIT
1002
{
1070
     1
1000
249276
1002
}
1002
{
1070
     5
1000
249148
1002
}
1002
{
1070
     2
1000
-2000151
1002
}
1002
{
1070
     3
1000
249105
1002
}
  0
LINE
  5
1462
330
6C
100
AcDbEntity
  8
0
 62
     0
370
     0
100
AcDbLine
 10
-171.4711949795477
 20
47.4927081435439
 30
0.0
 11
-171.4713071519927
 21
47.49291543771454
 31
0.0
1001
REVIT
1002
{
1070
     1
1000
249276
1002
}
1002
{
1070
     5
1000
249148
1002
}
1002
{
1070
     2
1000
-2000151
1002
}
1002
{
1070
     3
1000
249105
1002
}
  0
LINE
  5
1463
330
6C
100
AcDbEntity
  8
0
 62
     0
370
     0
100
AcDbLine
 10
-171.4713071519927
 20
47.49291543771454
 30
0.0
 11
-171.4713776847663
 21
47.49320002882942
 31
0.0
1001
REVIT
1002
{
1070
     1
1000
249276
1002
}
1002
{
1070
     5
1000
249148
1002
}
1002
{
1070
     2
1000
-2000151
1002
}
1002
{
1070
     3
1000
249105
1002
}
  0
LINE
  5
1464
330
6C
100
AcDbEntity
  8
0
 62
     0
370
     0
100
AcDbLine
 10
-171.4713776847663
 20
47.49320002882942
 30
0.0
 11
-171.4714017454009
 21
47.49354249023082
 31
0.0
1001
REVIT
1002
{
1070
     1
1000
249276
1002
}
1002
{
1070
     5
1000
249148
1002
}
1002
{
1070
     2
1000
-2000151
1002
}
1002
{
1070
     3
1000
249105
1002
}
  0
LINE
  5
1465
330
6C
100
AcDbEntity
  8
0
 62
     0
370
     0
100
AcDbLine
 10
-171.4714017454009
 20
47.49354249023082
 30
0.0
 11
-171.4713776847663
 21
47.4939194211785
 31
0.0
1001
REVIT
1002
{
1070
     1
1000
249276
1002
}
1002
{
1070
     5
1000
249148
1002
}
1002
{
1070
     2
1000
-2000151
1002
}
1002
{
1070
     3
1000
249105
1002
}
  0
LINE
  5
1466
330
6C
100
AcDbEntity
  8
0
 62
     0
370
     0
100
AcDbLine
 10
-171.4713776847663
 20
47.4939194211785
 30
0.0
 11
-171.4713071519927
 21
47.49430505836905
 31
0.0
1001
REVIT
1002
{
1070
     1
1000
249276
1002
}
1002
{
1070
     5
1000
249148
1002
}
1002
{
1070
     2
1000
-2000151
1002
}
1002
{
1070
     3
1000
249105
1002
}
  0
LINE
  5
1467
330
6C
100
AcDbEntity
  8
0
 62
     0
370
     0
100
AcDbLine
 10
-171.4713071519927
 20
47.49430505836905
 30
0.0
 11
-171.4711949795477
 21
47.49467305209505
 31
0.0
1001
REVIT
1002
{
1070
     1
1000
249276
1002
}
1002
{
1070
     5
1000
249148
1002
}
1002
{
1070
     2
1000
-2000151
1002
}
1002
{
1070
     3
1000
249105
1002
}
  0
LINE
  5
1468
330
6C
100
AcDbEntity
  8
0
 62
     0
370
     0
100
AcDbLine
 10
-171.4711949795477
 20
47.49467305209505
 30
0.0
 11
-171.4710488469851
 21
47.49499828049937
 31
0.0
1001
REVIT
1002
{
1070
     1
1000
249276
1002
}
1002
{
1070
     5
1000
249148
1002
}
1002
{
1070
     2
1000
-2000151
1002
}
1002
{
1070
     3
1000
249105
1002
}
  0
LINE
  5
1469
330
6C
100
AcDbEntity
  8
0
 62
     0
370
     0
100
AcDbLine
 10
-171.4710488469851
 20
47.49499828049937
 30
0.0
 11
-171.4708787481465
 21
47.49525857329368
 31
0.0
1001
REVIT
1002
{
1070
     1
1000
249276
1002
}
1002
{
1070
     5
1000
249148
1002
}
1002
{
1070
     2
1000
-2000151
1002
}
1002
{
1070
     3
1000
249105
1002
}
  0
LINE
  5
146A
330
6C
100
AcDbEntity
  8
0
 62
     0
370
     0
100
AcDbLine
 10
-171.4708787481465
 20
47.49525857329368
 30
0.0
 11
-171.4706963006713
 21
47.49543622433708
 31
0.0
1001
REVIT
1002
{
1070
     1
1000
249276
1002
}
1002
{
1070
     5
1000
249148
1002
}
1002
{
1070
     2
1000
-2000151
1002
}
1002
{
1070
     3
1000
249105
1002
}
  0
LINE
  5
146B
330
6C
100
AcDbEntity
  8
0
 62
     0
370
     0
100
AcDbLine
 10
-171.4706963006713
 20
47.49543622433708
 30
0.0
 11
-171.4705139474003
 21
47.49551918955687
 31
0.0
1001
REVIT
1002
{
1070
     1
1000
249276
1002
}
1002
{
1070
     5
1000
249148
1002
}
1002
{
1070
     2
1000
-2000151
1002
}
1002
{
1070
     3
1000
249105
1002
}
  0
LINE
  5
146C
330
6C
100
AcDbEntity
  8
0
 62
     0
370
     0
100
AcDbLine
 10
-171.4705139474003
 20
47.49551918955687
 30
0.0
 11
-171.4703441059323
 21
47.49550189094049
 31
0.0
1001
REVIT
1002
{
1070
     1
1000
249276
1002
}
1002
{
1070
     5
1000
249148
1002
}
1002
{
1070
     2
1000
-2000151
1002
}
1002
{
1070
     3
1000
249105
1002
}
  0
LINE
  5
146D
330
6C
100
AcDbEntity
  8
0
 62
     0
370
     0
100
AcDbLine
 10
-171.4703441059323
 20
47.49550189094049
 30
0.0
 11
-171.4703441059323
 21
47.49550189094049
 31
0.0
1001
REVIT
1002
{
1070
     1
1000
249276
1002
}
1002
{
1070
     5
1000
249148
1002
}
1002
{
1070
     2
1000
-2000151
1002
}
1002
{
1070
     3
1000
249105
1002
}
  0
LINE
  5
146F
330
6C
100
AcDbEntity
  8
0
 62
     0
370
     0
100
AcDbLine
 10
-171.476058174554
 20
47.5064752238848
 30
0.0
 11
-171.4762063863853
 21
47.50659481377656
 31
0.0
1001
REVIT
1002
{
1070
     1
1000
249276
1002
}
1002
{
1070
     5
1000
249148
1002
}
1002
{
1070
     2
1000
-2000151
1002
}
1002
{
1070
     3
1000
249105
1002
}
  0
LINE
  5
1470
330
6C
100
AcDbEntity
  8
0
 62
     0
370
     0
100
AcDbLine
 10
-171.4762063863853
 20
47.50659481377656
 30
0.0
 11
-171.4763201551872
 21
47.5068057972838
 31
0.0
1001
REVIT
1002
{
1070
     1
1000
249276
1002
}
1002
{
1070
     5
1000
249148
1002
}
1002
{
1070
     2
1000
-2000151
1002
}
1002
{
1070
     3
1000
249105
1002
}
  0
LINE
  5
1471
330
6C
100
AcDbEntity
  8
0
 62
     0
370
     0
100
AcDbLine
 10
-171.4763201551872
 20
47.5068057972838
 30
0.0
 11
-171.4763916918632
 21
47.50709380233998
 31
0.0
1001
REVIT
1002
{
1070
     1
1000
249276
1002
}
1002
{
1070
     5
1000
249148
1002
}
1002
{
1070
     2
1000
-2000151
1002
}
1002
{
1070
     3
1000
249105
1002
}
  0
LINE
  5
1472
330
6C
100
AcDbEntity
  8
0
 62
     0
370
     0
100
AcDbLine
 10
-171.4763916918632
 20
47.50709380233998
 30
0.0
 11
-171.4764160949791
 21
47.5074391686604
 31
0.0
1001
REVIT
1002
{
1070
     1
1000
249276
1002
}
1002
{
1070
     5
1000
249148
1002
}
1002
{
1070
     2
1000
-2000151
1002
}
1002
{
1070
     3
1000
249105
1002
}
  0
LINE
  5
1473
330
6C
100
AcDbEntity
  8
0
 62
     0
370
     0
100
AcDbLine
 10
-171.4764160949791
 20
47.5074391686604
 30
0.0
 11
-171.4763916918632
 21
47.50781829646075
 31
0.0
1001
REVIT
1002
{
1070
     1
1000
249276
1002
}
1002
{
1070
     5
1000
249148
1002
}
1002
{
1070
     2
1000
-2000151
1002
}
1002
{
1070
     3
1000
249105
1002
}
  0
LINE
  5
1474
330
6C
100
AcDbEntity
  8
0
 62
     0
370
     0
100
AcDbLine
 10
-171.4763916918632
 20
47.50781829646075
 30
0.0
 11
-171.4763201551872
 21
47.50820527183103
 31
0.0
1001
REVIT
1002
{
1070
     1
1000
249276
1002
}
1002
{
1070
     5
1000
249148
1002
}
1002
{
1070
     2
1000
-2000151
1002
}
1002
{
1070
     3
1000
249105
1002
}
  0
LINE
  5
1475
330
6C
100
AcDbEntity
  8
0
 62
     0
370
     0
100
AcDbLine
 10
-171.4763201551872
 20
47.50820527183103
 30
0.0
 11
-171.4762063863853
 21
47.50857365339871
 31
0.0
1001
REVIT
1002
{
1070
     1
1000
249276
1002
}
1002
{
1070
     5
1000
249148
1002
}
1002
{
1070
     2
1000
-2000151
1002
}
1002
{
1070
     3
1000
249105
1002
}
  0
LINE
  5
1476
330
6C
100
AcDbEntity
  8
0
 62
     0
370
     0
100
AcDbLine
 10
-171.4762063863853
 20
47.50857365339871
 30
0.0
 11
-171.476058174554
 21
47.50889829295621
 31
0.0
1001
REVIT
1002
{
1070
     1
1000
249276
1002
}
1002
{
1070
     5
1000
249148
1002
}
1002
{
1070
     2
1000
-2000151
1002
}
1002
{
1070
     3
1000
249105
1002
}
  0
LINE
  5
1477
330
6C
100
AcDbEntity
  8
0
 62
     0
370
     0
100
AcDbLine
 10
-171.476058174554
 20
47.50889829295621
 30
0.0
 11
-171.475885655986
 21
47.50915706095329
 31
0.0
1001
REVIT
1002
{
1070
     1
1000
249276
1002
}
1002
{
1070
     5
1000
249148
1002
}
1002
{
1070
     2
1000
-2000151
1002
}
1002
{
1070
     3
1000
249105
1002
}
  0
LINE
  5
1478
330
6C
100
AcDbEntity
  8
0
 62
     0
370
     0
100
AcDbLine
 10
-171.475885655986
 20
47.50915706095329
 30
0.0
 11
-171.4757006137713
 21
47.50933235613499
 31
0.0
1001
REVIT
1002
{
1070
     1
1000
249276
1002
}
1002
{
1070
     5
1000
249148
1002
}
1002
{
1070
     2
1000
-2000151
1002
}
1002
{
1070
     3
1000
249105
1002
}
  0
LINE
  5
1479
330
6C
100
AcDbEntity
  8
0
 62
     0
370
     0
100
AcDbLine
 10
-171.4757006137713
 20
47.50933235613499
 30
0.0
 11
-171.4755156677773
 21
47.50941229605338
 31
0.0
1001
REVIT
1002
{
1070
     1
1000
249276
1002
}
1002
{
1070
     5
1000
249148
1002
}
1002
{
1070
     2
1000
-2000151
1002
}
1002
{
1070
     3
1000
249105
1002
}
  0
LINE
  5
147A
330
6C
100
AcDbEntity
  8
0
 62
     0
370
     0
100
AcDbLine
 10
-171.4755156677773
 20
47.50941229605338
 30
0.0
 11
-171.4753434120895
 21
47.50939150975578
 31
0.0
1001
REVIT
1002
{
1070
     1
1000
249276
1002
}
1002
{
1070
     5
1000
249148
1002
}
1002
{
1070
     2
1000
-2000151
1002
}
1002
{
1070
     3
1000
249105
1002
}
  0
LINE
  5
147B
330
6C
100
AcDbEntity
  8
0
 62
     0
370
     0
100
AcDbLine
 10
-171.4753434120895
 20
47.50939150975578
 30
0.0
 11
-171.4753434120895
 21
47.50939150975578
 31
0.0
1001
REVIT
1002
{
1070
     1
1000
249276
1002
}
1002
{
1070
     5
1000
249148
1002
}
1002
{
1070
     2
1000
-2000151
1002
}
1002
{
1070
     3
1000
249105
1002
}
  0
LINE
  5
147C
330
6C
100
AcDbEntity
  8
0
 62
     0
370
     0
100
AcDbLine
 10
-171.4700979920139
 20
47.49251073315309
 30
0.0
 11
-171.4699157398365
 21
47.49268909997014
 31
0.0
1001
REVIT
1002
{
1070
     1
1000
249276
1002
}
1002
{
1070
     5
1000
249148
1002
}
1002
{
1070
     2
1000
-2000151
1002
}
1002
{
1070
     3
1000
249105
1002
}
  0
LINE
  5
147D
330
6C
100
AcDbEntity
  8
0
 62
     0
370
     0
100
AcDbLine
 10
-171.4699157398365
 20
47.49268909997014
 30
0.0
 11
-171.4697459925505
 21
47.49294982752249
 31
0.0
1001
REVIT
1002
{
1070
     1
1000
249276
1002
}
1002
{
1070
     5
1000
249148
1002
}
1002
{
1070
     2
1000
-2000151
1002
}
1002
{
1070
     3
1000
249105
1002
}
  0
LINE
  5
147E
330
6C
100
AcDbEntity
  8
0
 62
     0
370
     0
100
AcDbLine
 10
-171.4697459925505
 20
47.49294982752249
 30
0.0
 11
-171.469600292422
 21
47.49327511555322
 31
0.0
1001
REVIT
1002
{
1070
     1
1000
249276
1002
}
1002
{
1070
     5
1000
249148
1002
}
1002
{
1070
     2
1000
-2000151
1002
}
1002
{
1070
     3
1000
249105
1002
}
  0
LINE
  5
147F
330
6C
100
AcDbEntity
  8
0
 62
     0
370
     0
100
AcDbLine
 10
-171.469600292422
 20
47.49327511555322
 30
0.0
 11
-171.469488533587
 21
47.49364280295683
 31
0.0
1001
REVIT
1002
{
1070
     1
1000
249276
1002
}
1002
{
1070
     5
1000
249148
1002
}
1002
{
1070
     2
1000
-2000151
1002
}
1002
{
1070
     3
1000
249105
1002
}
  0
LINE
  5
1480
330
6C
100
AcDbEntity
  8
0
 62
     0
370
     0
100
AcDbLine
 10
-171.469488533587
 20
47.49364280295683
 30
0.0
 11
-171.4694182971764
 21
47.49402787618294
 31
0.0
1001
REVIT
1002
{
1070
     1
1000
249276
1002
}
1002
{
1070
     5
1000
249148
1002
}
1002
{
1070
     2
1000
-2000151
1002
}
1002
{
1070
     3
1000
249105
1002
}
  0
LINE
  5
1481
330
6C
100
AcDbEntity
  8
0
 62
     0
370
     0
100
AcDbLine
 10
-171.4694182971764
 20
47.49402787618294
 30
0.0
 11
-171.4693943440447
 21
47.49440416214681
 31
0.0
1001
REVIT
1002
{
1070
     1
1000
249276
1002
}
1002
{
1070
     5
1000
249148
1002
}
1002
{
1070
     2
1000
-2000151
1002
}
1002
{
1070
     3
1000
249105
1002
}
  0
LINE
  5
1482
330
6C
100
AcDbEntity
  8
0
 62
     0
370
     0
100
AcDbLine
 10
-171.4693943440447
 20
47.49440416214681
 30
0.0
 11
-171.4694182971764
 21
47.49474609341937
 31
0.0
1001
REVIT
1002
{
1070
     1
1000
249276
1002
}
1002
{
1070
     5
1000
249148
1002
}
1002
{
1070
     2
1000
-2000151
1002
}
1002
{
1070
     3
1000
249105
1002
}
  0
LINE
  5
1483
330
6C
100
AcDbEntity
  8
0
 62
     0
370
     0
100
AcDbLine
 10
-171.4694182971764
 20
47.49474609341937
 30
0.0
 11
-171.469488533587
 21
47.49503043033087
 31
0.0
1001
REVIT
1002
{
1070
     1
1000
249276
1002
}
1002
{
1070
     5
1000
249148
1002
}
1002
{
1070
     2
1000
-2000151
1002
}
1002
{
1070
     3
1000
249105
1002
}
  0
LINE
  5
1484
330
6C
100
AcDbEntity
  8
0
 62
     0
370
     0
100
AcDbLine
 10
-171.469488533587
 20
47.49503043033087
 30
0.0
 11
-171.469600292422
 21
47.49523782803492
 31
0.0
1001
REVIT
1002
{
1070
     1
1000
249276
1002
}
1002
{
1070
     5
1000
249148
1002
}
1002
{
1070
     2
1000
-2000151
1002
}
1002
{
1070
     3
1000
249105
1002
}
  0
LINE
  5
1485
330
6C
100
AcDbEntity
  8
0
 62
     0
370
     0
100
AcDbLine
 10
-171.469600292422
 20
47.49523782803492
 30
0.0
 11
-171.4697459925505
 21
47.49535414619015
 31
0.0
1001
REVIT
1002
{
1070
     1
1000
249276
1002
}
1002
{
1070
     5
1000
249148
1002
}
1002
{
1070
     2
1000
-2000151
1002
}
1002
{
1070
     3
1000
249105
1002
}
  0
LINE
  5
1486
330
6C
100
AcDbEntity
  8
0
 62
     0
370
     0
100
AcDbLine
 10
-171.4697459925505
 20
47.49535414619015
 30
0.0
 11
-171.4699157398365
 21
47.49537141431973
 31
0.0
1001
REVIT
1002
{
1070
     1
1000
249276
1002
}
1002
{
1070
     5
1000
249148
1002
}
1002
{
1070
     2
1000
-2000151
1002
}
1002
{
1070
     3
1000
249105
1002
}
  0
LINE
  5
1487
330
6C
100
AcDbEntity
  8
0
 62
     0
370
     0
100
AcDbLine
 10
-171.4699157398365
 20
47.49537141431973
 30
0.0
 11
-171.4700979920139
 21
47.49528838661915
 31
0.0
1001
REVIT
1002
{
1070
     1
1000
249276
1002
}
1002
{
1070
     5
1000
249148
1002
}
1002
{
1070
     2
1000
-2000151
1002
}
1002
{
1070
     3
1000
249105
1002
}
  0
LINE
  5
1488
330
6C
100
AcDbEntity
  8
0
 62
     0
370
     0
100
AcDbLine
 10
-171.4700979920139
 20
47.49528838661915
 30
0.0
 11
-171.4702803383709
 21
47.49511064531247
 31
0.0
1001
REVIT
1002
{
1070
     1
1000
249276
1002
}
1002
{
1070
     5
1000
249148
1002
}
1002
{
1070
     2
1000
-2000151
1002
}
1002
{
1070
     3
1000
249105
1002
}
  0
LINE
  5
1489
330
6C
100
AcDbEntity
  8
0
 62
     0
370
     0
100
AcDbLine
 10
-171.4702803383709
 20
47.49511064531247
 30
0.0
 11
-171.4704503429603
 21
47.49485024058894
 31
0.0
1001
REVIT
1002
{
1070
     1
1000
249276
1002
}
1002
{
1070
     5
1000
249148
1002
}
1002
{
1070
     2
1000
-2000151
1002
}
1002
{
1070
     3
1000
249105
1002
}
  0
LINE
  5
148A
330
6C
100
AcDbEntity
  8
0
 62
     0
370
     0
100
AcDbLine
 10
-171.4704503429603
 20
47.49485024058894
 30
0.0
 11
-171.4705963945721
 21
47.49452488620363
 31
0.0
1001
REVIT
1002
{
1070
     1
1000
249276
1002
}
1002
{
1070
     5
1000
249148
1002
}
1002
{
1070
     2
1000
-2000151
1002
}
1002
{
1070
     3
1000
249105
1002
}
  0
LINE
  5
148B
330
6C
100
AcDbEntity
  8
0
 62
     0
370
     0
100
AcDbLine
 10
-171.4705963945721
 20
47.49452488620363
 30
0.0
 11
-171.4707085048907
 21
47.49415676104145
 31
0.0
1001
REVIT
1002
{
1070
     1
1000
249276
1002
}
1002
{
1070
     5
1000
249148
1002
}
1002
{
1070
     2
1000
-2000151
1002
}
1002
{
1070
     3
1000
249105
1002
}
  0
LINE
  5
148C
330
6C
100
AcDbEntity
  8
0
 62
     0
370
     0
100
AcDbLine
 10
-171.4707085048907
 20
47.49415676104145
 30
0.0
 11
-171.4707789986052
 21
47.49377099594963
 31
0.0
1001
REVIT
1002
{
1070
     1
1000
249276
1002
}
1002
{
1070
     5
1000
249148
1002
}
1002
{
1070
     2
1000
-2000151
1002
}
1002
{
1070
     3
1000
249105
1002
}
  0
LINE
  5
148D
330
6C
100
AcDbEntity
  8
0
 62
     0
370
     0
100
AcDbLine
 10
-171.4707789986052
 20
47.49377099594963
 30
0.0
 11
-171.4708030459167
 21
47.49339394939789
 31
0.0
1001
REVIT
1002
{
1070
     1
1000
249276
1002
}
1002
{
1070
     5
1000
249148
1002
}
1002
{
1070
     2
1000
-2000151
1002
}
1002
{
1070
     3
1000
249105
1002
}
  0
LINE
  5
148E
330
6C
100
AcDbEntity
  8
0
 62
     0
370
     0
100
AcDbLine
 10
-171.4708030459167
 20
47.49339394939789
 30
0.0
 11
-171.4707789986052
 21
47.49305139261444
 31
0.0
1001
REVIT
1002
{
1070
     1
1000
249276
1002
}
1002
{
1070
     5
1000
249148
1002
}
1002
{
1070
     2
1000
-2000151
1002
}
1002
{
1070
     3
1000
249105
1002
}
  0
LINE
  5
148F
330
6C
100
AcDbEntity
  8
0
 62
     0
370
     0
100
AcDbLine
 10
-171.4707789986052
 20
47.49305139261444
 30
0.0
 11
-171.4707085048907
 21
47.49276673287439
 31
0.0
1001
REVIT
1002
{
1070
     1
1000
249276
1002
}
1002
{
1070
     5
1000
249148
1002
}
1002
{
1070
     2
1000
-2000151
1002
}
1002
{
1070
     3
1000
249105
1002
}
  0
LINE
  5
1490
330
6C
100
AcDbEntity
  8
0
 62
     0
370
     0
100
AcDbLine
 10
-171.4707085048907
 20
47.49276673287439
 30
0.0
 11
-171.4705963945721
 21
47.49255940152562
 31
0.0
1001
REVIT
1002
{
1070
     1
1000
249276
1002
}
1002
{
1070
     5
1000
249148
1002
}
1002
{
1070
     2
1000
-2000151
1002
}
1002
{
1070
     3
1000
249105
1002
}
  0
LINE
  5
1491
330
6C
100
AcDbEntity
  8
0
 62
     0
370
     0
100
AcDbLine
 10
-171.4705963945721
 20
47.49255940152562
 30
0.0
 11
-171.4704503429604
 21
47.49244352112945
 31
0.0
1001
REVIT
1002
{
1070
     1
1000
249276
1002
}
1002
{
1070
     5
1000
249148
1002
}
1002
{
1070
     2
1000
-2000151
1002
}
1002
{
1070
     3
1000
249105
1002
}
  0
LINE
  5
1492
330
6C
100
AcDbEntity
  8
0
 62
     0
370
     0
100
AcDbLine
 10
-171.4704503429604
 20
47.49244352112945
 30
0.0
 11
-171.4702803383709
 21
47.49242694486532
 31
0.0
1001
REVIT
1002
{
1070
     1
1000
249276
1002
}
1002
{
1070
     5
1000
249148
1002
}
1002
{
1070
     2
1000
-2000151
1002
}
1002
{
1070
     3
1000
249105
1002
}
  0
LINE
  5
1493
330
6C
100
AcDbEntity
  8
0
 62
     0
370
     0
100
AcDbLine
 10
-171.4702803383709
 20
47.49242694486532
 30
0.0
 11
-171.4700979920139
 21
47.49251073315309
 31
0.0
1001
REVIT
1002
{
1070
     1
1000
249276
1002
}
1002
{
1070
     5
1000
249148
1002
}
1002
{
1070
     2
1000
-2000151
1002
}
1002
{
1070
     3
1000
249105
1002
}
  0
LINE
  5
1494
330
6C
100
AcDbEntity
  8
0
 62
     0
370
     0
100
AcDbLine
 10
-171.475099541569
 20
47.50639023247054
 30
0.0
 11
-171.4749146973387
 21
47.50656625335341
 31
0.0
1001
REVIT
1002
{
1070
     1
1000
249276
1002
}
1002
{
1070
     5
1000
249148
1002
}
1002
{
1070
     2
1000
-2000151
1002
}
1002
{
1070
     3
1000
249105
1002
}
  0
LINE
  5
1495
330
6C
100
AcDbEntity
  8
0
 62
     0
370
     0
100
AcDbLine
 10
-171.4749146973387
 20
47.50656625335341
 30
0.0
 11
-171.4747425364572
 21
47.50682546543927
 31
0.0
1001
REVIT
1002
{
1070
     1
1000
249276
1002
}
1002
{
1070
     5
1000
249148
1002
}
1002
{
1070
     2
1000
-2000151
1002
}
1002
{
1070
     3
1000
249105
1002
}
  0
LINE
  5
1496
330
6C
100
AcDbEntity
  8
0
 62
     0
370
     0
100
AcDbLine
 10
-171.4747425364572
 20
47.50682546543927
 30
0.0
 11
-171.474594765122
 21
47.5071501707786
 31
0.0
1001
REVIT
1002
{
1070
     1
1000
249276
1002
}
1002
{
1070
     5
1000
249148
1002
}
1002
{
1070
     2
1000
-2000151
1002
}
1002
{
1070
     3
1000
249105
1002
}
  0
LINE
  5
1497
330
6C
100
AcDbEntity
  8
0
 62
     0
370
     0
100
AcDbLine
 10
-171.474594765122
 20
47.5071501707786
 30
0.0
 11
-171.4744814178673
 21
47.50751824737151
 31
0.0
1001
REVIT
1002
{
1070
     1
1000
249276
1002
}
1002
{
1070
     5
1000
249148
1002
}
1002
{
1070
     2
1000
-2000151
1002
}
1002
{
1070
     3
1000
249105
1002
}
  0
LINE
  5
1498
330
6C
100
AcDbEntity
  8
0
 62
     0
370
     0
100
AcDbLine
 10
-171.4744814178673
 20
47.50751824737151
 30
0.0
 11
-171.4744101833223
 21
47.50790465506771
 31
0.0
1001
REVIT
1002
{
1070
     1
1000
249276
1002
}
1002
{
1070
     5
1000
249148
1002
}
1002
{
1070
     2
1000
-2000151
1002
}
1002
{
1070
     3
1000
249105
1002
}
  0
LINE
  5
1499
330
6C
100
AcDbEntity
  8
0
 62
     0
370
     0
100
AcDbLine
 10
-171.4744101833223
 20
47.50790465506771
 30
0.0
 11
-171.4743858898139
 21
47.50828313030977
 31
0.0
1001
REVIT
1002
{
1070
     1
1000
249276
1002
}
1002
{
1070
     5
1000
249148
1002
}
1002
{
1070
     2
1000
-2000151
1002
}
1002
{
1070
     3
1000
249105
1002
}
  0
LINE
  5
149A
330
6C
100
AcDbEntity
  8
0
 62
     0
370
     0
100
AcDbLine
 10
-171.4743858898139
 20
47.50828313030977
 30
0.0
 11
-171.4744101833223
 21
47.50862795736327
 31
0.0
1001
REVIT
1002
{
1070
     1
1000
249276
1002
}
1002
{
1070
     5
1000
249148
1002
}
1002
{
1070
     2
1000
-2000151
1002
}
1002
{
1070
     3
1000
249105
1002
}
  0
LINE
  5
149B
330
6C
100
AcDbEntity
  8
0
 62
     0
370
     0
100
AcDbLine
 10
-171.4744101833223
 20
47.50862795736327
 30
0.0
 11
-171.4744814178673
 21
47.50891570028962
 31
0.0
1001
REVIT
1002
{
1070
     1
1000
249276
1002
}
1002
{
1070
     5
1000
249148
1002
}
1002
{
1070
     2
1000
-2000151
1002
}
1002
{
1070
     3
1000
249105
1002
}
  0
LINE
  5
149C
330
6C
100
AcDbEntity
  8
0
 62
     0
370
     0
100
AcDbLine
 10
-171.4744814178673
 20
47.50891570028962
 30
0.0
 11
-171.474594765122
 21
47.50912678309857
 31
0.0
1001
REVIT
1002
{
1070
     1
1000
249276
1002
}
1002
{
1070
     5
1000
249148
1002
}
1002
{
1070
     2
1000
-2000151
1002
}
1002
{
1070
     3
1000
249105
1002
}
  0
LINE
  5
149D
330
6C
100
AcDbEntity
  8
0
 62
     0
370
     0
100
AcDbLine
 10
-171.474594765122
 20
47.50912678309857
 30
0.0
 11
-171.4747425364572
 21
47.50924681492228
 31
0.0
1001
REVIT
1002
{
1070
     1
1000
249276
1002
}
1002
{
1070
     5
1000
249148
1002
}
1002
{
1070
     2
1000
-2000151
1002
}
1002
{
1070
     3
1000
249105
1002
}
  0
LINE
  5
149E
330
6C
100
AcDbEntity
  8
0
 62
     0
370
     0
100
AcDbLine
 10
-171.4747425364572
 20
47.50924681492228
 30
0.0
 11
-171.4749146973387
 21
47.5092675722851
 31
0.0
1001
REVIT
1002
{
1070
     1
1000
249276
1002
}
1002
{
1070
     5
1000
249148
1002
}
1002
{
1070
     2
1000
-2000151
1002
}
1002
{
1070
     3
1000
249105
1002
}
  0
LINE
  5
149F
330
6C
100
AcDbEntity
  8
0
 62
     0
370
     0
100
AcDbLine
 10
-171.4749146973387
 20
47.5092675722851
 30
0.0
 11
-171.475099541569
 21
47.50918757112963
 31
0.0
1001
REVIT
1002
{
1070
     1
1000
249276
1002
}
1002
{
1070
     5
1000
249148
1002
}
1002
{
1070
     2
1000
-2000151
1002
}
1002
{
1070
     3
1000
249105
1002
}
  0
LINE
  5
14A0
330
6C
100
AcDbEntity
  8
0
 62
     0
370
     0
100
AcDbLine
 10
-171.475099541569
 20
47.50918757112963
 30
0.0
 11
-171.4752844819954
 21
47.50901218653448
 31
0.0
1001
REVIT
1002
{
1070
     1
1000
249276
1002
}
1002
{
1070
     5
1000
249148
1002
}
1002
{
1070
     2
1000
-2000151
1002
}
1002
{
1070
     3
1000
249105
1002
}
  0
LINE
  5
14A1
330
6C
100
AcDbEntity
  8
0
 62
     0
370
     0
100
AcDbLine
 10
-171.4752844819954
 20
47.50901218653448
 30
0.0
 11
-171.4754569056898
 21
47.50875330700529
 31
0.0
1001
REVIT
1002
{
1070
     1
1000
249276
1002
}
1002
{
1070
     5
1000
249148
1002
}
1002
{
1070
     2
1000
-2000151
1002
}
1002
{
1070
     3
1000
249105
1002
}
  0
LINE
  5
14A2
330
6C
100
AcDbEntity
  8
0
 62
     0
370
     0
100
AcDbLine
 10
-171.4754569056898
 20
47.50875330700529
 30
0.0
 11
-171.4756050360343
 21
47.5084285413834
 31
0.0
1001
REVIT
1002
{
1070
     1
1000
249276
1002
}
1002
{
1070
     5
1000
249148
1002
}
1002
{
1070
     2
1000
-2000151
1002
}
1002
{
1070
     3
1000
249105
1002
}
  0
LINE
  5
14A3
330
6C
100
AcDbEntity
  8
0
 62
     0
370
     0
100
AcDbLine
 10
-171.4756050360343
 20
47.5084285413834
 30
0.0
 11
-171.4757187422983
 21
47.5080600278209
 31
0.0
1001
REVIT
1002
{
1070
     1
1000
249276
1002
}
1002
{
1070
     5
1000
249148
1002
}
1002
{
1070
     2
1000
-2000151
1002
}
1002
{
1070
     3
1000
249105
1002
}
  0
LINE
  5
14A4
330
6C
100
AcDbEntity
  8
0
 62
     0
370
     0
100
AcDbLine
 10
-171.4757187422983
 20
47.5080600278209
 30
0.0
 11
-171.4757902396567
 21
47.50767292355368
 31
0.0
1001
REVIT
1002
{
1070
     1
1000
249276
1002
}
1002
{
1070
     5
1000
249148
1002
}
1002
{
1070
     2
1000
-2000151
1002
}
1002
{
1070
     3
1000
249105
1002
}
  0
LINE
  5
14A5
330
6C
100
AcDbEntity
  8
0
 62
     0
370
     0
100
AcDbLine
 10
-171.4757902396567
 20
47.50767292355368
 30
0.0
 11
-171.4758146293613
 21
47.5072936787849
 31
0.0
1001
REVIT
1002
{
1070
     1
1000
249276
1002
}
1002
{
1070
     5
1000
249148
1002
}
1002
{
1070
     2
1000
-2000151
1002
}
1002
{
1070
     3
1000
249105
1002
}
  0
LINE
  5
14A6
330
6C
100
AcDbEntity
  8
0
 62
     0
370
     0
100
AcDbLine
 10
-171.4758146293613
 20
47.5072936787849
 30
0.0
 11
-171.4757902396567
 21
47.5069482154432
 31
0.0
1001
REVIT
1002
{
1070
     1
1000
249276
1002
}
1002
{
1070
     5
1000
249148
1002
}
1002
{
1070
     2
1000
-2000151
1002
}
1002
{
1070
     3
1000
249105
1002
}
  0
LINE
  5
14A7
330
6C
100
AcDbEntity
  8
0
 62
     0
370
     0
100
AcDbLine
 10
-171.4757902396567
 20
47.5069482154432
 30
0.0
 11
-171.4757187422983
 21
47.50666013996037
 31
0.0
1001
REVIT
1002
{
1070
     1
1000
249276
1002
}
1002
{
1070
     5
1000
249148
1002
}
1002
{
1070
     2
1000
-2000151
1002
}
1002
{
1070
     3
1000
249105
1002
}
  0
LINE
  5
14A8
330
6C
100
AcDbEntity
  8
0
 62
     0
370
     0
100
AcDbLine
 10
-171.4757187422983
 20
47.50666013996037
 30
0.0
 11
-171.4756050360343
 21
47.50644911743482
 31
0.0
1001
REVIT
1002
{
1070
     1
1000
249276
1002
}
1002
{
1070
     5
1000
249148
1002
}
1002
{
1070
     2
1000
-2000151
1002
}
1002
{
1070
     3
1000
249105
1002
}
  0
LINE
  5
14A9
330
6C
100
AcDbEntity
  8
0
 62
     0
370
     0
100
AcDbLine
 10
-171.4756050360343
 20
47.50644911743482
 30
0.0
 11
-171.4754569056898
 21
47.5063295225811
 31
0.0
1001
REVIT
1002
{
1070
     1
1000
249276
1002
}
1002
{
1070
     5
1000
249148
1002
}
1002
{
1070
     2
1000
-2000151
1002
}
1002
{
1070
     3
1000
249105
1002
}
  0
LINE
  5
14AA
330
6C
100
AcDbEntity
  8
0
 62
     0
370
     0
100
AcDbLine
 10
-171.4754569056898
 20
47.5063295225811
 30
0.0
 11
-171.4752844819954
 21
47.5063094617891
 31
0.0
1001
REVIT
1002
{
1070
     1
1000
249276
1002
}
1002
{
1070
     5
1000
249148
1002
}
1002
{
1070
     2
1000
-2000151
1002
}
1002
{
1070
     3
1000
249105
1002
}
  0
LINE
  5
14AB
330
6C
100
AcDbEntity
  8
0
 62
     0
370
     0
100
AcDbLine
 10
-171.4752844819954
 20
47.5063094617891
 30
0.0
 11
-171.475099541569
 21
47.50639023247054
 31
0.0
1001
REVIT
1002
{
1070
     1
1000
249276
1002
}
1002
{
1070
     5
1000
249148
1002
}
1002
{
1070
     2
1000
-2000151
1002
}
1002
{
1070
     3
1000
249105
1002
}
  0
LINE
  5
14AC
330
6C
100
AcDbEntity
  8
0
 62
     0
370
     0
100
AcDbLine
 10
-171.5056252544423
 20
47.53271665876911
 30
0.0
 11
-171.5053208257287
 21
47.53259845610812
 31
0.0
1001
REVIT
1002
{
1070
     1
1000
249276
1002
}
1002
{
1070
     5
1000
249148
1002
}
1002
{
1070
     2
1000
-2000151
1002
}
1002
{
1070
     3
1000
249105
1002
}
  0
LINE
  5
14AD
330
6C
100
AcDbEntity
  8
0
 62
     0
370
     0
100
AcDbLine
 10
-171.5053208257287
 20
47.53259845610812
 30
0.0
 11
-171.5050370601927
 21
47.53239361095357
 31
0.0
1001
REVIT
1002
{
1070
     1
1000
249276
1002
}
1002
{
1070
     5
1000
249148
1002
}
1002
{
1070
     2
1000
-2000151
1002
}
1002
{
1070
     3
1000
249105
1002
}
  0
LINE
  5
14AE
330
6C
100
AcDbEntity
  8
0
 62
     0
370
     0
100
AcDbLine
 10
-171.5050370601927
 20
47.53239361095357
 30
0.0
 11
-171.504793321169
 21
47.53211605924683
 31
0.0
1001
REVIT
1002
{
1070
     1
1000
249276
1002
}
1002
{
1070
     5
1000
249148
1002
}
1002
{
1070
     2
1000
-2000151
1002
}
1002
{
1070
     3
1000
249105
1002
}
  0
LINE
  5
14AF
330
6C
100
AcDbEntity
  8
0
 62
     0
370
     0
100
AcDbLine
 10
-171.504793321169
 20
47.53211605924683
 30
0.0
 11
-171.5046062535054
 21
47.53178471278475
 31
0.0
1001
REVIT
1002
{
1070
     1
1000
249276
1002
}
1002
{
1070
     5
1000
249148
1002
}
1002
{
1070
     2
1000
-2000151
1002
}
1002
{
1070
     3
1000
249105
1002
}
  0
LINE
  5
14B0
330
6C
100
AcDbEntity
  8
0
 62
     0
370
     0
100
AcDbLine
 10
-171.5046062535054
 20
47.53178471278475
 30
0.0
 11
-171.5044886400121
 21
47.53142217120006
 31
0.0
1001
REVIT
1002
{
1070
     1
1000
249276
1002
}
1002
{
1070
     5
1000
249148
1002
}
1002
{
1070
     2
1000
-2000151
1002
}
1002
{
1070
     3
1000
249105
1002
}
  0
LINE
  5
14B1
330
6C
100
AcDbEntity
  8
0
 62
     0
370
     0
100
AcDbLine
 10
-171.5044886400121
 20
47.53142217120006
 30
0.0
 11
-171.5044485210887
 21
47.53105317676753
 31
0.0
1001
REVIT
1002
{
1070
     1
1000
249276
1002
}
1002
{
1070
     5
1000
249148
1002
}
1002
{
1070
     2
1000
-2000151
1002
}
1002
{
1070
     3
1000
249105
1002
}
  0
LINE
  5
14B2
330
6C
100
AcDbEntity
  8
0
 62
     0
370
     0
100
AcDbLine
 10
-171.5044485210887
 20
47.53105317676753
 30
0.0
 11
-171.5044886400121
 21
47.53070291869376
 31
0.0
1001
REVIT
1002
{
1070
     1
1000
249276
1002
}
1002
{
1070
     5
1000
249148
1002
}
1002
{
1070
     2
1000
-2000151
1002
}
1002
{
1070
     3
1000
249105
1002
}
  0
LINE
  5
14B3
330
6C
100
AcDbEntity
  8
0
 62
     0
370
     0
100
AcDbLine
 10
-171.5044886400121
 20
47.53070291869376
 30
0.0
 11
-171.5046062535054
 21
47.53039530501914
 31
0.0
1001
REVIT
1002
{
1070
     1
1000
249276
1002
}
1002
{
1070
     5
1000
249148
1002
}
1002
{
1070
     2
1000
-2000151
1002
}
1002
{
1070
     3
1000
249105
1002
}
  0
LINE
  5
14B4
330
6C
100
AcDbEntity
  8
0
 62
     0
370
     0
100
AcDbLine
 10
-171.5046062535054
 20
47.53039530501914
 30
0.0
 11
-171.504793321169
 21
47.53015132298694
 31
0.0
1001
REVIT
1002
{
1070
     1
1000
249276
1002
}
1002
{
1070
     5
1000
249148
1002
}
1002
{
1070
     2
1000
-2000151
1002
}
1002
{
1070
     3
1000
249105
1002
}
  0
LINE
  5
14B5
330
6C
100
AcDbEntity
  8
0
 62
     0
370
     0
100
AcDbLine
 10
-171.504793321169
 20
47.53015132298694
 30
0.0
 11
-171.504877601307
 21
47.53008092346081
 31
0.0
1001
REVIT
1002
{
1070
     1
1000
249276
1002
}
1002
{
1070
     5
1000
249148
1002
}
1002
{
1070
     2
1000
-2000151
1002
}
1002
{
1070
     3
1000
249105
1002
}
  0
LINE
  5
14B7
330
6C
100
AcDbEntity
  8
0
 62
     0
370
     0
100
AcDbLine
 10
-171.5062131041407
 20
47.53266752456402
 30
0.0
 11
-171.5059295908337
 21
47.53274020213861
 31
0.0
1001
REVIT
1002
{
1070
     1
1000
249276
1002
}
1002
{
1070
     5
1000
249148
1002
}
1002
{
1070
     2
1000
-2000151
1002
}
1002
{
1070
     3
1000
249105
1002
}
  0
LINE
  5
14B8
330
6C
100
AcDbEntity
  8
0
 62
     0
370
     0
100
AcDbLine
 10
-171.5059295908337
 20
47.53274020213861
 30
0.0
 11
-171.5056252544423
 21
47.53271665876911
 31
0.0
1001
REVIT
1002
{
1070
     1
1000
249276
1002
}
1002
{
1070
     5
1000
249148
1002
}
1002
{
1070
     2
1000
-2000151
1002
}
1002
{
1070
     3
1000
249105
1002
}
  0
LINE
  5
14B9
330
6C
100
AcDbEntity
  8
0
 62
     0
370
     0
100
AcDbLine
 10
-171.4890244593331
 20
47.52885168929061
 30
0.0
 11
-171.4887149734552
 21
47.5287319177282
 31
0.0
1001
REVIT
1002
{
1070
     1
1000
249276
1002
}
1002
{
1070
     5
1000
249148
1002
}
1002
{
1070
     2
1000
-2000151
1002
}
1002
{
1070
     3
1000
249105
1002
}
  0
LINE
  5
14BA
330
6C
100
AcDbEntity
  8
0
 62
     0
370
     0
100
AcDbLine
 10
-171.4887149734552
 20
47.5287319177282
 30
0.0
 11
-171.4884264933117
 21
47.52852482666729
 31
0.0
1001
REVIT
1002
{
1070
     1
1000
249276
1002
}
1002
{
1070
     5
1000
249148
1002
}
1002
{
1070
     2
1000
-2000151
1002
}
1002
{
1070
     3
1000
249105
1002
}
  0
LINE
  5
14BB
330
6C
100
AcDbEntity
  8
0
 62
     0
370
     0
100
AcDbLine
 10
-171.4884264933117
 20
47.52852482666729
 30
0.0
 11
-171.4881787041603
 21
47.52824450475578
 31
0.0
1001
REVIT
1002
{
1070
     1
1000
249276
1002
}
1002
{
1070
     5
1000
249148
1002
}
1002
{
1070
     2
1000
-2000151
1002
}
1002
{
1070
     3
1000
249105
1002
}
  0
LINE
  5
14BC
330
6C
100
AcDbEntity
  8
0
 62
     0
370
     0
100
AcDbLine
 10
-171.4881787041603
 20
47.52824450475578
 30
0.0
 11
-171.4879885277201
 21
47.52791005259466
 31
0.0
1001
REVIT
1002
{
1070
     1
1000
249276
1002
}
1002
{
1070
     5
1000
249148
1002
}
1002
{
1070
     2
1000
-2000151
1002
}
1002
{
1070
     3
1000
249105
1002
}
  0
LINE
  5
14BD
330
6C
100
AcDbEntity
  8
0
 62
     0
370
     0
100
AcDbLine
 10
-171.4879885277201
 20
47.52791005259466
 30
0.0
 11
-171.4878689595213
 21
47.52754428184672
 31
0.0
1001
REVIT
1002
{
1070
     1
1000
249276
1002
}
1002
{
1070
     5
1000
249148
1002
}
1002
{
1070
     2
1000
-2000151
1002
}
1002
{
1070
     3
1000
249105
1002
}
  0
LINE
  5
14BE
330
6C
100
AcDbEntity
  8
0
 62
     0
370
     0
100
AcDbLine
 10
-171.4878689595213
 20
47.52754428184672
 30
0.0
 11
-171.4878281738054
 21
47.52717215549106
 31
0.0
1001
REVIT
1002
{
1070
     1
1000
249276
1002
}
1002
{
1070
     5
1000
249148
1002
}
1002
{
1070
     2
1000
-2000151
1002
}
1002
{
1070
     3
1000
249105
1002
}
  0
LINE
  5
14BF
330
6C
100
AcDbEntity
  8
0
 62
     0
370
     0
100
AcDbLine
 10
-171.4878281738054
 20
47.52717215549106
 30
0.0
 11
-171.4878689595213
 21
47.52681907689994
 31
0.0
1001
REVIT
1002
{
1070
     1
1000
249276
1002
}
1002
{
1070
     5
1000
249148
1002
}
1002
{
1070
     2
1000
-2000151
1002
}
1002
{
1070
     3
1000
249105
1002
}
  0
LINE
  5
14C0
330
6C
100
AcDbEntity
  8
0
 62
     0
370
     0
100
AcDbLine
 10
-171.4878689595213
 20
47.52681907689994
 30
0.0
 11
-171.4879885277201
 21
47.52650914694954
 31
0.0
1001
REVIT
1002
{
1070
     1
1000
249276
1002
}
1002
{
1070
     5
1000
249148
1002
}
1002
{
1070
     2
1000
-2000151
1002
}
1002
{
1070
     3
1000
249105
1002
}
  0
LINE
  5
14C1
330
6C
100
AcDbEntity
  8
0
 62
     0
370
     0
100
AcDbLine
 10
-171.4879885277201
 20
47.52650914694954
 30
0.0
 11
-171.4881787041603
 21
47.52626351108069
 31
0.0
1001
REVIT
1002
{
1070
     1
1000
249276
1002
}
1002
{
1070
     5
1000
249148
1002
}
1002
{
1070
     2
1000
-2000151
1002
}
1002
{
1070
     3
1000
249105
1002
}
  0
LINE
  5
14C2
330
6C
100
AcDbEntity
  8
0
 62
     0
370
     0
100
AcDbLine
 10
-171.4881787041603
 20
47.52626351108069
 30
0.0
 11
-171.4881787041603
 21
47.52626351108069
 31
0.0
1001
REVIT
1002
{
1070
     1
1000
249276
1002
}
1002
{
1070
     5
1000
249148
1002
}
1002
{
1070
     2
1000
-2000151
1002
}
1002
{
1070
     3
1000
249105
1002
}
  0
LINE
  5
14C4
330
6C
100
AcDbEntity
  8
0
 62
     0
370
     0
100
AcDbLine
 10
-171.4896220721828
 20
47.52880329017687
 30
0.0
 11
-171.489333850579
 21
47.52887601826054
 31
0.0
1001
REVIT
1002
{
1070
     1
1000
249276
1002
}
1002
{
1070
     5
1000
249148
1002
}
1002
{
1070
     2
1000
-2000151
1002
}
1002
{
1070
     3
1000
249105
1002
}
  0
LINE
  5
14C5
330
6C
100
AcDbEntity
  8
0
 62
     0
370
     0
100
AcDbLine
 10
-171.489333850579
 20
47.52887601826054
 30
0.0
 11
-171.4890244593331
 21
47.52885168929061
 31
0.0
1001
REVIT
1002
{
1070
     1
1000
249276
1002
}
1002
{
1070
     5
1000
249148
1002
}
1002
{
1070
     2
1000
-2000151
1002
}
1002
{
1070
     3
1000
249105
1002
}
  0
LINE
  5
14C6
330
6C
100
AcDbEntity
  8
0
 62
     0
370
     0
100
AcDbLine
 10
-171.4973651522393
 20
47.54891364084054
 30
0.0
 11
-171.4970582124269
 21
47.54879741848021
 31
0.0
1001
REVIT
1002
{
1070
     1
1000
249276
1002
}
1002
{
1070
     5
1000
249148
1002
}
1002
{
1070
     2
1000
-2000151
1002
}
1002
{
1070
     3
1000
249105
1002
}
  0
LINE
  5
14C7
330
6C
100
AcDbEntity
  8
0
 62
     0
370
     0
100
AcDbLine
 10
-171.4970582124269
 20
47.54879741848021
 30
0.0
 11
-171.4967721058885
 21
47.5485940293719
 31
0.0
1001
REVIT
1002
{
1070
     1
1000
249276
1002
}
1002
{
1070
     5
1000
249148
1002
}
1002
{
1070
     2
1000
-2000151
1002
}
1002
{
1070
     3
1000
249105
1002
}
  0
LINE
  5
14C8
330
6C
100
AcDbEntity
  8
0
 62
     0
370
     0
100
AcDbLine
 10
-171.4967721058885
 20
47.5485940293719
 30
0.0
 11
-171.4965263558066
 21
47.5483173098275
 31
0.0
1001
REVIT
1002
{
1070
     1
1000
249276
1002
}
1002
{
1070
     5
1000
249148
1002
}
1002
{
1070
     2
1000
-2000151
1002
}
1002
{
1070
     3
1000
249105
1002
}
  0
LINE
  5
14C9
330
6C
100
AcDbEntity
  8
0
 62
     0
370
     0
100
AcDbLine
 10
-171.4965263558066
 20
47.5483173098275
 30
0.0
 11
-171.4963377445058
 21
47.5479861146293
 31
0.0
1001
REVIT
1002
{
1070
     1
1000
249276
1002
}
1002
{
1070
     5
1000
249148
1002
}
1002
{
1070
     2
1000
-2000151
1002
}
1002
{
1070
     3
1000
249105
1002
}
  0
LINE
  5
14CA
330
6C
100
AcDbEntity
  8
0
 62
     0
370
     0
100
AcDbLine
 10
-171.4963377445058
 20
47.5479861146293
 30
0.0
 11
-171.4962191604203
 21
47.54762303297734
 31
0.0
1001
REVIT
1002
{
1070
     1
1000
249276
1002
}
1002
{
1070
     5
1000
249148
1002
}
1002
{
1070
     2
1000
-2000151
1002
}
1002
{
1070
     3
1000
249105
1002
}
  0
LINE
  5
14CB
330
6C
100
AcDbEntity
  8
0
 62
     0
370
     0
100
AcDbLine
 10
-171.4962191604203
 20
47.54762303297734
 30
0.0
 11
-171.4961787104068
 21
47.54725284404008
 31
0.0
1001
REVIT
1002
{
1070
     1
1000
249276
1002
}
1002
{
1070
     5
1000
249148
1002
}
1002
{
1070
     2
1000
-2000151
1002
}
1002
{
1070
     3
1000
249105
1002
}
  0
LINE
  5
14CC
330
6C
100
AcDbEntity
  8
0
 62
     0
370
     0
100
AcDbLine
 10
-171.4961787104068
 20
47.54725284404008
 30
0.0
 11
-171.4962191604203
 21
47.54690081870622
 31
0.0
1001
REVIT
1002
{
1070
     1
1000
249276
1002
}
1002
{
1070
     5
1000
249148
1002
}
1002
{
1070
     2
1000
-2000151
1002
}
1002
{
1070
     3
1000
249105
1002
}
  0
LINE
  5
14CD
330
6C
100
AcDbEntity
  8
0
 62
     0
370
     0
100
AcDbLine
 10
-171.4962191604203
 20
47.54690081870622
 30
0.0
 11
-171.4963377445058
 21
47.54659098584497
 31
0.0
1001
REVIT
1002
{
1070
     1
1000
249276
1002
}
1002
{
1070
     5
1000
249148
1002
}
1002
{
1070
     2
1000
-2000151
1002
}
1002
{
1070
     3
1000
249105
1002
}
  0
LINE
  5
14CE
330
6C
100
AcDbEntity
  8
0
 62
     0
370
     0
100
AcDbLine
 10
-171.4963377445058
 20
47.54659098584497
 30
0.0
 11
-171.4965263558066
 21
47.5463444843358
 31
0.0
1001
REVIT
1002
{
1070
     1
1000
249276
1002
}
1002
{
1070
     5
1000
249148
1002
}
1002
{
1070
     2
1000
-2000151
1002
}
1002
{
1070
     3
1000
249105
1002
}
  0
LINE
  5
14CF
330
6C
100
AcDbEntity
  8
0
 62
     0
370
     0
100
AcDbLine
 10
-171.4965263558066
 20
47.5463444843358
 30
0.0
 11
-171.496621300434
 21
47.54626582828858
 31
0.0
1001
REVIT
1002
{
1070
     1
1000
249276
1002
}
1002
{
1070
     5
1000
249148
1002
}
1002
{
1070
     2
1000
-2000151
1002
}
1002
{
1070
     3
1000
249105
1002
}
  0
LINE
  5
14D0
330
6C
100
AcDbEntity
  8
0
 62
     0
370
     0
100
AcDbLine
 10
-171.4979578497673
 20
47.54885954104621
 30
0.0
 11
-171.497671998585
 21
47.54893481500167
 31
0.0
1001
REVIT
1002
{
1070
     1
1000
249276
1002
}
1002
{
1070
     5
1000
249148
1002
}
1002
{
1070
     2
1000
-2000151
1002
}
1002
{
1070
     3
1000
249105
1002
}
  0
LINE
  5
14D1
330
6C
100
AcDbEntity
  8
0
 62
     0
370
     0
100
AcDbLine
 10
-171.497671998585
 20
47.54893481500167
 30
0.0
 11
-171.4973651522393
 21
47.54891364084054
 31
0.0
1001
REVIT
1002
{
1070
     1
1000
249276
1002
}
1002
{
1070
     5
1000
249148
1002
}
1002
{
1070
     2
1000
-2000151
1002
}
1002
{
1070
     3
1000
249105
1002
}
  0
LINE
  5
14D2
330
6C
100
AcDbEntity
  8
0
 62
     0
370
     0
100
AcDbLine
 10
-171.5059953098985
 20
47.53248338066515
 30
0.0
 11
-171.506299742058
 21
47.5325069711763
 31
0.0
1001
REVIT
1002
{
1070
     1
1000
249276
1002
}
1002
{
1070
     5
1000
249148
1002
}
1002
{
1070
     2
1000
-2000151
1002
}
1002
{
1070
     3
1000
249105
1002
}
  0
LINE
  5
14D3
330
6C
100
AcDbEntity
  8
0
 62
     0
370
     0
100
AcDbLine
 10
-171.506299742058
 20
47.5325069711763
 30
0.0
 11
-171.506583344539
 21
47.53243429029707
 31
0.0
1001
REVIT
1002
{
1070
     1
1000
249276
1002
}
1002
{
1070
     5
1000
249148
1002
}
1002
{
1070
     2
1000
-2000151
1002
}
1002
{
1070
     3
1000
249105
1002
}
  0
LINE
  5
14D4
330
6C
100
AcDbEntity
  8
0
 62
     0
370
     0
100
AcDbLine
 10
-171.506583344539
 20
47.53243429029707
 30
0.0
 11
-171.5068268155348
 21
47.53227032674587
 31
0.0
1001
REVIT
1002
{
1070
     1
1000
249276
1002
}
1002
{
1070
     5
1000
249148
1002
}
1002
{
1070
     2
1000
-2000151
1002
}
1002
{
1070
     3
1000
249105
1002
}
  0
LINE
  5
14D5
330
6C
100
AcDbEntity
  8
0
 62
     0
370
     0
100
AcDbLine
 10
-171.5068268155348
 20
47.53227032674587
 30
0.0
 11
-171.5070135973327
 21
47.53202627327185
 31
0.0
1001
REVIT
1002
{
1070
     1
1000
249276
1002
}
1002
{
1070
     5
1000
249148
1002
}
1002
{
1070
     2
1000
-2000151
1002
}
1002
{
1070
     3
1000
249105
1002
}
  0
LINE
  5
14D6
330
6C
100
AcDbEntity
  8
0
 62
     0
370
     0
100
AcDbLine
 10
-171.5070135973327
 20
47.53202627327185
 30
0.0
 11
-171.5071309954741
 21
47.53171875883717
 31
0.0
1001
REVIT
1002
{
1070
     1
1000
249276
1002
}
1002
{
1070
     5
1000
249148
1002
}
1002
{
1070
     2
1000
-2000151
1002
}
1002
{
1070
     3
1000
249105
1002
}
  0
LINE
  5
14D7
330
6C
100
AcDbEntity
  8
0
 62
     0
370
     0
100
AcDbLine
 10
-171.5071309954741
 20
47.53171875883717
 30
0.0
 11
-171.5071710346507
 21
47.53136871616071
 31
0.0
1001
REVIT
1002
{
1070
     1
1000
249276
1002
}
1002
{
1070
     5
1000
249148
1002
}
1002
{
1070
     2
1000
-2000151
1002
}
1002
{
1070
     3
1000
249105
1002
}
  0
LINE
  5
14D8
330
6C
100
AcDbEntity
  8
0
 62
     0
370
     0
100
AcDbLine
 10
-171.5071710346507
 20
47.53136871616071
 30
0.0
 11
-171.5071309954741
 21
47.53099996158375
 31
0.0
1001
REVIT
1002
{
1070
     1
1000
249276
1002
}
1002
{
1070
     5
1000
249148
1002
}
1002
{
1070
     2
1000
-2000151
1002
}
1002
{
1070
     3
1000
249105
1002
}
  0
LINE
  5
14D9
330
6C
100
AcDbEntity
  8
0
 62
     0
370
     0
100
AcDbLine
 10
-171.5071309954741
 20
47.53099996158375
 30
0.0
 11
-171.5070135973327
 21
47.5306375823261
 31
0.0
1001
REVIT
1002
{
1070
     1
1000
249276
1002
}
1002
{
1070
     5
1000
249148
1002
}
1002
{
1070
     2
1000
-2000151
1002
}
1002
{
1070
     3
1000
249105
1002
}
  0
LINE
  5
14DA
330
6C
100
AcDbEntity
  8
0
 62
     0
370
     0
100
AcDbLine
 10
-171.5070135973327
 20
47.5306375823261
 30
0.0
 11
-171.5068268155348
 21
47.5303062382854
 31
0.0
1001
REVIT
1002
{
1070
     1
1000
249276
1002
}
1002
{
1070
     5
1000
249148
1002
}
1002
{
1070
     2
1000
-2000151
1002
}
1002
{
1070
     3
1000
249105
1002
}
  0
LINE
  5
14DB
330
6C
100
AcDbEntity
  8
0
 62
     0
370
     0
100
AcDbLine
 10
-171.5068268155348
 20
47.5303062382854
 30
0.0
 11
-171.506583344539
 21
47.53002849104965
 31
0.0
1001
REVIT
1002
{
1070
     1
1000
249276
1002
}
1002
{
1070
     5
1000
249148
1002
}
1002
{
1070
     2
1000
-2000151
1002
}
1002
{
1070
     3
1000
249105
1002
}
  0
LINE
  5
14DC
330
6C
100
AcDbEntity
  8
0
 62
     0
370
     0
100
AcDbLine
 10
-171.506583344539
 20
47.53002849104965
 30
0.0
 11
-171.506299742058
 21
47.52982327144591
 31
0.0
1001
REVIT
1002
{
1070
     1
1000
249276
1002
}
1002
{
1070
     5
1000
249148
1002
}
1002
{
1070
     2
1000
-2000151
1002
}
1002
{
1070
     3
1000
249105
1002
}
  0
LINE
  5
14DD
330
6C
100
AcDbEntity
  8
0
 62
     0
370
     0
100
AcDbLine
 10
-171.506299742058
 20
47.52982327144591
 30
0.0
 11
-171.5059953098985
 21
47.52970458869489
 31
0.0
1001
REVIT
1002
{
1070
     1
1000
249276
1002
}
1002
{
1070
     5
1000
249148
1002
}
1002
{
1070
     2
1000
-2000151
1002
}
1002
{
1070
     3
1000
249105
1002
}
  0
LINE
  5
14DE
330
6C
100
AcDbEntity
  8
0
 62
     0
370
     0
100
AcDbLine
 10
-171.5059953098985
 20
47.52970458869489
 30
0.0
 11
-171.5056907853416
 21
47.52968056933192
 31
0.0
1001
REVIT
1002
{
1070
     1
1000
249276
1002
}
1002
{
1070
     5
1000
249148
1002
}
1002
{
1070
     2
1000
-2000151
1002
}
1002
{
1070
     3
1000
249105
1002
}
  0
LINE
  5
14DF
330
6C
100
AcDbEntity
  8
0
 62
     0
370
     0
100
AcDbLine
 10
-171.5056907853416
 20
47.52968056933192
 30
0.0
 11
-171.5054069304262
 21
47.52975289308873
 31
0.0
1001
REVIT
1002
{
1070
     1
1000
249276
1002
}
1002
{
1070
     5
1000
249148
1002
}
1002
{
1070
     2
1000
-2000151
1002
}
1002
{
1070
     3
1000
249105
1002
}
  0
LINE
  5
14E0
330
6C
100
AcDbEntity
  8
0
 62
     0
370
     0
100
AcDbLine
 10
-171.5054069304262
 20
47.52975289308873
 30
0.0
 11
-171.5051631145984
 21
47.52991666693765
 31
0.0
1001
REVIT
1002
{
1070
     1
1000
249276
1002
}
1002
{
1070
     5
1000
249148
1002
}
1002
{
1070
     2
1000
-2000151
1002
}
1002
{
1070
     3
1000
249105
1002
}
  0
LINE
  5
14E1
330
6C
100
AcDbEntity
  8
0
 62
     0
370
     0
100
AcDbLine
 10
-171.5051631145984
 20
47.52991666693765
 30
0.0
 11
-171.5049759879684
 21
47.53016074896013
 31
0.0
1001
REVIT
1002
{
1070
     1
1000
249276
1002
}
1002
{
1070
     5
1000
249148
1002
}
1002
{
1070
     2
1000
-2000151
1002
}
1002
{
1070
     3
1000
249105
1002
}
  0
LINE
  5
14E2
330
6C
100
AcDbEntity
  8
0
 62
     0
370
     0
100
AcDbLine
 10
-171.5049759879684
 20
47.53016074896013
 30
0.0
 11
-171.5048583373926
 21
47.53046850254451
 31
0.0
1001
REVIT
1002
{
1070
     1
1000
249276
1002
}
1002
{
1070
     5
1000
249148
1002
}
1002
{
1070
     2
1000
-2000151
1002
}
1002
{
1070
     3
1000
249105
1002
}
  0
LINE
  5
14E3
330
6C
100
AcDbEntity
  8
0
 62
     0
370
     0
100
AcDbLine
 10
-171.5048583373926
 20
47.53046850254451
 30
0.0
 11
-171.5048182058186
 21
47.53081893089198
 31
0.0
1001
REVIT
1002
{
1070
     1
1000
249276
1002
}
1002
{
1070
     5
1000
249148
1002
}
1002
{
1070
     2
1000
-2000151
1002
}
1002
{
1070
     3
1000
249105
1002
}
  0
LINE
  5
14E4
330
6C
100
AcDbEntity
  8
0
 62
     0
370
     0
100
AcDbLine
 10
-171.5048182058186
 20
47.53081893089198
 30
0.0
 11
-171.5048583373926
 21
47.5311881143209
 31
0.0
1001
REVIT
1002
{
1070
     1
1000
249276
1002
}
1002
{
1070
     5
1000
249148
1002
}
1002
{
1070
     2
1000
-2000151
1002
}
1002
{
1070
     3
1000
249105
1002
}
  0
LINE
  5
14E5
330
6C
100
AcDbEntity
  8
0
 62
     0
370
     0
100
AcDbLine
 10
-171.5048583373926
 20
47.5311881143209
 30
0.0
 11
-171.5049759879684
 21
47.53155085070094
 31
0.0
1001
REVIT
1002
{
1070
     1
1000
249276
1002
}
1002
{
1070
     5
1000
249148
1002
}
1002
{
1070
     2
1000
-2000151
1002
}
1002
{
1070
     3
1000
249105
1002
}
  0
LINE
  5
14E6
330
6C
100
AcDbEntity
  8
0
 62
     0
370
     0
100
AcDbLine
 10
-171.5049759879684
 20
47.53155085070094
 30
0.0
 11
-171.5051631145984
 21
47.53188238444379
 31
0.0
1001
REVIT
1002
{
1070
     1
1000
249276
1002
}
1002
{
1070
     5
1000
249148
1002
}
1002
{
1070
     2
1000
-2000151
1002
}
1002
{
1070
     3
1000
249105
1002
}
  0
LINE
  5
14E7
330
6C
100
AcDbEntity
  8
0
 62
     0
370
     0
100
AcDbLine
 10
-171.5051631145984
 20
47.53188238444379
 30
0.0
 11
-171.5054069304262
 21
47.53216010313097
 31
0.0
1001
REVIT
1002
{
1070
     1
1000
249276
1002
}
1002
{
1070
     5
1000
249148
1002
}
1002
{
1070
     2
1000
-2000151
1002
}
1002
{
1070
     3
1000
249105
1002
}
  0
LINE
  5
14E8
330
6C
100
AcDbEntity
  8
0
 62
     0
370
     0
100
AcDbLine
 10
-171.5054069304262
 20
47.53216010313097
 30
0.0
 11
-171.5056907853416
 21
47.53236508358502
 31
0.0
1001
REVIT
1002
{
1070
     1
1000
249276
1002
}
1002
{
1070
     5
1000
249148
1002
}
1002
{
1070
     2
1000
-2000151
1002
}
1002
{
1070
     3
1000
249105
1002
}
  0
LINE
  5
14E9
330
6C
100
AcDbEntity
  8
0
 62
     0
370
     0
100
AcDbLine
 10
-171.5056907853416
 20
47.53236508358502
 30
0.0
 11
-171.5059953098985
 21
47.53248338066515
 31
0.0
1001
REVIT
1002
{
1070
     1
1000
249276
1002
}
1002
{
1070
     5
1000
249148
1002
}
1002
{
1070
     2
1000
-2000151
1002
}
1002
{
1070
     3
1000
249105
1002
}
  0
LINE
  5
14EA
330
6C
100
AcDbEntity
  8
0
 62
     0
370
     0
100
AcDbLine
 10
-171.4893892210502
 20
47.52861453529316
 30
0.0
 11
-171.4896987122105
 21
47.52863891278304
 31
0.0
1001
REVIT
1002
{
1070
     1
1000
249276
1002
}
1002
{
1070
     5
1000
249148
1002
}
1002
{
1070
     2
1000
-2000151
1002
}
1002
{
1070
     3
1000
249105
1002
}
  0
LINE
  5
14EB
330
6C
100
AcDbEntity
  8
0
 62
     0
370
     0
100
AcDbLine
 10
-171.4896987122105
 20
47.52863891278304
 30
0.0
 11
-171.4899870268492
 21
47.52856618189416
 31
0.0
1001
REVIT
1002
{
1070
     1
1000
249276
1002
}
1002
{
1070
     5
1000
249148
1002
}
1002
{
1070
     2
1000
-2000151
1002
}
1002
{
1070
     3
1000
249105
1002
}
  0
LINE
  5
14EC
330
6C
100
AcDbEntity
  8
0
 62
     0
370
     0
100
AcDbLine
 10
-171.4899870268492
 20
47.52856618189416
 30
0.0
 11
-171.4902345426655
 21
47.52840133539455
 31
0.0
1001
REVIT
1002
{
1070
     1
1000
249276
1002
}
1002
{
1070
     5
1000
249148
1002
}
1002
{
1070
     2
1000
-2000151
1002
}
1002
{
1070
     3
1000
249105
1002
}
  0
LINE
  5
14ED
330
6C
100
AcDbEntity
  8
0
 62
     0
370
     0
100
AcDbLine
 10
-171.4902345426655
 20
47.52840133539455
 30
0.0
 11
-171.4904244271608
 21
47.52815562658627
 31
0.0
1001
REVIT
1002
{
1070
     1
1000
249276
1002
}
1002
{
1070
     5
1000
249148
1002
}
1002
{
1070
     2
1000
-2000151
1002
}
1002
{
1070
     3
1000
249105
1002
}
  0
LINE
  5
14EE
330
6C
100
AcDbEntity
  8
0
 62
     0
370
     0
100
AcDbLine
 10
-171.4904244271608
 20
47.52815562658627
 30
0.0
 11
-171.4905437752938
 21
47.52784579725937
 31
0.0
1001
REVIT
1002
{
1070
     1
1000
249276
1002
}
1002
{
1070
     5
1000
249148
1002
}
1002
{
1070
     2
1000
-2000151
1002
}
1002
{
1070
     3
1000
249105
1002
}
  0
LINE
  5
14EF
330
6C
100
AcDbEntity
  8
0
 62
     0
370
     0
100
AcDbLine
 10
-171.4905437752938
 20
47.52784579725937
 30
0.0
 11
-171.4905844794975
 21
47.52749293754149
 31
0.0
1001
REVIT
1002
{
1070
     1
1000
249276
1002
}
1002
{
1070
     5
1000
249148
1002
}
1002
{
1070
     2
1000
-2000151
1002
}
1002
{
1070
     3
1000
249105
1002
}
  0
LINE
  5
14F0
330
6C
100
AcDbEntity
  8
0
 62
     0
370
     0
100
AcDbLine
 10
-171.4905844794975
 20
47.52749293754149
 30
0.0
 11
-171.4905437752938
 21
47.52712105512943
 31
0.0
1001
REVIT
1002
{
1070
     1
1000
249276
1002
}
1002
{
1070
     5
1000
249148
1002
}
1002
{
1070
     2
1000
-2000151
1002
}
1002
{
1070
     3
1000
249105
1002
}
  0
LINE
  5
14F1
330
6C
100
AcDbEntity
  8
0
 62
     0
370
     0
100
AcDbLine
 10
-171.4905437752938
 20
47.52712105512943
 30
0.0
 11
-171.4904244271608
 21
47.5267554496709
 31
0.0
1001
REVIT
1002
{
1070
     1
1000
249276
1002
}
1002
{
1070
     5
1000
249148
1002
}
1002
{
1070
     2
1000
-2000151
1002
}
1002
{
1070
     3
1000
249105
1002
}
  0
LINE
  5
14F2
330
6C
100
AcDbEntity
  8
0
 62
     0
370
     0
100
AcDbLine
 10
-171.4904244271608
 20
47.5267554496709
 30
0.0
 11
-171.4902345426655
 21
47.526421000282
 31
0.0
1001
REVIT
1002
{
1070
     1
1000
249276
1002
}
1002
{
1070
     5
1000
249148
1002
}
1002
{
1070
     2
1000
-2000151
1002
}
1002
{
1070
     3
1000
249105
1002
}
  0
LINE
  5
14F3
330
6C
100
AcDbEntity
  8
0
 62
     0
370
     0
100
AcDbLine
 10
-171.4902345426655
 20
47.526421000282
 30
0.0
 11
-171.4899870268492
 21
47.52614047979225
 31
0.0
1001
REVIT
1002
{
1070
     1
1000
249276
1002
}
1002
{
1070
     5
1000
249148
1002
}
1002
{
1070
     2
1000
-2000151
1002
}
1002
{
1070
     3
1000
249105
1002
}
  0
LINE
  5
14F4
330
6C
100
AcDbEntity
  8
0
 62
     0
370
     0
100
AcDbLine
 10
-171.4899870268492
 20
47.52614047979225
 30
0.0
 11
-171.4896987122105
 21
47.52593300800011
 31
0.0
1001
REVIT
1002
{
1070
     1
1000
249276
1002
}
1002
{
1070
     5
1000
249148
1002
}
1002
{
1070
     2
1000
-2000151
1002
}
1002
{
1070
     3
1000
249105
1002
}
  0
LINE
  5
14F5
330
6C
100
AcDbEntity
  8
0
 62
     0
370
     0
100
AcDbLine
 10
-171.4896987122105
 20
47.52593300800011
 30
0.0
 11
-171.4893892210502
 21
47.52581274795545
 31
0.0
1001
REVIT
1002
{
1070
     1
1000
249276
1002
}
1002
{
1070
     5
1000
249148
1002
}
1002
{
1070
     2
1000
-2000151
1002
}
1002
{
1070
     3
1000
249105
1002
}
  0
LINE
  5
14F6
330
6C
100
AcDbEntity
  8
0
 62
     0
370
     0
100
AcDbLine
 10
-171.4893892210502
 20
47.52581274795545
 30
0.0
 11
-171.4890796351799
 21
47.52578793430499
 31
0.0
1001
REVIT
1002
{
1070
     1
1000
249276
1002
}
1002
{
1070
     5
1000
249148
1002
}
1002
{
1070
     2
1000
-2000151
1002
}
1002
{
1070
     3
1000
249105
1002
}
  0
LINE
  5
14F7
330
6C
100
AcDbEntity
  8
0
 62
     0
370
     0
100
AcDbLine
 10
-171.4890796351799
 20
47.52578793430499
 30
0.0
 11
-171.4887910617879
 21
47.52586030164016
 31
0.0
1001
REVIT
1002
{
1070
     1
1000
249276
1002
}
1002
{
1070
     5
1000
249148
1002
}
1002
{
1070
     2
1000
-2000151
1002
}
1002
{
1070
     3
1000
249105
1002
}
  0
LINE
  5
14F8
330
6C
100
AcDbEntity
  8
0
 62
     0
370
     0
100
AcDbLine
 10
-171.4887910617879
 20
47.52586030164016
 30
0.0
 11
-171.4885431925078
 21
47.52602495460695
 31
0.0
1001
REVIT
1002
{
1070
     1
1000
249276
1002
}
1002
{
1070
     5
1000
249148
1002
}
1002
{
1070
     2
1000
-2000151
1002
}
1002
{
1070
     3
1000
249105
1002
}
  0
LINE
  5
14F9
330
6C
100
AcDbEntity
  8
0
 62
     0
370
     0
100
AcDbLine
 10
-171.4885431925078
 20
47.52602495460695
 30
0.0
 11
-171.4883529545486
 21
47.52627069176024
 31
0.0
1001
REVIT
1002
{
1070
     1
1000
249276
1002
}
1002
{
1070
     5
1000
249148
1002
}
1002
{
1070
     2
1000
-2000151
1002
}
1002
{
1070
     3
1000
249105
1002
}
  0
LINE
  5
14FA
330
6C
100
AcDbEntity
  8
0
 62
     0
370
     0
100
AcDbLine
 10
-171.4883529545486
 20
47.52627069176024
 30
0.0
 11
-171.4882333476623
 21
47.52658076371505
 31
0.0
1001
REVIT
1002
{
1070
     1
1000
249276
1002
}
1002
{
1070
     5
1000
249148
1002
}
1002
{
1070
     2
1000
-2000151
1002
}
1002
{
1070
     3
1000
249105
1002
}
  0
LINE
  5
14FB
330
6C
100
AcDbEntity
  8
0
 62
     0
370
     0
100
AcDbLine
 10
-171.4882333476623
 20
47.52658076371505
 30
0.0
 11
-171.4881925487482
 21
47.5269340153318
 31
0.0
1001
REVIT
1002
{
1070
     1
1000
249276
1002
}
1002
{
1070
     5
1000
249148
1002
}
1002
{
1070
     2
1000
-2000151
1002
}
1002
{
1070
     3
1000
249105
1002
}
  0
LINE
  5
14FC
330
6C
100
AcDbEntity
  8
0
 62
     0
370
     0
100
AcDbLine
 10
-171.4881925487482
 20
47.5269340153318
 30
0.0
 11
-171.4882333476623
 21
47.52730633390458
 31
0.0
1001
REVIT
1002
{
1070
     1
1000
249276
1002
}
1002
{
1070
     5
1000
249148
1002
}
1002
{
1070
     2
1000
-2000151
1002
}
1002
{
1070
     3
1000
249105
1002
}
  0
LINE
  5
14FD
330
6C
100
AcDbEntity
  8
0
 62
     0
370
     0
100
AcDbLine
 10
-171.4882333476623
 20
47.52730633390458
 30
0.0
 11
-171.4883529545486
 21
47.52767230291682
 31
0.0
1001
REVIT
1002
{
1070
     1
1000
249276
1002
}
1002
{
1070
     5
1000
249148
1002
}
1002
{
1070
     2
1000
-2000151
1002
}
1002
{
1070
     3
1000
249105
1002
}
  0
LINE
  5
14FE
330
6C
100
AcDbEntity
  8
0
 62
     0
370
     0
100
AcDbLine
 10
-171.4883529545486
 20
47.52767230291682
 30
0.0
 11
-171.4885431925078
 21
47.52800694583844
 31
0.0
1001
REVIT
1002
{
1070
     1
1000
249276
1002
}
1002
{
1070
     5
1000
249148
1002
}
1002
{
1070
     2
1000
-2000151
1002
}
1002
{
1070
     3
1000
249105
1002
}
  0
LINE
  5
14FF
330
6C
100
AcDbEntity
  8
0
 62
     0
370
     0
100
AcDbLine
 10
-171.4885431925078
 20
47.52800694583844
 30
0.0
 11
-171.4887910617879
 21
47.52828743798303
 31
0.0
1001
REVIT
1002
{
1070
     1
1000
249276
1002
}
1002
{
1070
     5
1000
249148
1002
}
1002
{
1070
     2
1000
-2000151
1002
}
1002
{
1070
     3
1000
249105
1002
}
  0
LINE
  5
1500
330
6C
100
AcDbEntity
  8
0
 62
     0
370
     0
100
AcDbLine
 10
-171.4887910617879
 20
47.52828743798303
 30
0.0
 11
-171.4890796351799
 21
47.52849466714727
 31
0.0
1001
REVIT
1002
{
1070
     1
1000
249276
1002
}
1002
{
1070
     5
1000
249148
1002
}
1002
{
1070
     2
1000
-2000151
1002
}
1002
{
1070
     3
1000
249105
1002
}
  0
LINE
  5
1501
330
6C
100
AcDbEntity
  8
0
 62
     0
370
     0
100
AcDbLine
 10
-171.4890796351799
 20
47.52849466714727
 30
0.0
 11
-171.4893892210502
 21
47.52861453529316
 31
0.0
1001
REVIT
1002
{
1070
     1
1000
249276
1002
}
1002
{
1070
     5
1000
249148
1002
}
1002
{
1070
     2
1000
-2000151
1002
}
1002
{
1070
     3
1000
249105
1002
}
  0
LINE
  5
1502
330
6C
100
AcDbEntity
  8
0
 62
     0
370
     0
100
AcDbLine
 10
-171.4980101423403
 20
47.54871094099253
 30
0.0
 11
-171.4983254772482
 21
47.54863346101153
 31
0.0
1001
REVIT
1002
{
1070
     1
1000
249276
1002
}
1002
{
1070
     5
1000
249148
1002
}
1002
{
1070
     2
1000
-2000151
1002
}
1002
{
1070
     3
1000
249105
1002
}
  0
LINE
  5
1503
330
6C
100
AcDbEntity
  8
0
 62
     0
370
     0
100
AcDbLine
 10
-171.4983254772482
 20
47.54863346101153
 30
0.0
 11
-171.4985709566698
 21
47.54846684851632
 31
0.0
1001
REVIT
1002
{
1070
     1
1000
249276
1002
}
1002
{
1070
     5
1000
249148
1002
}
1002
{
1070
     2
1000
-2000151
1002
}
1002
{
1070
     3
1000
249105
1002
}
  0
LINE
  5
1504
330
6C
100
AcDbEntity
  8
0
 62
     0
370
     0
100
AcDbLine
 10
-171.4985709566698
 20
47.54846684851632
 30
0.0
 11
-171.4987592790904
 21
47.54822027626231
 31
0.0
1001
REVIT
1002
{
1070
     1
1000
249276
1002
}
1002
{
1070
     5
1000
249148
1002
}
1002
{
1070
     2
1000
-2000151
1002
}
1002
{
1070
     3
1000
249105
1002
}
  0
LINE
  5
1505
330
6C
100
AcDbEntity
  8
0
 62
     0
370
     0
100
AcDbLine
 10
-171.4987592790904
 20
47.54822027626231
 30
0.0
 11
-171.4988776454868
 21
47.54791054455844
 31
0.0
1001
REVIT
1002
{
1070
     1
1000
249276
1002
}
1002
{
1070
     5
1000
249148
1002
}
1002
{
1070
     2
1000
-2000151
1002
}
1002
{
1070
     3
1000
249105
1002
}
  0
LINE
  5
1506
330
6C
100
AcDbEntity
  8
0
 62
     0
370
     0
100
AcDbLine
 10
-171.4988776454868
 20
47.54791054455844
 30
0.0
 11
-171.4989180148781
 21
47.54755873682478
 31
0.0
1001
REVIT
1002
{
1070
     1
1000
249276
1002
}
1002
{
1070
     5
1000
249148
1002
}
1002
{
1070
     2
1000
-2000151
1002
}
1002
{
1070
     3
1000
249105
1002
}
  0
LINE
  5
1507
330
6C
100
AcDbEntity
  8
0
 62
     0
370
     0
100
AcDbLine
 10
-171.4989180148781
 20
47.54755873682478
 30
0.0
 11
-171.4988776454868
 21
47.54718878929602
 31
0.0
1001
REVIT
1002
{
1070
     1
1000
249276
1002
}
1002
{
1070
     5
1000
249148
1002
}
1002
{
1070
     2
1000
-2000151
1002
}
1002
{
1070
     3
1000
249105
1002
}
  0
LINE
  5
1508
330
6C
100
AcDbEntity
  8
0
 62
     0
370
     0
100
AcDbLine
 10
-171.4988776454868
 20
47.54718878929602
 30
0.0
 11
-171.4987592790904
 21
47.54682587021162
 31
0.0
1001
REVIT
1002
{
1070
     1
1000
249276
1002
}
1002
{
1070
     5
1000
249148
1002
}
1002
{
1070
     2
1000
-2000151
1002
}
1002
{
1070
     3
1000
249105
1002
}
  0
LINE
  5
1509
330
6C
100
AcDbEntity
  8
0
 62
     0
370
     0
100
AcDbLine
 10
-171.4987592790904
 20
47.54682587021162
 30
0.0
 11
-171.4985709566698
 21
47.5464946761684
 31
0.0
1001
REVIT
1002
{
1070
     1
1000
249276
1002
}
1002
{
1070
     5
1000
249148
1002
}
1002
{
1070
     2
1000
-2000151
1002
}
1002
{
1070
     3
1000
249105
1002
}
  0
LINE
  5
150A
330
6C
100
AcDbEntity
  8
0
 62
     0
370
     0
100
AcDbLine
 10
-171.4985709566698
 20
47.5464946761684
 30
0.0
 11
-171.4983254772482
 21
47.54621775865583
 31
0.0
1001
REVIT
1002
{
1070
     1
1000
249276
1002
}
1002
{
1070
     5
1000
249148
1002
}
1002
{
1070
     2
1000
-2000151
1002
}
1002
{
1070
     3
1000
249105
1002
}
  0
LINE
  5
150B
330
6C
100
AcDbEntity
  8
0
 62
     0
370
     0
100
AcDbLine
 10
-171.4983254772482
 20
47.54621775865583
 30
0.0
 11
-171.4980395349821
 21
47.54601399226
 31
0.0
1001
REVIT
1002
{
1070
     1
1000
249276
1002
}
1002
{
1070
     5
1000
249148
1002
}
1002
{
1070
     2
1000
-2000151
1002
}
1002
{
1070
     3
1000
249105
1002
}
  0
LINE
  5
150C
330
6C
100
AcDbEntity
  8
0
 62
     0
370
     0
100
AcDbLine
 10
-171.4980395349821
 20
47.54601399226
 30
0.0
 11
-171.4977325908174
 21
47.54589728756991
 31
0.0
1001
REVIT
1002
{
1070
     1
1000
249276
1002
}
1002
{
1070
     5
1000
249148
1002
}
1002
{
1070
     2
1000
-2000151
1002
}
1002
{
1070
     3
1000
249105
1002
}
  0
LINE
  5
150D
330
6C
100
AcDbEntity
  8
0
 62
     0
370
     0
100
AcDbLine
 10
-171.4977325908174
 20
47.54589728756991
 30
0.0
 11
-171.4974255531094
 21
47.54587563671222
 31
0.0
1001
REVIT
1002
{
1070
     1
1000
249276
1002
}
1002
{
1070
     5
1000
249148
1002
}
1002
{
1070
     2
1000
-2000151
1002
}
1002
{
1070
     3
1000
249105
1002
}
  0
LINE
  5
150E
330
6C
100
AcDbEntity
  8
0
 62
     0
370
     0
100
AcDbLine
 10
-171.4974255531094
 20
47.54587563671222
 30
0.0
 11
-171.4971393552777
 21
47.54595055828791
 31
0.0
1001
REVIT
1002
{
1070
     1
1000
249276
1002
}
1002
{
1070
     5
1000
249148
1002
}
1002
{
1070
     2
1000
-2000151
1002
}
1002
{
1070
     3
1000
249105
1002
}
  0
LINE
  5
150F
330
6C
100
AcDbEntity
  8
0
 62
     0
370
     0
100
AcDbLine
 10
-171.4971393552777
 20
47.54595055828791
 30
0.0
 11
-171.496893526747
 21
47.54611698232192
 31
0.0
1001
REVIT
1002
{
1070
     1
1000
249276
1002
}
1002
{
1070
     5
1000
249148
1002
}
1002
{
1070
     2
1000
-2000151
1002
}
1002
{
1070
     3
1000
249105
1002
}
  0
LINE
  5
1510
330
6C
100
AcDbEntity
  8
0
 62
     0
370
     0
100
AcDbLine
 10
-171.496893526747
 20
47.54611698232192
 30
0.0
 11
-171.4967048552173
 21
47.54636358616648
 31
0.0
1001
REVIT
1002
{
1070
     1
1000
249276
1002
}
1002
{
1070
     5
1000
249148
1002
}
1002
{
1070
     2
1000
-2000151
1002
}
1002
{
1070
     3
1000
249105
1002
}
  0
LINE
  5
1511
330
6C
100
AcDbEntity
  8
0
 62
     0
370
     0
100
AcDbLine
 10
-171.4967048552173
 20
47.54636358616648
 30
0.0
 11
-171.4965862332553
 21
47.54667356104803
 31
0.0
1001
REVIT
1002
{
1070
     1
1000
249276
1002
}
1002
{
1070
     5
1000
249148
1002
}
1002
{
1070
     2
1000
-2000151
1002
}
1002
{
1070
     3
1000
249105
1002
}
  0
LINE
  5
1512
330
6C
100
AcDbEntity
  8
0
 62
     0
370
     0
100
AcDbLine
 10
-171.4965862332553
 20
47.54667356104803
 30
0.0
 11
-171.4965457703204
 21
47.54702575838721
 31
0.0
1001
REVIT
1002
{
1070
     1
1000
249276
1002
}
1002
{
1070
     5
1000
249148
1002
}
1002
{
1070
     2
1000
-2000151
1002
}
1002
{
1070
     3
1000
249105
1002
}
  0
LINE
  5
1513
330
6C
100
AcDbEntity
  8
0
 62
     0
370
     0
100
AcDbLine
 10
-171.4965457703204
 20
47.54702575838721
 30
0.0
 11
-171.4965862332553
 21
47.54739613755492
 31
0.0
1001
REVIT
1002
{
1070
     1
1000
249276
1002
}
1002
{
1070
     5
1000
249148
1002
}
1002
{
1070
     2
1000
-2000151
1002
}
1002
{
1070
     3
1000
249105
1002
}
  0
LINE
  5
1514
330
6C
100
AcDbEntity
  8
0
 62
     0
370
     0
100
AcDbLine
 10
-171.4965862332553
 20
47.54739613755492
 30
0.0
 11
-171.4967048552173
 21
47.54775941465422
 31
0.0
1001
REVIT
1002
{
1070
     1
1000
249276
1002
}
1002
{
1070
     5
1000
249148
1002
}
1002
{
1070
     2
1000
-2000151
1002
}
1002
{
1070
     3
1000
249105
1002
}
  0
LINE
  5
1515
330
6C
100
AcDbEntity
  8
0
 62
     0
370
     0
100
AcDbLine
 10
-171.4967048552173
 20
47.54775941465422
 30
0.0
 11
-171.496893526747
 21
47.54809079715854
 31
0.0
1001
REVIT
1002
{
1070
     1
1000
249276
1002
}
1002
{
1070
     5
1000
249148
1002
}
1002
{
1070
     2
1000
-2000151
1002
}
1002
{
1070
     3
1000
249105
1002
}
  0
LINE
  5
1516
330
6C
100
AcDbEntity
  8
0
 62
     0
370
     0
100
AcDbLine
 10
-171.496893526747
 20
47.54809079715854
 30
0.0
 11
-171.4971393552777
 21
47.54836768308041
 31
0.0
1001
REVIT
1002
{
1070
     1
1000
249276
1002
}
1002
{
1070
     5
1000
249148
1002
}
1002
{
1070
     2
1000
-2000151
1002
}
1002
{
1070
     3
1000
249105
1002
}
  0
LINE
  5
1517
330
6C
100
AcDbEntity
  8
0
 62
     0
370
     0
100
AcDbLine
 10
-171.4971393552777
 20
47.54836768308041
 30
0.0
 11
-171.4974255531094
 21
47.54857120629853
 31
0.0
1001
REVIT
1002
{
1070
     1
1000
249276
1002
}
1002
{
1070
     5
1000
249148
1002
}
1002
{
1070
     2
1000
-2000151
1002
}
1002
{
1070
     3
1000
249105
1002
}
  0
LINE
  5
1518
330
6C
100
AcDbEntity
  8
0
 62
     0
370
     0
100
AcDbLine
 10
-171.4974255531094
 20
47.54857120629853
 30
0.0
 11
-171.4977325908174
 21
47.54868752138317
 31
0.0
1001
REVIT
1002
{
1070
     1
1000
249276
1002
}
1002
{
1070
     5
1000
249148
1002
}
1002
{
1070
     2
1000
-2000151
1002
}
1002
{
1070
     3
1000
249105
1002
}
  0
LINE
  5
1519
330
6C
100
AcDbEntity
  8
0
 62
     0
370
     0
100
AcDbLine
 10
-171.4967215360157
 20
47.53470521013258
 30
0.0
 11
-171.4966404662402
 21
47.53438904141339
 31
0.0
1001
REVIT
1002
{
1070
     1
1000
249276
1002
}
1002
{
1070
     5
1000
249148
1002
}
1002
{
1070
     2
1000
-2000151
1002
}
1002
{
1070
     3
1000
249105
1002
}
  0
LINE
  5
151A
330
6C
100
AcDbEntity
  8
0
 62
     0
370
     0
100
AcDbLine
 10
-171.4966404662402
 20
47.53438904141339
 30
0.0
 11
-171.4966471123561
 21
47.5340440307579
 31
0.0
1001
REVIT
1002
{
1070
     1
1000
249276
1002
}
1002
{
1070
     5
1000
249148
1002
}
1002
{
1070
     2
1000
-2000151
1002
}
1002
{
1070
     3
1000
249105
1002
}
  0
LINE
  5
151B
330
6C
100
AcDbEntity
  8
0
 62
     0
370
     0
100
AcDbLine
 10
-171.4966471123561
 20
47.5340440307579
 30
0.0
 11
-171.496741080052
 21
47.53369369719249
 31
0.0
1001
REVIT
1002
{
1070
     1
1000
249276
1002
}
1002
{
1070
     5
1000
249148
1002
}
1002
{
1070
     2
1000
-2000151
1002
}
1002
{
1070
     3
1000
249105
1002
}
  0
LINE
  5
151C
330
6C
100
AcDbEntity
  8
0
 62
     0
370
     0
100
AcDbLine
 10
-171.496916006668
 20
47.53336195342305
 30
0.0
 11
-171.4971599837581
 21
47.53307146604064
 31
0.0
1001
REVIT
1002
{
1070
     1
1000
249276
1002
}
1002
{
1070
     5
1000
249148
1002
}
1002
{
1070
     2
1000
-2000151
1002
}
1002
{
1070
     3
1000
249105
1002
}
  0
LINE
  5
151D
330
6C
100
AcDbEntity
  8
0
 62
     0
370
     0
100
AcDbLine
 10
-171.4971599837581
 20
47.53307146604064
 30
0.0
 11
-171.49745636525
 21
47.53284209506053
 31
0.0
1001
REVIT
1002
{
1070
     1
1000
249276
1002
}
1002
{
1070
     5
1000
249148
1002
}
1002
{
1070
     2
1000
-2000151
1002
}
1002
{
1070
     3
1000
249105
1002
}
  0
LINE
  5
151E
330
6C
100
AcDbEntity
  8
0
 62
     0
370
     0
100
AcDbLine
 10
-171.49745636525
 20
47.53284209506053
 30
0.0
 11
-171.4977849070492
 21
47.53268952337159
 31
0.0
1001
REVIT
1002
{
1070
     1
1000
249276
1002
}
1002
{
1070
     5
1000
249148
1002
}
1002
{
1070
     2
1000
-2000151
1002
}
1002
{
1070
     3
1000
249105
1002
}
  0
LINE
  5
151F
330
6C
100
AcDbEntity
  8
0
 62
     0
370
     0
100
AcDbLine
 10
-171.4977849070492
 20
47.53268952337159
 30
0.0
 11
-171.4981231590371
 21
47.53262417410467
 31
0.0
1001
REVIT
1002
{
1070
     1
1000
249276
1002
}
1002
{
1070
     5
1000
249148
1002
}
1002
{
1070
     2
1000
-2000151
1002
}
1002
{
1070
     3
1000
249105
1002
}
  0
LINE
  5
1520
330
6C
100
AcDbEntity
  8
0
 62
     0
370
     0
100
AcDbLine
 10
-171.4981231590371
 20
47.53262417410467
 30
0.0
 11
-171.498448011264
 21
47.53265049343475
 31
0.0
1001
REVIT
1002
{
1070
     1
1000
249276
1002
}
1002
{
1070
     5
1000
249148
1002
}
1002
{
1070
     2
1000
-2000151
1002
}
1002
{
1070
     3
1000
249105
1002
}
  0
LINE
  5
1521
330
6C
100
AcDbEntity
  8
0
 62
     0
370
     0
100
AcDbLine
 10
-171.498448011264
 20
47.53265049343475
 30
0.0
 11
-171.4987372845939
 21
47.53276664954397
 31
0.0
1001
REVIT
1002
{
1070
     1
1000
249276
1002
}
1002
{
1070
     5
1000
249148
1002
}
1002
{
1070
     2
1000
-2000151
1002
}
1002
{
1070
     3
1000
249105
1002
}
  0
LINE
  5
1522
330
6C
100
AcDbEntity
  8
0
 62
     0
370
     0
100
AcDbLine
 10
-171.4987372845939
 20
47.53276664954397
 30
0.0
 11
-171.4989712531655
 21
47.53296466772581
 31
0.0
1001
REVIT
1002
{
1070
     1
1000
249276
1002
}
1002
{
1070
     5
1000
249148
1002
}
1002
{
1070
     2
1000
-2000151
1002
}
1002
{
1070
     3
1000
249105
1002
}
  0
LINE
  5
1524
330
6C
100
AcDbEntity
  8
0
 62
     0
370
     0
100
AcDbLine
 10
-171.4993731963825
 20
47.5345703512387
 30
0.0
 11
-171.4994676606779
 21
47.53422034172346
 31
0.0
1001
REVIT
1002
{
1070
     1
1000
249276
1002
}
1002
{
1070
     5
1000
249148
1002
}
1002
{
1070
     2
1000
-2000151
1002
}
1002
{
1070
     3
1000
249105
1002
}
  0
LINE
  5
1525
330
6C
100
AcDbEntity
  8
0
 62
     0
370
     0
100
AcDbLine
 10
-171.4994676606779
 20
47.53422034172346
 30
0.0
 11
-171.4994749552615
 21
47.53387535647644
 31
0.0
1001
REVIT
1002
{
1070
     1
1000
249276
1002
}
1002
{
1070
     5
1000
249148
1002
}
1002
{
1070
     2
1000
-2000151
1002
}
1002
{
1070
     3
1000
249105
1002
}
  0
LINE
  5
1526
330
6C
100
AcDbEntity
  8
0
 62
     0
370
     0
100
AcDbLine
 10
-171.4994749552615
 20
47.53387535647644
 30
0.0
 11
-171.4993945245008
 21
47.53355889834751
 31
0.0
1001
REVIT
1002
{
1070
     1
1000
249276
1002
}
1002
{
1070
     5
1000
249148
1002
}
1002
{
1070
     2
1000
-2000151
1002
}
1002
{
1070
     3
1000
249105
1002
}
  0
LINE
  5
1527
330
6C
100
AcDbEntity
  8
0
 62
     0
370
     0
100
AcDbLine
 10
-171.4993945245008
 20
47.53355889834751
 30
0.0
 11
-171.4992317891287
 21
47.53329255893013
 31
0.0
1001
REVIT
1002
{
1070
     1
1000
249276
1002
}
1002
{
1070
     5
1000
249148
1002
}
1002
{
1070
     2
1000
-2000151
1002
}
1002
{
1070
     3
1000
249105
1002
}
  0
LINE
  5
1528
330
6C
100
AcDbEntity
  8
0
 62
     0
370
     0
100
AcDbLine
 10
-171.4992317891287
 20
47.53329255893013
 30
0.0
 11
-171.4989977930442
 21
47.53309454033218
 31
0.0
1001
REVIT
1002
{
1070
     1
1000
249276
1002
}
1002
{
1070
     5
1000
249148
1002
}
1002
{
1070
     2
1000
-2000151
1002
}
1002
{
1070
     3
1000
249105
1002
}
  0
LINE
  5
1529
330
6C
100
AcDbEntity
  8
0
 62
     0
370
     0
100
AcDbLine
 10
-171.4989977930442
 20
47.53309454033218
 30
0.0
 11
-171.4987084631077
 21
47.53297840094304
 31
0.0
1001
REVIT
1002
{
1070
     1
1000
249276
1002
}
1002
{
1070
     5
1000
249148
1002
}
1002
{
1070
     2
1000
-2000151
1002
}
1002
{
1070
     3
1000
249105
1002
}
  0
LINE
  5
152A
330
6C
100
AcDbEntity
  8
0
 62
     0
370
     0
100
AcDbLine
 10
-171.4987084631077
 20
47.53297840094304
 30
0.0
 11
-171.4983835290357
 21
47.53295211435713
 31
0.0
1001
REVIT
1002
{
1070
     1
1000
249276
1002
}
1002
{
1070
     5
1000
249148
1002
}
1002
{
1070
     2
1000
-2000151
1002
}
1002
{
1070
     3
1000
249105
1002
}
  0
LINE
  5
152B
330
6C
100
AcDbEntity
  8
0
 62
     0
370
     0
100
AcDbLine
 10
-171.4983835290357
 20
47.53295211435713
 30
0.0
 11
-171.4980451755604
 21
47.53301751017505
 31
0.0
1001
REVIT
1002
{
1070
     1
1000
249276
1002
}
1002
{
1070
     5
1000
249148
1002
}
1002
{
1070
     2
1000
-2000151
1002
}
1002
{
1070
     3
1000
249105
1002
}
  0
LINE
  5
152C
330
6C
100
AcDbEntity
  8
0
 62
     0
370
     0
100
AcDbLine
 10
-171.4980451755604
 20
47.53301751017505
 30
0.0
 11
-171.4977165195827
 21
47.53317013904635
 31
0.0
1001
REVIT
1002
{
1070
     1
1000
249276
1002
}
1002
{
1070
     5
1000
249148
1002
}
1002
{
1070
     2
1000
-2000151
1002
}
1002
{
1070
     3
1000
249105
1002
}
  0
LINE
  5
152D
330
6C
100
AcDbEntity
  8
0
 62
     0
370
     0
100
AcDbLine
 10
-171.4977165195827
 20
47.53317013904635
 30
0.0
 11
-171.4974200190448
 21
47.53339957392406
 31
0.0
1001
REVIT
1002
{
1070
     1
1000
249276
1002
}
1002
{
1070
     5
1000
249148
1002
}
1002
{
1070
     2
1000
-2000151
1002
}
1002
{
1070
     3
1000
249105
1002
}
  0
LINE
  5
152E
330
6C
100
AcDbEntity
  8
0
 62
     0
370
     0
100
AcDbLine
 10
-171.4974200190448
 20
47.53339957392406
 30
0.0
 11
-171.4971759261915
 21
47.53369012753436
 31
0.0
1001
REVIT
1002
{
1070
     1
1000
249276
1002
}
1002
{
1070
     5
1000
249148
1002
}
1002
{
1070
     2
1000
-2000151
1002
}
1002
{
1070
     3
1000
249105
1002
}
  0
LINE
  5
152F
330
6C
100
AcDbEntity
  8
0
 62
     0
370
     0
100
AcDbLine
 10
-171.4971759261915
 20
47.53369012753436
 30
0.0
 11
-171.4970008950073
 21
47.53402193531531
 31
0.0
1001
REVIT
1002
{
1070
     1
1000
249276
1002
}
1002
{
1070
     5
1000
249148
1002
}
1002
{
1070
     2
1000
-2000151
1002
}
1002
{
1070
     3
1000
249105
1002
}
  0
LINE
  5
1530
330
6C
100
AcDbEntity
  8
0
 62
     0
370
     0
100
AcDbLine
 10
-171.4970008950073
 20
47.53402193531531
 30
0.0
 11
-171.4969068410669
 21
47.53437232628625
 31
0.0
1001
REVIT
1002
{
1070
     1
1000
249276
1002
}
1002
{
1070
     5
1000
249148
1002
}
1002
{
1070
     2
1000
-2000151
1002
}
1002
{
1070
     3
1000
249105
1002
}
  0
LINE
  5
1531
330
6C
100
AcDbEntity
  8
0
 62
     0
370
     0
100
AcDbLine
 10
-171.4969068410669
 20
47.53437232628625
 30
0.0
 11
-171.4969001328886
 21
47.53471738381522
 31
0.0
1001
REVIT
1002
{
1070
     1
1000
249276
1002
}
1002
{
1070
     5
1000
249148
1002
}
1002
{
1070
     2
1000
-2000151
1002
}
1002
{
1070
     3
1000
249105
1002
}
  0
LINE
  5
1532
330
6C
100
AcDbEntity
  8
0
 62
     0
370
     0
100
AcDbLine
 10
-171.4969001328886
 20
47.53471738381522
 30
0.0
 11
-171.4969811689783
 21
47.53503358568458
 31
0.0
1001
REVIT
1002
{
1070
     1
1000
249276
1002
}
1002
{
1070
     5
1000
249148
1002
}
1002
{
1070
     2
1000
-2000151
1002
}
1002
{
1070
     3
1000
249105
1002
}
  0
LINE
  5
1533
330
6C
100
AcDbEntity
  8
0
 62
     0
370
     0
100
AcDbLine
 10
-171.4969811689783
 20
47.53503358568458
 30
0.0
 11
-171.4971443664058
 21
47.53529940896537
 31
0.0
1001
REVIT
1002
{
1070
     1
1000
249276
1002
}
1002
{
1070
     5
1000
249148
1002
}
1002
{
1070
     2
1000
-2000151
1002
}
1002
{
1070
     3
1000
249105
1002
}
  0
LINE
  5
1534
330
6C
100
AcDbEntity
  8
0
 62
     0
370
     0
100
AcDbLine
 10
-171.4971443664058
 20
47.53529940896537
 30
0.0
 11
-171.4973785574649
 21
47.53549678984787
 31
0.0
1001
REVIT
1002
{
1070
     1
1000
249276
1002
}
1002
{
1070
     5
1000
249148
1002
}
1002
{
1070
     2
1000
-2000151
1002
}
1002
{
1070
     3
1000
249105
1002
}
  0
LINE
  5
1535
330
6C
100
AcDbEntity
  8
0
 62
     0
370
     0
100
AcDbLine
 10
-171.4973785574649
 20
47.53549678984787
 30
0.0
 11
-171.4976677630515
 21
47.53561234081796
 31
0.0
1001
REVIT
1002
{
1070
     1
1000
249276
1002
}
1002
{
1070
     5
1000
249148
1002
}
1002
{
1070
     2
1000
-2000151
1002
}
1002
{
1070
     3
1000
249105
1002
}
  0
LINE
  5
1536
330
6C
100
AcDbEntity
  8
0
 62
     0
370
     0
100
AcDbLine
 10
-171.4976677630515
 20
47.53561234081796
 30
0.0
 11
-171.4979922867688
 21
47.53563824594763
 31
0.0
1001
REVIT
1002
{
1070
     1
1000
249276
1002
}
1002
{
1070
     5
1000
249148
1002
}
1002
{
1070
     2
1000
-2000151
1002
}
1002
{
1070
     3
1000
249105
1002
}
  0
LINE
  5
1537
330
6C
100
AcDbEntity
  8
0
 62
     0
370
     0
100
AcDbLine
 10
-171.4979922867688
 20
47.53563824594763
 30
0.0
 11
-171.4983300538386
 21
47.53557277784744
 31
0.0
1001
REVIT
1002
{
1070
     1
1000
249276
1002
}
1002
{
1070
     5
1000
249148
1002
}
1002
{
1070
     2
1000
-2000151
1002
}
1002
{
1070
     3
1000
249105
1002
}
  0
LINE
  5
1538
330
6C
100
AcDbEntity
  8
0
 62
     0
370
     0
100
AcDbLine
 10
-171.4983300538386
 20
47.53557277784744
 30
0.0
 11
-171.4986581044867
 21
47.53542040523586
 31
0.0
1001
REVIT
1002
{
1070
     1
1000
249276
1002
}
1002
{
1070
     5
1000
249148
1002
}
1002
{
1070
     2
1000
-2000151
1002
}
1002
{
1070
     3
1000
249105
1002
}
  0
LINE
  5
1539
330
6C
100
AcDbEntity
  8
0
 62
     0
370
     0
100
AcDbLine
 10
-171.4986581044867
 20
47.53542040523586
 30
0.0
 11
-171.498954142969
 21
47.53519148649527
 31
0.0
1001
REVIT
1002
{
1070
     1
1000
249276
1002
}
1002
{
1070
     5
1000
249148
1002
}
1002
{
1070
     2
1000
-2000151
1002
}
1002
{
1070
     3
1000
249105
1002
}
  0
LINE
  5
153A
330
6C
100
AcDbEntity
  8
0
 62
     0
370
     0
100
AcDbLine
 10
-171.498954142969
 20
47.53519148649527
 30
0.0
 11
-171.4991980408482
 21
47.53490157060075
 31
0.0
1001
REVIT
1002
{
1070
     1
1000
249276
1002
}
1002
{
1070
     5
1000
249148
1002
}
1002
{
1070
     2
1000
-2000151
1002
}
1002
{
1070
     3
1000
249105
1002
}
  0
LINE
  5
153B
330
6C
100
AcDbEntity
  8
0
 62
     0
370
     0
100
AcDbLine
 10
-171.4991980408482
 20
47.53490157060075
 30
0.0
 11
-171.4993731963825
 21
47.5345703512387
 31
0.0
1001
REVIT
1002
{
1070
     1
1000
249276
1002
}
1002
{
1070
     5
1000
249148
1002
}
1002
{
1070
     2
1000
-2000151
1002
}
1002
{
1070
     3
1000
249105
1002
}
  0
LINE
  5
153C
330
6C
100
AcDbEntity
  8
0
 62
     0
370
     0
100
AcDbLine
 10
-171.4830332225041
 20
47.51808604386235
 30
0.0
 11
-171.4831453807287
 21
47.51806874237892
 31
0.0
1001
REVIT
1002
{
1070
     1
1000
249276
1002
}
1002
{
1070
     5
1000
249148
1002
}
1002
{
1070
     2
1000
-2000196
1002
}
1002
{
1070
     3
1000
249093
1002
}
  0
LINE
  5
153D
330
6C
100
AcDbEntity
  8
0
 62
     0
370
     0
100
AcDbLine
 10
-171.4831453807287
 20
47.51806874237892
 30
0.0
 11
-171.4832390491091
 21
47.5180826104044
 31
0.0
1001
REVIT
1002
{
1070
     1
1000
249276
1002
}
1002
{
1070
     5
1000
249148
1002
}
1002
{
1070
     2
1000
-2000196
1002
}
1002
{
1070
     3
1000
249093
1002
}
  0
LINE
  5
153E
330
6C
100
AcDbEntity
  8
0
 62
     0
370
     0
100
AcDbLine
 10
-171.4832390491091
 20
47.5180826104044
 30
0.0
 11
-171.4833060977939
 21
47.51813085286854
 31
0.0
1001
REVIT
1002
{
1070
     1
1000
249276
1002
}
1002
{
1070
     5
1000
249148
1002
}
1002
{
1070
     2
1000
-2000196
1002
}
1002
{
1070
     3
1000
249093
1002
}
  0
LINE
  5
1541
330
6C
100
AcDbEntity
  8
0
 62
     0
370
     0
100
AcDbLine
 10
-171.4834947969922
 20
47.51763913969743
 30
0.0
 11
-171.4834079370344
 21
47.5175632203355
 31
0.0
1001
REVIT
1002
{
1070
     1
1000
249276
1002
}
1002
{
1070
     5
1000
249148
1002
}
1002
{
1070
     2
1000
-2000196
1002
}
1002
{
1070
     3
1000
249093
1002
}
  0
LINE
  5
1542
330
6C
100
AcDbEntity
  8
0
 62
     0
370
     0
100
AcDbLine
 10
-171.4834079370344
 20
47.5175632203355
 30
0.0
 11
-171.4832994060911
 21
47.51752627164224
 31
0.0
1001
REVIT
1002
{
1070
     1
1000
249276
1002
}
1002
{
1070
     5
1000
249148
1002
}
1002
{
1070
     2
1000
-2000196
1002
}
1002
{
1070
     3
1000
249093
1002
}
  0
LINE
  5
1543
330
6C
100
AcDbEntity
  8
0
 62
     0
370
     0
100
AcDbLine
 10
-171.4832994060911
 20
47.51752627164224
 30
0.0
 11
-171.4831731559168
 21
47.51752899815965
 31
0.0
1001
REVIT
1002
{
1070
     1
1000
249276
1002
}
1002
{
1070
     5
1000
249148
1002
}
1002
{
1070
     2
1000
-2000196
1002
}
1002
{
1070
     3
1000
249093
1002
}
  0
LINE
  5
1544
330
6C
100
AcDbEntity
  8
0
 62
     0
370
     0
100
AcDbLine
 10
-171.4831731559168
 20
47.51752899815965
 30
0.0
 11
-171.4830332225041
 21
47.5175697681071
 31
0.0
1001
REVIT
1002
{
1070
     1
1000
249276
1002
}
1002
{
1070
     5
1000
249148
1002
}
1002
{
1070
     2
1000
-2000196
1002
}
1002
{
1070
     3
1000
249093
1002
}
  0
LINE
  5
1545
330
6C
100
AcDbEntity
  8
0
 62
     0
370
     0
100
AcDbLine
 10
-171.510764003559
 20
47.52412128882231
 30
0.0
 11
-171.5108825232628
 21
47.52437641952575
 31
0.0
1001
REVIT
1002
{
1070
     1
1000
249276
1002
}
1002
{
1070
     5
1000
249148
1002
}
1002
{
1070
     2
1000
-2000196
1002
}
1002
{
1070
     3
1000
249093
1002
}
  0
LINE
  5
1546
330
6C
100
AcDbEntity
  8
0
 62
     0
370
     0
100
AcDbLine
 10
-171.5108825232628
 20
47.52437641952575
 30
0.0
 11
-171.5109241507779
 21
47.52474000025112
 31
0.0
1001
REVIT
1002
{
1070
     1
1000
249276
1002
}
1002
{
1070
     5
1000
249148
1002
}
1002
{
1070
     2
1000
-2000196
1002
}
1002
{
1070
     3
1000
249093
1002
}
  0
LINE
  5
1547
330
6C
100
AcDbEntity
  8
0
 62
     0
370
     0
100
AcDbLine
 10
-171.5106054495476
 20
47.52401807749822
 30
0.0
 11
-171.5106853778978
 21
47.524048052379
 31
0.0
1001
REVIT
1002
{
1070
     1
1000
249276
1002
}
1002
{
1070
     5
1000
249148
1002
}
1002
{
1070
     2
1000
-2000196
1002
}
1002
{
1070
     3
1000
249093
1002
}
  0
LINE
  5
1548
330
6C
100
AcDbEntity
  8
0
 62
     0
370
     0
100
AcDbLine
 10
-171.5106853778978
 20
47.524048052379
 30
0.0
 11
-171.510764003559
 21
47.52412128882231
 31
0.0
1001
REVIT
1002
{
1070
     1
1000
249276
1002
}
1002
{
1070
     5
1000
249148
1002
}
1002
{
1070
     2
1000
-2000196
1002
}
1002
{
1070
     3
1000
249093
1002
}
  0
LINE
  5
1549
330
6C
100
AcDbEntity
  8
0
 62
     0
370
     0
100
AcDbLine
 10
-171.4833060977939
 20
47.51813085286854
 30
0.0
 11
-171.4833639354529
 21
47.51825962987058
 31
0.0
1001
REVIT
1002
{
1070
     1
1000
249276
1002
}
1002
{
1070
     5
1000
249148
1002
}
1002
{
1070
     2
1000
-2000196
1002
}
1002
{
1070
     3
1000
249093
1002
}
  0
LINE
  5
154A
330
6C
100
AcDbEntity
  8
0
 62
     0
370
     0
100
AcDbLine
 10
-171.4833639354529
 20
47.51825962987058
 30
0.0
 11
-171.4833842475456
 21
47.51844365582876
 31
0.0
1001
REVIT
1002
{
1070
     1
1000
249276
1002
}
1002
{
1070
     5
1000
249148
1002
}
1002
{
1070
     2
1000
-2000196
1002
}
1002
{
1070
     3
1000
249093
1002
}
  0
LINE
  5
154D
330
6C
100
AcDbEntity
  8
0
 62
     0
370
     0
100
AcDbLine
 10
-171.4836511955625
 20
47.51826487094456
 30
0.0
 11
-171.4836105423562
 21
47.51789670289681
 31
0.0
1001
REVIT
1002
{
1070
     1
1000
249276
1002
}
1002
{
1070
     5
1000
249148
1002
}
1002
{
1070
     2
1000
-2000196
1002
}
1002
{
1070
     3
1000
249093
1002
}
  0
LINE
  5
154E
330
6C
100
AcDbEntity
  8
0
 62
     0
370
     0
100
AcDbLine
 10
-171.4836105423562
 20
47.51789670289681
 30
0.0
 11
-171.4834947969922
 21
47.51763913969743
 31
0.0
1001
REVIT
1002
{
1070
     1
1000
249276
1002
}
1002
{
1070
     5
1000
249148
1002
}
1002
{
1070
     2
1000
-2000196
1002
}
1002
{
1070
     3
1000
249093
1002
}
  0
LINE
  5
154F
330
6C
100
AcDbEntity
  8
0
 62
     0
370
     0
100
AcDbLine
 10
-171.4796531001362
 20
47.51718295315019
 30
0.0
 11
-171.4794817979214
 21
47.5169909238337
 31
0.0
1001
REVIT
1002
{
1070
     1
1000
249276
1002
}
1002
{
1070
     5
1000
249148
1002
}
1002
{
1070
     2
1000
-2000196
1002
}
1002
{
1070
     3
1000
249093
1002
}
  0
LINE
  5
1550
330
6C
100
AcDbEntity
  8
0
 62
     0
370
     0
100
AcDbLine
 10
-171.4794817979214
 20
47.5169909238337
 30
0.0
 11
-171.4793519490642
 21
47.51659466813688
 31
0.0
1001
REVIT
1002
{
1070
     1
1000
249276
1002
}
1002
{
1070
     5
1000
249148
1002
}
1002
{
1070
     2
1000
-2000196
1002
}
1002
{
1070
     3
1000
249093
1002
}
  0
LINE
  5
1551
330
6C
100
AcDbEntity
  8
0
 62
     0
370
     0
100
AcDbLine
 10
-171.4789084923287
 20
47.51648924124829
 30
0.0
 11
-171.4791682867339
 21
47.51728188831009
 31
0.0
1001
REVIT
1002
{
1070
     1
1000
249276
1002
}
1002
{
1070
     5
1000
249148
1002
}
1002
{
1070
     2
1000
-2000196
1002
}
1002
{
1070
     3
1000
249093
1002
}
  0
LINE
  5
1552
330
6C
100
AcDbEntity
  8
0
 62
     0
370
     0
100
AcDbLine
 10
-171.4791682867339
 20
47.51728188831009
 30
0.0
 11
-171.479367173875
 21
47.51749690058109
 31
0.0
1001
REVIT
1002
{
1070
     1
1000
249276
1002
}
1002
{
1070
     5
1000
249148
1002
}
1002
{
1070
     2
1000
-2000196
1002
}
1002
{
1070
     3
1000
249093
1002
}
  0
LINE
  5
1553
330
6C
100
AcDbEntity
  8
0
 62
     0
370
     0
100
AcDbLine
 10
-171.4814582181729
 20
47.51761164105
 30
0.0
 11
-171.4822590250829
 21
47.51768802585005
 31
0.0
1001
REVIT
1002
{
1070
     1
1000
249276
1002
}
1002
{
1070
     5
1000
249148
1002
}
1002
{
1070
     2
1000
-2000196
1002
}
1002
{
1070
     3
1000
249093
1002
}
  0
LINE
  5
1554
330
6C
100
AcDbEntity
  8
0
 62
     0
370
     0
100
AcDbLine
 10
-171.4822590250829
 20
47.51768802585005
 30
0.0
 11
-171.4830332225041
 21
47.5175697681071
 31
0.0
1001
REVIT
1002
{
1070
     1
1000
249276
1002
}
1002
{
1070
     5
1000
249148
1002
}
1002
{
1070
     2
1000
-2000196
1002
}
1002
{
1070
     3
1000
249093
1002
}
  0
LINE
  5
1555
330
6C
100
AcDbEntity
  8
0
 62
     0
370
     0
100
AcDbLine
 10
-171.5131226117484
 20
47.52549827033434
 30
0.0
 11
-171.513295804349
 21
47.52538305867235
 31
0.0
1001
REVIT
1002
{
1070
     1
1000
249276
1002
}
1002
{
1070
     5
1000
249148
1002
}
1002
{
1070
     2
1000
-2000196
1002
}
1002
{
1070
     3
1000
249093
1002
}
  0
LINE
  5
1556
330
6C
100
AcDbEntity
  8
0
 62
     0
370
     0
100
AcDbLine
 10
-171.513295804349
 20
47.52538305867235
 30
0.0
 11
-171.5135468883594
 21
47.52472413323885
 31
0.0
1001
REVIT
1002
{
1070
     1
1000
249276
1002
}
1002
{
1070
     5
1000
249148
1002
}
1002
{
1070
     2
1000
-2000196
1002
}
1002
{
1070
     3
1000
249093
1002
}
  0
LINE
  5
1557
330
6C
100
AcDbEntity
  8
0
 62
     0
370
     0
100
AcDbLine
 10
-171.498927084102
 20
47.53292728545014
 30
0.0
 11
-171.4985528593329
 21
47.53242454680603
 31
0.0
1001
REVIT
1002
{
1070
     1
1000
249276
1002
}
1002
{
1070
     5
1000
249148
1002
}
1002
{
1070
     2
1000
-2000196
1002
}
1002
{
1070
     3
1000
249093
1002
}
  0
LINE
  5
1558
330
6C
100
AcDbEntity
  8
0
 62
     0
370
     0
100
AcDbLine
 10
-171.4985528593329
 20
47.53242454680603
 30
0.0
 11
-171.4978044228424
 21
47.53177049930468
 31
0.0
1001
REVIT
1002
{
1070
     1
1000
249276
1002
}
1002
{
1070
     5
1000
249148
1002
}
1002
{
1070
     2
1000
-2000196
1002
}
1002
{
1070
     3
1000
249093
1002
}
  0
LINE
  5
1559
330
6C
100
AcDbEntity
  8
0
 62
     0
370
     0
100
AcDbLine
 10
-171.4978044228424
 20
47.53177049930468
 30
0.0
 11
-171.4969552762781
 21
47.5315731710333
 31
0.0
1001
REVIT
1002
{
1070
     1
1000
249276
1002
}
1002
{
1070
     5
1000
249148
1002
}
1002
{
1070
     2
1000
-2000196
1002
}
1002
{
1070
     3
1000
249093
1002
}
  0
LINE
  5
155A
330
6C
100
AcDbEntity
  8
0
 62
     0
370
     0
100
AcDbLine
 10
-171.4969552762781
 20
47.5315731710333
 30
0.0
 11
-171.4962056518035
 21
47.53187965230583
 31
0.0
1001
REVIT
1002
{
1070
     1
1000
249276
1002
}
1002
{
1070
     5
1000
249148
1002
}
1002
{
1070
     2
1000
-2000196
1002
}
1002
{
1070
     3
1000
249093
1002
}
  0
LINE
  5
155B
330
6C
100
AcDbEntity
  8
0
 62
     0
370
     0
100
AcDbLine
 10
-171.4962056518035
 20
47.53187965230583
 30
0.0
 11
-171.4956583643545
 21
47.53252909728722
 31
0.0
1001
REVIT
1002
{
1070
     1
1000
249276
1002
}
1002
{
1070
     5
1000
249148
1002
}
1002
{
1070
     2
1000
-2000196
1002
}
1002
{
1070
     3
1000
249093
1002
}
  0
LINE
  5
155C
330
6C
100
AcDbEntity
  8
0
 62
     0
370
     0
100
AcDbLine
 10
-171.4956583643545
 20
47.53252909728722
 30
0.0
 11
-171.495310643272
 21
47.53337418570225
 31
0.0
1001
REVIT
1002
{
1070
     1
1000
249276
1002
}
1002
{
1070
     5
1000
249148
1002
}
1002
{
1070
     2
1000
-2000196
1002
}
1002
{
1070
     3
1000
249093
1002
}
  0
LINE
  5
155D
330
6C
100
AcDbEntity
  8
0
 62
     0
370
     0
100
AcDbLine
 10
-171.495310643272
 20
47.53337418570225
 30
0.0
 11
-171.4951415906313
 21
47.53432889032985
 31
0.0
1001
REVIT
1002
{
1070
     1
1000
249276
1002
}
1002
{
1070
     5
1000
249148
1002
}
1002
{
1070
     2
1000
-2000196
1002
}
1002
{
1070
     3
1000
249093
1002
}
  0
LINE
  5
155E
330
6C
100
AcDbEntity
  8
0
 62
     0
370
     0
100
AcDbLine
 10
-171.4996133262801
 20
47.53536100921614
 30
0.0
 11
-171.4994449940113
 21
47.53433046945633
 31
0.0
1001
REVIT
1002
{
1070
     1
1000
249276
1002
}
1002
{
1070
     5
1000
249148
1002
}
1002
{
1070
     2
1000
-2000196
1002
}
1002
{
1070
     3
1000
249093
1002
}
  0
LINE
  5
155F
330
6C
100
AcDbEntity
  8
0
 62
     0
370
     0
100
AcDbLine
 10
-171.4994449940113
 20
47.53433046945633
 30
0.0
 11
-171.4994449940113
 21
47.53433046945633
 31
0.0
1001
REVIT
1002
{
1070
     1
1000
249276
1002
}
1002
{
1070
     5
1000
249148
1002
}
1002
{
1070
     2
1000
-2000196
1002
}
1002
{
1070
     3
1000
249093
1002
}
  0
LINE
  5
1560
330
6C
100
AcDbEntity
  8
0
 62
     0
370
     0
100
AcDbLine
 10
-171.4993482461965
 20
47.53469770512072
 30
0.0
 11
-171.4993677681108
 21
47.53508524676336
 31
0.0
1001
REVIT
1002
{
1070
     1
1000
249276
1002
}
1002
{
1070
     5
1000
249148
1002
}
1002
{
1070
     2
1000
-2000196
1002
}
1002
{
1070
     3
1000
249093
1002
}
  0
LINE
  5
1561
330
6C
100
AcDbEntity
  8
0
 62
     0
370
     0
100
AcDbLine
 10
-171.4993677681108
 20
47.53508524676336
 30
0.0
 11
-171.4996133262801
 21
47.53536100921614
 31
0.0
1001
REVIT
1002
{
1070
     1
1000
249276
1002
}
1002
{
1070
     5
1000
249148
1002
}
1002
{
1070
     2
1000
-2000196
1002
}
1002
{
1070
     3
1000
249093
1002
}
  0
LINE
  5
156A
330
6C
100
AcDbEntity
  8
0
 62
     0
370
     0
100
AcDbLine
 10
-171.4951415906313
 20
47.53432889032985
 30
0.0
 11
-171.4955355037842
 21
47.53421154880453
 31
0.0
1001
REVIT
1002
{
1070
     1
1000
249276
1002
}
1002
{
1070
     5
1000
249148
1002
}
1002
{
1070
     2
1000
-2000196
1002
}
1002
{
1070
     3
1000
249093
1002
}
  0
LINE
  5
156B
330
6C
100
AcDbEntity
  8
0
 62
     0
370
     0
100
AcDbLine
 10
-171.4955355037842
 20
47.53421154880453
 30
0.0
 11
-171.4958448258129
 21
47.53388803480895
 31
0.0
1001
REVIT
1002
{
1070
     1
1000
249276
1002
}
1002
{
1070
     5
1000
249148
1002
}
1002
{
1070
     2
1000
-2000196
1002
}
1002
{
1070
     3
1000
249093
1002
}
  0
LINE
  5
156C
330
6C
100
AcDbEntity
  8
0
 62
     0
370
     0
100
AcDbLine
 10
-171.41439652853
 20
47.55089444444521
 30
0.0
 11
-171.4161604957711
 21
47.5524970165839
 31
0.0
1001
REVIT
1002
{
1070
     2
1000
-2001320
1002
}
  0
LINE
  5
156D
330
6C
100
AcDbEntity
  8
0
 62
     0
370
     0
100
AcDbLine
 10
-171.4089456062825
 20
47.55745062638947
 30
0.0
 11
-171.4140337323713
 21
47.56203163883996
 31
0.0
1001
REVIT
1002
{
1070
     2
1000
-2001320
1002
}
  0
LINE
  5
156E
330
6C
100
AcDbEntity
  8
0
 62
     0
370
     0
100
AcDbLine
 10
-171.4140365231501
 20
47.56203488055651
 30
0.0
 11
-171.4149636709389
 21
47.56374180279649
 31
0.0
1001
REVIT
1002
{
1070
     2
1000
-2001320
1002
}
  0
LINE
  5
156F
330
6C
100
AcDbEntity
  8
0
 62
     0
370
     0
100
AcDbLine
 10
-171.4145200101217
 20
47.56403917900445
 30
0.0
 11
-171.415047254076
 21
47.56707109133365
 31
0.0
1001
REVIT
1002
{
1070
     2
1000
-2001320
1002
}
  0
LINE
  5
1570
330
6C
100
AcDbEntity
  8
0
 62
     0
370
     0
100
AcDbLine
 10
-171.4134977362994
 20
47.58577554167378
 30
0.0
 11
-171.4150472371503
 21
47.59475185180972
 31
0.0
1001
REVIT
1002
{
1070
     2
1000
-2001320
1002
}
  0
LINE
  5
1571
330
6C
100
AcDbEntity
  8
0
 62
     0
370
     0
100
AcDbLine
 10
-171.4150501595343
 20
47.56707490840565
 30
0.0
 11
-171.4168673095926
 21
47.56919688429659
 31
0.0
1001
REVIT
1002
{
1070
     2
1000
-2001320
1002
}
  0
LINE
  5
1572
330
6C
100
AcDbEntity
  8
0
 62
     0
370
     0
100
AcDbLine
 10
-171.4150503718619
 20
47.59475600412
 30
0.0
 11
-171.4168675231078
 21
47.59695528445382
 31
0.0
1001
REVIT
1002
{
1070
     2
1000
-2001320
1002
}
  0
LINE
  5
1573
330
6C
100
AcDbEntity
  8
0
 62
     0
370
     0
100
AcDbLine
 10
-171.416863664506
 20
47.56919244043764
 30
0.0
 11
-171.4192674445356
 21
47.57241139829615
 31
0.0
1001
REVIT
1002
{
1070
     2
1000
-2001320
1002
}
  0
LINE
  5
1574
330
6C
100
AcDbEntity
  8
0
 62
     0
370
     0
100
AcDbLine
 10
-171.4168635989087
 20
47.59695035161154
 30
0.0
 11
-171.4174479954428
 21
47.59775779133565
 31
0.0
1001
REVIT
1002
{
1070
     2
1000
-2001320
1002
}
  0
LINE
  5
1575
330
6C
100
AcDbEntity
  8
0
 62
     0
370
     0
100
AcDbLine
 10
-171.4113260978709
 20
47.57381856341678
 30
0.0
 11
-171.4124726594875
 21
47.57761616898164
 31
0.0
1001
REVIT
1002
{
1070
     2
1000
-2001320
1002
}
  0
LINE
  5
1576
330
6C
100
AcDbEntity
  8
0
 62
     0
370
     0
100
AcDbLine
 10
-171.411326097871
 20
47.60134093229837
 30
0.0
 11
-171.4113732921752
 21
47.60149925547838
 31
0.0
1001
REVIT
1002
{
1070
     2
1000
-2001320
1002
}
  0
LINE
  5
1577
330
6C
100
AcDbEntity
  8
0
 62
     0
370
     0
100
AcDbLine
 10
-171.4124678920675
 20
47.57760684462399
 30
0.0
 11
-171.4122111736168
 21
47.58328619459957
 31
0.0
1001
REVIT
1002
{
1070
     2
1000
-2001320
1002
}
  0
LINE
  5
1578
330
6C
100
AcDbEntity
  8
0
 62
     0
370
     0
100
AcDbLine
 10
-171.412210013643
 20
47.58328702395186
 30
0.0
 11
-171.4134956349669
 21
47.58577384962711
 31
0.0
1001
REVIT
1002
{
1070
     2
1000
-2001320
1002
}
  0
LINE
  5
1579
330
6C
100
AcDbEntity
  8
0
 62
     0
370
     0
100
AcDbLine
 10
-171.4134977699899
 20
47.5305458530371
 30
0.0
 11
-171.4150472710016
 21
47.53939032941751
 31
0.0
1001
REVIT
1002
{
1070
     2
1000
-2001320
1002
}
  0
LINE
  5
157A
330
6C
100
AcDbEntity
  8
0
 62
     0
370
     0
100
AcDbLine
 10
-171.4165077595806
 20
47.5132913275874
 30
0.0
 11
-171.4168668825627
 21
47.5136801384812
 31
0.0
1001
REVIT
1002
{
1070
     2
1000
-2001320
1002
}
  0
LINE
  5
157B
330
6C
100
AcDbEntity
  8
0
 62
     0
370
     0
100
AcDbLine
 10
-171.4150499472069
 20
47.53939383075662
 30
0.0
 11
-171.4168670960777
 21
47.54143850230572
 31
0.0
1001
REVIT
1002
{
1070
     2
1000
-2001320
1002
}
  0
LINE
  5
157C
330
6C
100
AcDbEntity
  8
0
 62
     0
370
     0
100
AcDbLine
 10
-171.4168637957005
 20
47.5136766013465
 30
0.0
 11
-171.4192674445356
 21
47.51669087715001
 31
0.0
1001
REVIT
1002
{
1070
     2
1000
-2001320
1002
}
  0
LINE
  5
157D
330
6C
100
AcDbEntity
  8
0
 62
     0
370
     0
100
AcDbLine
 10
-171.4168637301032
 20
47.5414345236826
 30
0.0
 11
-171.4192674445356
 21
47.54455113772309
 31
0.0
1001
REVIT
1002
{
1070
     2
1000
-2001320
1002
}
  0
LINE
  5
157E
330
6C
100
AcDbEntity
  8
0
 62
     0
370
     0
100
AcDbLine
 10
-171.4113260978709
 20
47.51877382565363
 30
0.0
 11
-171.4124725222444
 21
47.52247343720141
 31
0.0
1001
REVIT
1002
{
1070
     2
1000
-2001320
1002
}
  0
LINE
  5
157F
330
6C
100
AcDbEntity
  8
0
 62
     0
370
     0
100
AcDbLine
 10
-171.411326097871
 20
47.54629619453522
 30
0.0
 11
-171.4124725908658
 21
47.55004480017228
 31
0.0
1001
REVIT
1002
{
1070
     2
1000
-2001320
1002
}
  0
LINE
  5
1580
330
6C
100
AcDbEntity
  8
0
 62
     0
370
     0
100
AcDbLine
 10
-171.4124678903077
 20
47.55003579133012
 30
0.0
 11
-171.4123658614085
 21
47.55229730423236
 31
0.0
1001
REVIT
1002
{
1070
     2
1000
-2001320
1002
}
  0
LINE
  5
1581
330
6C
100
AcDbEntity
  8
0
 62
     0
370
     0
100
AcDbLine
 10
-171.4124678885478
 20
47.52246473818598
 30
0.0
 11
-171.4122111701001
 21
47.52816593019625
 31
0.0
1001
REVIT
1002
{
1070
     2
1000
-2001320
1002
}
  0
LINE
  5
1582
330
6C
100
AcDbEntity
  8
0
 62
     0
370
     0
100
AcDbLine
 10
-171.412210174246
 20
47.5281671712696
 30
0.0
 11
-171.4134957962081
 21
47.53054461519114
 31
0.0
1001
REVIT
1002
{
1070
     2
1000
-2001320
1002
}
  0
LINE
  5
1583
330
6C
100
AcDbEntity
  8
0
 62
     0
370
     0
100
AcDbLine
 10
-171.420216965416
 20
47.54687314113719
 30
0.0
 11
-171.4208917946963
 21
47.54749072264048
 31
0.0
1001
REVIT
1002
{
1070
     2
1000
-2001320
1002
}
  0
LINE
  5
1584
330
6C
100
AcDbEntity
  8
0
 62
     0
370
     0
100
AcDbLine
 10
-171.4208945525656
 20
47.54749399405659
 30
0.0
 11
-171.4219457194699
 21
47.54948885081923
 31
0.0
1001
REVIT
1002
{
1070
     2
1000
-2001320
1002
}
  0
LINE
  5
1585
330
6C
100
AcDbEntity
  8
0
 62
     0
370
     0
100
AcDbLine
 10
-171.4255550477765
 20
47.5431850935428
 30
0.0
 11
-171.4289692461795
 21
47.54810447303642
 31
0.0
1001
REVIT
1002
{
1070
     2
1000
-2001320
1002
}
  0
LINE
  5
1586
330
6C
100
AcDbEntity
  8
0
 62
     0
370
     0
100
AcDbLine
 10
-171.4147546492213
 20
47.55346234033196
 30
0.0
 11
-171.4172730689606
 21
47.55574630968225
 31
0.0
1001
REVIT
1002
{
1070
     2
1000
-2001320
1002
}
  0
LINE
  5
1587
330
6C
100
AcDbEntity
  8
0
 62
     0
370
     0
100
AcDbLine
 10
-171.4172758413504
 20
47.55574956040331
 30
0.0
 11
-171.4195667620252
 21
47.56002538860799
 31
0.0
1001
REVIT
1002
{
1070
     2
1000
-2001320
1002
}
  0
LINE
  5
1588
330
6C
100
AcDbEntity
  8
0
 62
     0
370
     0
100
AcDbLine
 10
-171.4195697158064
 20
47.56002829659683
 30
0.0
 11
-171.4196105123938
 21
47.56062588833223
 31
0.0
1001
REVIT
1002
{
1070
     2
1000
-2001320
1002
}
  0
LINE
  5
1589
330
6C
100
AcDbEntity
  8
0
 62
     0
370
     0
100
AcDbLine
 10
-171.4216289022268
 20
47.55110509858368
 30
0.0
 11
-171.4255330007206
 21
47.55665459574113
 31
0.0
1001
REVIT
1002
{
1070
     2
1000
-2001320
1002
}
  0
LINE
  5
158A
330
6C
100
AcDbEntity
  8
0
 62
     0
370
     0
100
AcDbLine
 10
-171.4197033625718
 20
47.56056350904516
 30
0.0
 11
-171.421183571002
 21
47.56900026182337
 31
0.0
1001
REVIT
1002
{
1070
     2
1000
-2001320
1002
}
  0
LINE
  5
158B
330
6C
100
AcDbEntity
  8
0
 62
     0
370
     0
100
AcDbLine
 10
-171.4196263938366
 20
47.58761698741262
 30
0.0
 11
-171.4210104301761
 21
47.59556365588108
 31
0.0
1001
REVIT
1002
{
1070
     2
1000
-2001320
1002
}
  0
LINE
  5
158C
330
6C
100
AcDbEntity
  8
0
 62
     0
370
     0
100
AcDbLine
 10
-171.4211864907913
 20
47.56900407046186
 30
0.0
 11
-171.423012580991
 21
47.57112192771328
 31
0.0
1001
REVIT
1002
{
1070
     2
1000
-2001320
1002
}
  0
LINE
  5
158D
330
6C
100
AcDbEntity
  8
0
 62
     0
370
     0
100
AcDbLine
 10
-171.4230089180164
 20
47.57111749300581
 30
0.0
 11
-171.4272211580445
 21
47.5767178846602
 31
0.0
1001
REVIT
1002
{
1070
     2
1000
-2001320
1002
}
  0
LINE
  5
158E
330
6C
100
AcDbEntity
  8
0
 62
     0
370
     0
100
AcDbLine
 10
-171.4272203702192
 20
47.57671694129805
 30
0.0
 11
-171.4274061703243
 21
47.57767094874981
 31
0.0
1001
REVIT
1002
{
1070
     2
1000
-2001320
1002
}
  0
LINE
  5
158F
330
6C
100
AcDbEntity
  8
0
 62
     0
370
     0
100
AcDbLine
 10
-171.4192674445357
 20
47.58693050566639
 30
0.0
 11
-171.4196242820945
 21
47.58761529695351
 31
0.0
1001
REVIT
1002
{
1070
     2
1000
-2001320
1002
}
  0
LINE
  5
1590
330
6C
100
AcDbEntity
  8
0
 62
     0
370
     0
100
AcDbLine
 10
-171.4205417158738
 20
47.51028071518482
 30
0.0
 11
-171.4211836050204
 21
47.51388543264242
 31
0.0
1001
REVIT
1002
{
1070
     2
1000
-2001320
1002
}
  0
LINE
  5
1591
330
6C
100
AcDbEntity
  8
0
 62
     0
370
     0
100
AcDbLine
 10
-171.4196264276938
 20
47.5326328239192
 30
0.0
 11
-171.4211835880113
 21
47.54144284794652
 31
0.0
1001
REVIT
1002
{
1070
     2
1000
-2001320
1002
}
  0
LINE
  5
1592
330
6C
100
AcDbEntity
  8
0
 62
     0
370
     0
100
AcDbLine
 10
-171.4211860640422
 20
47.5138886316177
 30
0.0
 11
-171.4230121518656
 21
47.51585325702131
 31
0.0
1001
REVIT
1002
{
1070
     2
1000
-2001320
1002
}
  0
LINE
  5
1593
330
6C
100
AcDbEntity
  8
0
 62
     0
370
     0
100
AcDbLine
 10
-171.4211862774167
 20
47.54144634208747
 30
0.0
 11
-171.4230123664282
 21
47.5434875833651
 31
0.0
1001
REVIT
1002
{
1070
     2
1000
-2001320
1002
}
  0
LINE
  5
1594
330
6C
100
AcDbEntity
  8
0
 62
     0
370
     0
100
AcDbLine
 10
-171.4230090498546
 20
47.5158497254576
 30
0.0
 11
-171.4272212915745
 21
47.52109666520774
 31
0.0
1001
REVIT
1002
{
1070
     2
1000
-2001320
1002
}
  0
LINE
  5
1595
330
6C
100
AcDbEntity
  8
0
 62
     0
370
     0
100
AcDbLine
 10
-171.4230089839355
 20
47.54348361199734
 30
0.0
 11
-171.4237471345717
 21
47.54443405202072
 31
0.0
1001
REVIT
1002
{
1070
     2
1000
-2001320
1002
}
  0
LINE
  5
1596
330
6C
100
AcDbEntity
  8
0
 62
     0
370
     0
100
AcDbLine
 10
-171.4272204199745
 20
47.52109561410708
 30
0.0
 11
-171.4274061703243
 21
47.52203377948267
 31
0.0
1001
REVIT
1002
{
1070
     2
1000
-2001320
1002
}
  0
LINE
  5
1597
330
6C
100
AcDbEntity
  8
0
 62
     0
370
     0
100
AcDbLine
 10
-171.4192674445357
 20
47.5319764393108
 30
0.0
 11
-171.4196244441343
 21
47.5326315852586
 31
0.0
1001
REVIT
1002
{
1070
     2
1000
-2001320
1002
}
  0
LINE
  5
1598
330
6C
100
AcDbEntity
  8
0
 62
     0
370
     0
100
AcDbLine
 10
-171.4948548898587
 20
47.46304595481741
 30
0.0
 11
-171.4963333178285
 21
47.46076421185098
 31
0.0
1001
REVIT
1002
{
1070
     2
1000
-2001320
1002
}
  0
LINE
  5
1599
330
6C
100
AcDbEntity
  8
0
 62
     0
370
     0
100
AcDbLine
 10
-171.4980314958717
 20
47.46573519143391
 30
0.0
 11
-171.4981758653082
 21
47.46551227936344
 31
0.0
1001
REVIT
1002
{
1070
     2
1000
-2001320
1002
}
  0
LINE
  5
15A2
330
6C
100
AcDbEntity
  8
0
100
AcDbLine
 10
-171.4968847718796
 20
47.53497103772098
 30
0.0
 11
-171.4967215360157
 21
47.53470521013258
 31
0.0
  0
LINE
  5
15A3
330
6C
100
AcDbEntity
  8
0
100
AcDbLine
 10
-171.4968858424098
 20
47.53340832705305
 30
0.0
 11
-171.496916006668
 21
47.53336195342305
 31
0.0
  0
LINE
  5
15A4
330
6C
100
AcDbEntity
  8
0
100
AcDbLine
 10
-171.4967889822844
 20
47.53304132287675
 30
0.0
 11
-171.4972835054015
 21
47.53274936850644
 31
0.0
  0
LINE
  5
15A5
330
6C
100
AcDbEntity
  8
0
100
AcDbLine
 10
-171.4972835054015
 20
47.53274936850644
 30
0.0
 11
-171.4981231590371
 21
47.53262417410467
 31
0.0
  0
LWPOLYLINE
  5
1780
330
6C
100
AcDbEntity
  8
A-ANNO-TEXT
 62
     7
100
AcDbPolyline
 90
        4
 70
     1
 43
0.0
 10
-171.6030622804221
 20
47.52553214277966
 10
-171.5478512223798
 20
47.52553214277966
 10
-171.5478512223798
 20
47.4953347743586
 10
-171.6030622804221
 20
47.4953347743586
1001
REVIT
1002
{
1070
     1
1000
332279
1002
}
1002
{
1070
     5
1000
332286
1002
}
1002
{
1070
     2
1000
-2000300
1002
}
  0
MTEXT
  5
1781
330
6C
100
AcDbEntity
  8
A-ANNO-TEXT
 62
     7
100
AcDbMText
 10
-171.5749486640827
 20
47.52059506247604
 30
0.0
 40
0.0174664911248931
 41
0.0361434262948207
 71
     2
 72
     1
  1
{\fArial|b1|i0|c163|p34;D\fArial|b1|i0|c0|p34;78}
 73
     2
 44
0.9385317878468564
1001
REVIT
1002
{
1070
     1
1000
332279
1002
}
1002
{
1070
     5
1000
332286
1002
}
1002
{
1070
     2
1000
-2000300
1002
}
1001
ACAD
1000
MTEXTBEGIN
1070
    73
1070
     2
1070
    44
1040
0.9385317878468564
1070
    74
1070
     0
1000
MTEXTEND
  0
MTEXT
  5
17D2
102
{ACAD_XDICTIONARY
360
1A6C
102
}
330
6C
100
AcDbEntity
  8
A-ANNO-TEXT
 62
     7
100
AcDbMText
 10
-171.4059660505008
 20
47.48940502905307
 30
0.0
 40
0.0096
 41
0.3079696359949211
 71
     2
 72
     1
  1
\A1;{\fArial|b1|i0|c0|p34;BCS2-2/4}
 73
     2
 44
0.9385317878468564
1001
REVIT
1002
{
1070
     1
1000
332280
1002
}
1002
{
1070
     5
1000
332282
1002
}
1002
{
1070
     2
1000
-2000300
1002
}
1001
ACAD
1000
MTEXTBEGIN
1070
    73
1070
     2
1070
    44
1040
0.9385317878468564
1070
    74
1070
     0
1000
MTEXTEND
1000
ACAD_MTEXT_DEFINED_HEIGHT_BEGIN
1070
    46
1040
0.0182129625928056
1000
ACAD_MTEXT_DEFINED_HEIGHT_END
  0
MTEXT
  5
17D3
102
{ACAD_XDICTIONARY
360
1A6E
102
}
330
6C
100
AcDbEntity
  8
A-ANNO-TEXT
 62
     7
100
AcDbMText
 10
-171.399269297739
 20
47.47542776057275
 30
0.0
 40
0.00864
 41
0.1057301991250962
 71
     2
 72
     1
  1
\A1;{\fArial|b0|i0|c0|p34;BCS2-3/6 similar)}
 73
     2
 44
0.9385317878468564
1001
REVIT
1002
{
1070
     1
1000
332280
1002
}
1002
{
1070
     5
1000
332282
1002
}
1002
{
1070
     2
1000
-2000300
1002
}
1001
ACAD
1000
MTEXTBEGIN
1070
    73
1070
     2
1070
    44
1040
0.9385317878468564
1070
    74
1070
     0
1000
MTEXTEND
1000
ACAD_MTEXT_DEFINED_HEIGHT_BEGIN
1070
    46
1040
0.0179588080106212
1000
ACAD_MTEXT_DEFINED_HEIGHT_END
  0
LWPOLYLINE
  5
1918
330
6C
100
AcDbEntity
  8
0
100
AcDbPolyline
 90
        2
 70
     0
 43
0.0
 10
-171.5125616991723
 20
47.52337294218287
 10
-171.5099345208782
 20
47.52385858116363
  0
LWPOLYLINE
  5
1919
330
6C
100
AcDbEntity
  8
0
100
AcDbPolyline
 90
        2
 70
     0
 43
0.0
 10
-171.5091384487708
 20
47.522557190904
 10
-171.5066161932458
 20
47.52306973263382
  0
LWPOLYLINE
  5
191A
330
6C
100
AcDbEntity
  8
0
100
AcDbPolyline
 90
        2
 70
     0
 43
0.0
 10
-171.506326613652
 20
47.52188713822746
 10
-171.5028233709404
 20
47.52216808498753
  0
LWPOLYLINE
  5
191B
330
6C
100
AcDbEntity
  8
0
100
AcDbPolyline
 90
        2
 70
     0
 43
0.0
 10
-171.5013926112013
 20
47.52071137883595
 10
-171.4993829325155
 20
47.52135020770296
  0
LWPOLYLINE
  5
191C
330
6C
100
AcDbEntity
  8
0
100
AcDbPolyline
 90
        2
 70
     0
 43
0.0
 10
-171.4975318305098
 20
47.51979136527658
 10
-171.4948849442202
 20
47.5202809246644
  0
LWPOLYLINE
  5
191D
330
6C
100
AcDbEntity
  8
0
100
AcDbPolyline
 90
        2
 70
     0
 43
0.0
 10
-171.4933937523211
 20
47.51880527247631
 10
-171.4899754851944
 20
47.51911382485883
  0
LWPOLYLINE
  5
191E
330
6C
100
AcDbEntity
  8
0
100
AcDbPolyline
 90
        2
 70
     0
 43
0.0
 10
-171.4883546281575
 20
47.51760446286596
 10
-171.4855658124864
 20
47.51806553661912
  0
LWPOLYLINE
  5
191F
330
6C
100
AcDbEntity
  8
0
100
AcDbPolyline
 90
        2
 70
     0
 43
0.0
 10
-171.4845110512263
 20
47.516688548916
 10
-171.4799418578034
 20
47.51698804382725
  0
VIEWPORT
  5
437
102
{ACAD_XDICTIONARY
360
1AAB
102
}
330
68
100
AcDbEntity
 67
     1
  8
A-ANNO-NPLT
100
AcDbViewport
 10
97.76086956521737
 20
95.97826086956521
 30
0.0
 40
1.289871512774169
 41
1.373776834125649
 68
     2
 69
     2
 12
-171.4864955590672
 22
47.48577307002141
 13
0.0
 23
0.0
 14
0.0
 24
0.0
 15
0.0
 25
0.0
 16
0.0
 26
0.0
 36
1.0
 17
0.0
 27
0.0
 37
0.0
 42
0.0
 43
0.0
 44
0.0
 45
0.2574742985152087
 50
0.0
 51
0.0
 72
  1000
 90
    32768
  1

281
     0
 71
     1
 74
     1
110
0.0
120
0.0
130
0.0
111
1.0
121
0.0
131
0.0
112
0.0
122
1.0
132
0.0
 79
     0
146
0.0
  0
VIEWPORT
  5
439
102
{ACAD_XDICTIONARY
360
1AAD
102
}
330
68
100
AcDbEntity
 67
     1
  8
0
100
AcDbViewport
 10
8.749700598802395
 20
4.5
 30
0.0
 40
21.49940119760479
 41
12.0
 68
     1
 69
     1
 12
8.749700598802395
 22
4.5
 13
0.0
 23
0.0
 14
0.0
 24
0.0
 15
0.0
 25
0.0
 16
0.0
 26
0.0
 36
1.0
 17
0.0
 27
0.0
 37
0.0
 42
50.0
 43
0.0
 44
0.0
 45
12.0
 50
0.0
 51
0.0
 72
   100
 90
    32800
  1

281
     0
 71
     1
 74
     1
110
0.0
120
0.0
130
0.0
111
1.0
121
0.0
131
0.0
112
0.0
122
1.0
132
0.0
 79
     0
146
0.0
  0
LWPOLYLINE
  5
43D
330
68
100
AcDbEntity
 67
     1
  8
A-ANNO-TEXT
 62
     7
100
AcDbPolyline
 90
        4
 70
     1
 43
0.0
 10
97.17935088107509
 20
95.87118797276108
 10
97.46776034072041
 20
95.87118797276108
 10
97.46776034072041
 20
95.67103916323727
 10
97.17935088107509
 20
95.67103916323727
1001
REVIT
1002
{
1070
     1
1000
249348
1002
}
1002
{
1070
     5
1000
249351
1002
}
1002
{
1070
     2
1000
-2000300
1002
}
  0
MTEXT
  5
43E
330
68
100
AcDbEntity
 67
     1
  8
A-ANNO-TEXT
 62
     7
100
AcDbMText
 10
97.20278838107507
 20
95.82086005716371
 30
0.0
 40
0.0951333939264328
 41
0.282375
 71
     1
 72
     1
  1
\fArial|b1|i0|c163|p34|;D78
 73
     2
 44
0.9385317878468562
1001
REVIT
1002
{
1070
     1
1000
249348
1002
}
1002
{
1070
     5
1000
249351
1002
}
1002
{
1070
     2
1000
-2000300
1002
}
1001
ACAD
1000
MTEXTBEGIN
1070
    73
1070
     2
1070
    44
1040
0.9385317878468562
1070
    74
1070
     0
1000
MTEXTEND
1000
ACAD_MTEXT_BBRT
1070
    91
1071
        3
1070
    46
1040
1.25
1070
    64
1071
-989855744
1070
    65
1000

1070
    66
1000

1070
   442
1071
        0
1000
ACAD_MTEXT_BERT
  0
MTEXT
  5
43F
330
68
100
AcDbEntity
 67
     1
  8
A-ANNO-TEXT
 62
     7
100
AcDbMText
 10
98.15582449854119
 20
95.72263367399839
 30
0.0
 40
0.0634222626176219
 41
0.45075
 71
     1
 72
     1
  1
\fArial|b1|i0|c163|p34|;BCS2-2/4
 73
     2
 44
0.9385317878468562
1001
REVIT
1002
{
1070
     1
1000
249349
1002
}
1002
{
1070
     5
1000
249355
1002
}
1002
{
1070
     2
1000
-2000300
1002
}
1001
ACAD
1000
MTEXTBEGIN
1070
    73
1070
     2
1070
    44
1040
0.9385317878468562
1070
    74
1070
     0
1000
MTEXTEND
1000
ACAD_MTEXT_BBRT
1070
    91
1071
        3
1070
    46
1040
1.25
1070
    64
1071
-989855744
1070
    65
1000

1070
    66
1000

1070
   442
1071
        0
1000
ACAD_MTEXT_BERT
  0
MTEXT
  5
440
330
68
100
AcDbEntity
 67
     1
  8
A-ANNO-TEXT
 62
     7
100
AcDbMText
 10
98.31110730913657
 20
95.62578539382021
 30
0.0
 40
0.0614708083832335
 41
0.8377499999999999
 71
     2
 72
     1
  1
\fArial|b0|i1|c163|p34|;(BCS2-3/6 similar)
 73
     2
 44
0.9385317878468564
1001
REVIT
1002
{
1070
     1
1000
249350
1002
}
1002
{
1070
     5
1000
249375
1002
}
1002
{
1070
     2
1000
-2000300
1002
}
1001
ACAD
1000
MTEXTBEGIN
1070
    73
1070
     2
1070
    44
1040
0.9385317878468564
1070
    74
1070
     0
1000
MTEXTEND
1000
ACAD_MTEXT_BBRT
1070
    91
1071
        3
1070
    46
1040
1.25
1070
    64
1071
-989855744
1070
    65
1000

1070
    66
1000

1070
   442
1071
        0
1000
ACAD_MTEXT_BERT
  0
ENDSEC
  0
SECTION
  2
OBJECTS
  0
DICTIONARY
  5
C
330
0
100
AcDbDictionary
281
     1
  3
ACAD_CIP_PREVIOUS_PRODUCT_INFO
350
75
  3
ACAD_COLOR
350
63
  3
ACAD_GROUP
350
D
  3
ACAD_IMAGE_VARS
350
76
  3
ACAD_LAYOUT
350
62
  3
ACAD_MATERIAL
350
10
  3
ACAD_MLEADERSTYLE
350
66
  3
ACAD_MLINESTYLE
350
5F
  3
ACAD_PLOTSETTINGS
350
61
  3
ACAD_PLOTSTYLENAME
350
E
  3
ACAD_SCALELIST
350
42
  3
ACAD_TABLESTYLE
350
64
  3
ACAD_VISUALSTYLE
350
29
  3
ACDB_RECOMPOSE_DATA
350
1A70
  3
AcDbVariableDictionary
350
492
  3
DWGPROPS
350
1A71
  3
REVIT_DICTIONARY
350
441
  0
DICTIONARY
  5
451
330
8
100
AcDbDictionary
280
     1
281
     1
  0
DICTIONARY
  5
4AC
330
2
100
AcDbDictionary
280
     1
281
     1
  3
ACAD_LAYERSTATES
360
4AD
  0
DICTIONARY
  5
446
330
6C
100
AcDbDictionary
280
     1
281
     1
  3
ACAD_SORTENTS
360
447
  0
DICTIONARY
  5
1A6C
330
17D2
100
AcDbDictionary
280
     1
281
     1
  3
ACAD_MTEXT_2008_RT
360
1A6D
  0
DICTIONARY
  5
1A6E
330
17D3
100
AcDbDictionary
280
     1
281
     1
  3
ACAD_MTEXT_2008_RT
360
1A6F
  0
DICTIONARY
  5
1AAB
330
437
100
AcDbDictionary
280
     1
281
     1
  3
ACAD_XREC_ROUNDTRIP
360
1AAC
  0
DICTIONARY
  5
1AAD
330
439
100
AcDbDictionary
280
     1
281
     1
  3
ACAD_XREC_ROUNDTRIP
360
1AAE
  0
XRECORD
  5
75
102
{ACAD_REACTORS
330
C
102
}
330
C
100
AcDbXrecord
280
     1
300
ACD
300
2012
300
85792REVSU_2012_0F
  0
DICTIONARY
  5
63
102
{ACAD_REACTORS
330
C
102
}
330
C
100
AcDbDictionary
281
     1
  0
DICTIONARY
  5
D
102
{ACAD_REACTORS
330
C
102
}
330
C
100
AcDbDictionary
281
     1
  0
RASTERVARIABLES
  5
76
102
{ACAD_REACTORS
330
C
102
}
330
C
100
AcDbRasterVariables
 90
        0
 70
     0
 71
     1
 72
     5
  0
DICTIONARY
  5
62
102
{ACAD_REACTORS
330
C
102
}
330
C
100
AcDbDictionary
281
     1
  3
Layout1
350
6B
  3
Layout2
350
73
  3
Model
350
6F
  0
DICTIONARY
  5
10
102
{ACAD_REACTORS
330
C
102
}
330
C
100
AcDbDictionary
281
     1
  3
ByBlock
350
19
  3
ByLayer
350
11
  3
Global
350
21
  0
DICTIONARY
  5
66
102
{ACAD_REACTORS
330
C
102
}
330
C
100
AcDbDictionary
281
     1
  3
Standard
350
67
  0
DICTIONARY
  5
5F
102
{ACAD_REACTORS
330
C
102
}
330
C
100
AcDbDictionary
281
     1
  3
Standard
350
60
  0
DICTIONARY
  5
61
102
{ACAD_REACTORS
330
C
102
}
330
C
100
AcDbDictionary
281
     1
  0
ACDBDICTIONARYWDFLT
  5
E
102
{ACAD_REACTORS
330
C
102
}
330
C
100
AcDbDictionary
281
     1
  3
Normal
350
F
100
AcDbDictionaryWithDefault
340
F
  0
DICTIONARY
  5
42
102
{ACAD_REACTORS
330
C
102
}
330
C
100
AcDbDictionary
281
     1
  3
A0
350
43
  3
A1
350
44
  3
A2
350
45
  3
A3
350
46
  3
A4
350
47
  3
A5
350
48
  3
A6
350
49
  3
A7
350
4A
  3
A8
350
4B
  3
A9
350
4C
  3
B0
350
4D
  3
B1
350
4E
  3
B2
350
4F
  3
B3
350
50
  3
B4
350
51
  3
B5
350
52
  3
B6
350
53
  0
DICTIONARY
  5
64
102
{ACAD_REACTORS
330
C
102
}
330
C
100
AcDbDictionary
281
     1
  3
Standard
350
65
  0
DICTIONARY
  5
29
102
{ACAD_REACTORS
330
C
102
}
330
C
100
AcDbDictionary
281
     1
  3
2dWireframe
350
2F
  3
Basic
350
2E
  3
Brighten
350
35
  3
ColorChange
350
39
  3
Conceptual
350
32
  3
Dim
350
34
  3
EdgeColorOff
350
41
  3
Facepattern
350
38
  3
Flat
350
2A
  3
FlatWithEdges
350
2B
  3
Gouraud
350
2C
  3
GouraudWithEdges
350
2D
  3
Hidden
350
31
  3
JitterOff
350
3F
  3
Linepattern
350
37
  3
OverhangOff
350
40
  3
Realistic
350
33
  3
Shaded
350
3E
  3
Shaded with edges
350
3D
  3
Shades of Gray
350
3A
  3
Sketchy
350
3B
  3
Thicken
350
36
  3
Wireframe
350
30
  3
X-Ray
350
3C
  0
XRECORD
  5
1A70
102
{ACAD_REACTORS
330
C
102
}
330
C
100
AcDbXrecord
280
     1
 90
        1
330
65
330
17D2
330
17D3
  0
DICTIONARY
  5
492
102
{ACAD_REACTORS
330
C
102
}
330
C
100
AcDbDictionary
281
     1
  3
CANNOSCALE
350
496
  3
CMLEADERSTYLE
350
494
  3
CTABLESTYLE
350
493
  3
DIMASSOC
350
49D
  3
HIDETEXT
350
49C
  3
INDEXCTL
350
49B
  3
LATITUDE
350
1A65
  3
LAYEREVAL
350
498
  3
LAYERNOTIFY
350
499
  3
LIGHTINGUNITS
350
497
  3
LONGITUDE
350
1A66
  3
MSLTSCALE
350
495
  3
SORTENTS
350
49A
  3
TIMEZONE
350
1A67
  3
XCLIPFRAME
350
1A68
  0
XRECORD
  5
1A71
102
{ACAD_REACTORS
330
C
102
}
330
C
100
AcDbXrecord
280
     1
  1
DWGPROPS COOKIE
  2

  3

  4

  6

  7

  8
VPhan
  9

300
=
301
=
302
=
303
=
304
=
305
=
306
=
307
=
308
=
309
=
 40
0.1799571759259259
 41
2456195.354592234
 42
2456196.622143831
  1

 90
        0
  0
DICTIONARY
  5
441
102
{ACAD_REACTORS
330
C
102
}
330
C
100
AcDbDictionary
281
     1
  3
DRAWING_TOOL
350
445
  3
REVIT_CATEGORY_MAPPING
350
443
  3
REVIT_SUB_CATEGORY_MAPPING
350
444
  3
REVIT_TYPE_MAPPING
350
442
  0
DICTIONARY
  5
4AD
102
{ACAD_REACTORS
330
4AC
102
}
330
4AC
100
AcDbDictionary
281
     1
  0
SORTENTSTABLE
  5
447
102
{ACAD_REACTORS
330
446
102
}
330
446
100
AcDbSortentsTable
330
6C
331
1465
  5
11A4
331
1461
  5
11A0
331
149C
  5
10C6
331
1498
  5
10C2
331
1557
  5
C9C
331
14DD
  5
FCE
331
14D9
  5
FCA
331
1553
  5
CBE
331
1D7
  5
211
331
216
  5
267
331
212
  5
263
331
2B4
  5
CB6
331
1514
  5
D82
331
158E
  5
21E
331
14D5
  5
FC6
331
154F
  5
CC4
331
1D3
  5
1D6
331
2B0
  5
CB2
331
1510
  5
D70
331
158A
  5
21A
331
14D1
  5
FD1
331
337
  5
D69
331
1494
  5
10BE
331
1490
  5
1142
331
323
  5
D5B
331
148C
  5
1130
331
1488
  5
10F4
331
1CF
  5
1D2
331
1CB
  5
1CE
331
2AC
  5
CAE
331
150C
  5
E67
331
1547
  5
CD0
331
1586
  5
220
331
14CD
  5
FD9
331
1508
  5
E2B
331
14C9
  5
FD5
331
2A8
  5
CAA
331
1543
  5
CD6
331
1582
  5
2AB
331
2A4
  5
CA6
331
1504
  5
DEF
331
157E
  5
2A7
331
14C5
  5
FDE
331
1500
  5
EF5
331
153B
  5
D4E
331
157A
  5
2A3
331
14C1
  5
FFA
331
1484
  5
1175
331
303
  5
CEF
331
1480
  5
1168
331
2D3
  5
CC9
331
147C
  5
1158
331
1478
  5
119B
331
14FC
  5
ED0
331
1537
  5
D4A
331
1576
  5
2B3
331
14BD
  5
FE3
331
278
  5
395
331
14B9
  5
FDF
331
1533
  5
D2F
331
1572
  5
2AF
331
14F8
  5
E94
331
14F4
  5
F58
331
156E
  5
2B7
331
14B5
  5
1033
331
152F
  5
D5A
331
14F0
  5
F34
331
156A
  5
3CE
331
14B1
  5
1021
331
270
  5
335
331
152B
  5
D56
331
1474
  5
1182
331
1470
  5
117E
331
3CE
  5
1042
331
146C
  5
119D
331
1468
  5
11A7
331
1596
  5
218
331
1592
  5
214
331
225
  5
277
331
14EC
  5
F19
331
1527
  5
D52
331
14AD
  5
101D
331
26C
  5
302
331
268
  5
2D3
331
14A9
  5
10AB
331
221
  5
273
331
14E8
  5
FC1
331
21D
  5
26E
331
14E4
  5
F9F
331
14A5
  5
1083
331
264
  5
2C5
331
151F
  5
D5F
331
155E
  5
C9A
331
219
  5
26A
331
14E0
  5
F84
331
155A
  5
C9F
331
14A1
  5
107F
331
151B
  5
D66
331
1464
  5
11A3
331
34A
  5
DC2
331
149F
  5
10E5
331
33A
  5
D6C
331
149B
  5
10C5
331
14DC
  5
FCD
331
1556
  5
CBB
331
215
  5
266
331
1D6
  5
210
331
1517
  5
DAF
331
14D8
  5
FC9
331
1552
  5
CC3
331
2B7
  5
CB9
331
211
  5
262
331
2B3
  5
CB5
331
1513
  5
D73
331
158D
  5
21D
331
14D4
  5
FC5
331
154E
  5
CCB
331
1D2
  5
1D5
331
154A
  5
CCF
331
1589
  5
223
331
14D0
  5
FD0
331
336
  5
D68
331
1497
  5
10C1
331
1493
  5
1157
331
148F
  5
1141
331
148B
  5
1121
331
1CE
  5
1D1
331
2AF
  5
CB1
331
150F
  5
D6F
331
1CA
  5
1CD
331
150B
  5
E58
331
1546
  5
CD3
331
1585
  5
226
331
14CC
  5
FD8
331
1507
  5
E1C
331
14C8
  5
FD4
331
2A7
  5
CA9
331
1542
  5
CD5
331
1581
  5
2AA
331
2A3
  5
CA5
331
1503
  5
DE0
331
157D
  5
2A6
331
14C4
  5
FDD
331
153E
  5
CDD
331
153A
  5
D4D
331
1579
  5
2A2
331
14C0
  5
FF2
331
1487
  5
1178
331
1483
  5
1174
331
302
  5
CE0
331
147F
  5
1167
331
147B
  5
117B
331
14FF
  5
EF0
331
14FB
  5
EC1
331
1536
  5
D43
331
1575
  5
2B2
331
14BC
  5
FE2
331
14F7
  5
E85
331
14B8
  5
100F
331
277
  5
34A
331
1532
  5
D27
331
1571
  5
2AE
331
14F3
  5
F53
331
156D
  5
2B6
331
14B4
  5
1024
331
152E
  5
D59
331
228
  5
2A1
331
152A
  5
D55
331
14B0
  5
1020
331
1477
  5
1192
331
1473
  5
1181
331
3D1
  5
106F
331
146F
  5
117D
331
2BE
  5
CBD
331
146B
  5
119C
331
1599
  5
1CB
331
1595
  5
217
331
1591
  5
213
331
14EF
  5
F2F
331
26F
  5
323
331
26B
  5
301
331
224
  5
276
331
14EB
  5
F0C
331
1526
  5
D51
331
14AC
  5
1017
331
267
  5
2D2
331
14A8
  5
10A2
331
1522
  5
D62
331
1561
  5
C99
331
220
  5
271
331
14E7
  5
FBC
331
21C
  5
26D
331
14E3
  5
F9B
331
155D
  5
CA2
331
14A4
  5
1082
331
263
  5
2C4
331
151E
  5
D5E
331
218
  5
269
331
1559
  5
C9E
331
14A0
  5
107E
331
151A
  5
D65
331
1467
  5
11A6
331
1463
  5
11A2
331
149E
  5
10D6
331
339
  5
D6B
331
149A
  5
10C4
331
14DF
  5
F77
331
14DB
  5
FCC
331
1555
  5
CBA
331
214
  5
265
331
1D5
  5
20F
331
1516
  5
DA0
331
14D7
  5
FC8
331
1551
  5
CC2
331
2B6
  5
CB8
331
1D1
  5
1D4
331
2B2
  5
CB4
331
210
  5
228
331
1512
  5
D72
331
158C
  5
21C
331
14D3
  5
FC4
331
154D
  5
CCA
331
1549
  5
CCE
331
1588
  5
222
331
335
  5
D67
331
1496
  5
10C0
331
1492
  5
1150
331
148E
  5
1140
331
148A
  5
1112
331
1CD
  5
1D0
331
2AE
  5
CB0
331
150E
  5
D6E
331
14CF
  5
FDB
331
2AA
  5
CAC
331
14CB
  5
FD7
331
1545
  5
CD2
331
1584
  5
225
331
150A
  5
E49
331
1506
  5
E0D
331
14C7
  5
FD3
331
2A6
  5
CA8
331
1541
  5
CD4
331
1580
  5
2A9
331
2A2
  5
CA4
331
157C
  5
2A5
331
1502
  5
DD1
331
153D
  5
CDC
331
1539
  5
D4C
331
1578
  5
2B5
331
1486
  5
1177
331
1482
  5
116A
331
301
  5
CDF
331
147E
  5
1161
331
147A
  5
117A
331
14FE
  5
EE4
331
14BF
  5
FEC
331
14FA
  5
EB2
331
1535
  5
D42
331
1574
  5
2B1
331
14BB
  5
FE1
331
14F6
  5
E76
331
14B7
  5
100E
331
276
  5
33A
331
1531
  5
D1C
331
1570
  5
2AD
331
14F2
  5
F46
331
156C
  5
2BD
331
14B3
  5
1023
331
152D
  5
D58
331
1529
  5
D54
331
1476
  5
1191
331
2C5
  5
CC1
331
1472
  5
1180
331
3D0
  5
1060
331
146A
  5
11A9
331
1598
  5
1CC
331
1594
  5
216
331
1590
  5
212
331
227
  5
28C
331
14EE
  5
F2B
331
14AF
  5
101F
331
26E
  5
304
331
26A
  5
300
331
223
  5
275
331
14EA
  5
F07
331
1525
  5
D50
331
14AB
  5
10BD
331
21F
  5
270
331
14E6
  5
FB0
331
14A7
  5
10A1
331
266
  5
2D1
331
1521
  5
D61
331
1560
  5
C98
331
21B
  5
26C
331
14E2
  5
F8E
331
155C
  5
CA1
331
14A3
  5
1081
331
262
  5
2BE
331
151D
  5
D5D
331
1519
  5
D64
331
1558
  5
C9D
331
1466
  5
11A5
331
1462
  5
11A1
331
149D
  5
10C7
331
338
  5
D6A
331
1499
  5
10C3
331
14DE
  5
F6A
331
14DA
  5
FCB
331
1554
  5
CBF
331
217
  5
268
331
213
  5
264
331
2B5
  5
CB7
331
1515
  5
D91
331
158F
  5
21F
331
14D6
  5
FC7
331
1550
  5
CC5
331
1D4
  5
1D7
331
1D0
  5
1D3
331
2B1
  5
CB3
331
1511
  5
D71
331
158B
  5
21B
331
14D2
  5
FC3
331
1548
  5
CD1
331
1495
  5
10BF
331
1491
  5
114A
331
148D
  5
113F
331
1489
  5
1103
331
20F
  5
227
331
1CC
  5
1CF
331
2AD
  5
CAF
331
150D
  5
D6D
331
1587
  5
221
331
14CE
  5
FDA
331
2A9
  5
CAB
331
14CA
  5
FD6
331
1544
  5
CD7
331
1583
  5
224
331
1509
  5
E3A
331
1505
  5
DFE
331
157F
  5
2A8
331
14C6
  5
FD2
331
2A5
  5
CA7
331
2A1
  5
CA3
331
1501
  5
F02
331
157B
  5
2A4
331
14C2
  5
1000
331
153C
  5
CDB
331
1538
  5
D4B
331
1485
  5
1176
331
304
  5
CFE
331
1481
  5
1169
331
147D
  5
1159
331
1479
  5
1179
331
14FD
  5
EDF
331
1577
  5
2B4
331
14BE
  5
FE4
331
14BA
  5
FE0
331
1534
  5
D37
331
1573
  5
2B0
331
14F9
  5
EA3
331
14F5
  5
F65
331
275
  5
339
331
1530
  5
D0D
331
156F
  5
2AC
331
14F1
  5
F41
331
156B
  5
3CF
331
14B2
  5
1022
331
271
  5
336
331
152C
  5
D57
331
1528
  5
D53
331
1475
  5
1188
331
2C4
  5
CC0
331
1471
  5
117F
331
3CF
  5
1051
331
146D
  5
119E
331
1469
  5
11A8
331
1597
  5
219
331
1593
  5
215
331
226
  5
278
331
14ED
  5
F1E
331
14AE
  5
101E
331
26D
  5
303
331
269
  5
2F9
331
222
  5
274
331
14E9
  5
FC2
331
1524
  5
D4F
331
14AA
  5
10B4
331
21E
  5
26F
331
14E5
  5
FAC
331
14A6
  5
1092
331
265
  5
2D0
331
1520
  5
D60
331
155F
  5
C9B
331
21A
  5
26B
331
14E1
  5
F89
331
155B
  5
CA0
331
14A2
  5
1080
331
151C
  5
D5C
331
1518
  5
DB7
  0
XRECORD
  5
1A6D
102
{ACAD_REACTORS
330
1A6C
102
}
330
1A6C
100
AcDbXrecord
280
     1
 40
48757.0
  1
\A1;\pxqc;{\fArial|b1|i0|c0|p34;BCS2-2/4}
  0
XRECORD
  5
1A6F
102
{ACAD_REACTORS
330
1A6E
102
}
330
1A6E
100
AcDbXrecord
280
     1
 40
82197.0
  1
\A1;\pxql;{\fArial|b0|i0|c0|p34;BCS2-3/6 similar)}
  0
XRECORD
  5
1AAC
102
{ACAD_REACTORS
330
1AAB
102
}
330
1AAB
100
AcDbXrecord
280
     1
102
SHADEPLOT
 70
     0
  0
XRECORD
  5
1AAE
102
{ACAD_REACTORS
330
1AAD
102
}
330
1AAD
100
AcDbXrecord
280
     1
102
SHADEPLOT
 70
     0
  0
LAYOUT
  5
6B
102
{ACAD_XDICTIONARY
360
4B1
102
}
102
{ACAD_REACTORS
330
62
102
}
330
62
100
AcDbPlotSettings
  1

  2
Snagit 11
  4
A4
  6

 40
6.000750064849853
 41
6.76275634765625
 42
7.77874755859375
 43
4.9847412109375
 44
209.9309997558594
 45
296.9259948730469
 46
0.0
 47
0.0
 48
0.0
 49
0.0
140
0.0
141
0.0
142
1.0
143
0.1788061482347682
 70
   688
 72
     0
 73
     1
 74
     1
  7

 75
     0
147
5.592648853925448
148
-2466.721983638749
149
-2420.343818973799
100
AcDbLayout
  1
Layout1
 70
     1
 71
     1
 10
97.07994808121549
 20
95.24688377827493
 11
99.17019191798818
 21
96.72471659171664
 12
0.0
 22
0.0
 32
0.0
 14
97.115038725935
 24
95.28912673125191
 34
-0.0015258207003583
 15
98.75101266331421
 25
96.6699572260063
 35
0.0000000349246037
146
0.0
 13
0.0
 23
0.0
 33
0.0
 16
1.0
 26
0.0
 36
0.0
 17
0.0
 27
1.0
 37
0.0
 76
     0
330
68
331
439
1001
ACAD_PSEXT
1000
Snagit 11
1000
Snagit 11 Printer
1000
C:\ProgramData\TechSmith\Snagit 11\PrinterPortFile
1000

1070
     0
  0
LAYOUT
  5
73
102
{ACAD_XDICTIONARY
360
1AA9
102
}
102
{ACAD_REACTORS
330
62
102
}
330
62
100
AcDbPlotSettings
  1

  2

  4

  6

 40
0.0
 41
0.0
 42
0.0
 43
0.0
 44
0.0
 45
0.0
 46
0.0
 47
0.0
 48
0.0
 49
0.0
140
0.0
141
0.0
142
1.0
143
1.0
 70
   688
 72
     0
 73
     0
 74
     5
  7

 75
    16
147
1.0
148
0.0
149
0.0
100
AcDbLayout
  1
Layout2
 70
     1
 71
     2
 10
0.0
 20
0.0
 11
12.0
 21
9.0
 12
0.0
 22
0.0
 32
0.0
 14
0.0
 24
0.0
 34
0.0
 15
0.0
 25
0.0
 35
0.0
146
0.0
 13
0.0
 23
0.0
 33
0.0
 16
1.0
 26
0.0
 36
0.0
 17
0.0
 27
1.0
 37
0.0
 76
     0
330
70
  0
LAYOUT
  5
6F
102
{ACAD_XDICTIONARY
360
1AA7
102
}
102
{ACAD_REACTORS
330
62
102
}
330
62
100
AcDbPlotSettings
  1

  2

  4

  6

 40
0.0
 41
0.0
 42
0.0
 43
0.0
 44
0.0
 45
0.0
 46
0.0
 47
0.0
 48
0.0
 49
0.0
140
0.0
141
0.0
142
1.0
143
1.0
 70
  1712
 72
     0
 73
     0
 74
     0
  7

 75
     0
147
1.0
148
0.0
149
0.0
100
AcDbLayout
  1
Model
 70
     1
 71
     0
 10
0.0
 20
0.0
 11
12.0
 21
9.0
 12
0.0
 22
0.0
 32
0.0
 14
0.0
 24
0.0
 34
0.0
 15
0.0
 25
0.0
 35
0.0
146
0.0
 13
0.0
 23
0.0
 33
0.0
 16
1.0
 26
0.0
 36
0.0
 17
0.0
 27
1.0
 37
0.0
 76
     0
330
6C
331
57
  0
MATERIAL
  5
19
102
{ACAD_XDICTIONARY
360
1A
102
}
102
{ACAD_REACTORS
330
10
102
}
330
10
100
AcDbMaterial
  1
ByBlock
 72
     0
 43
0.0208333333333333
 43
0.0
 43
0.0
 43
0.0
 43
0.0
 43
0.0208333333333333
 43
0.0
 43
0.0
 43
0.0
 43
0.0
 43
1.0
 43
0.0
 43
0.0
 43
0.0
 43
0.0
 43
1.0
 77
     0
 47
0.0208333333333333
 47
0.0
 47
0.0
 47
0.0
 47
0.0
 47
0.0208333333333333
 47
0.0
 47
0.0
 47
0.0
 47
0.0
 47
1.0
 47
0.0
 47
0.0
 47
0.0
 47
0.0
 47
1.0
171
     0
 49
0.0208333333333333
 49
0.0
 49
0.0
 49
0.0
 49
0.0
 49
0.0208333333333333
 49
0.0
 49
0.0
 49
0.0
 49
0.0
 49
1.0
 49
0.0
 49
0.0
 49
0.0
 49
0.0
 49
1.0
175
     0
142
0.0208333333333333
142
0.0
142
0.0
142
0.0
142
0.0
142
0.0208333333333333
142
0.0
142
0.0
142
0.0
142
0.0
142
1.0
142
0.0
142
0.0
142
0.0
142
0.0
142
1.0
179
     0
144
0.0208333333333333
144
0.0
144
0.0
144
0.0
144
0.0
144
0.0208333333333333
144
0.0
144
0.0
144
0.0
144
0.0
144
1.0
144
0.0
144
0.0
144
0.0
144
0.0
144
1.0
147
0.0208333333333333
147
0.0
147
0.0
147
0.0
147
0.0
147
0.0208333333333333
147
0.0
147
0.0
147
0.0
147
0.0
147
1.0
147
0.0
147
0.0
147
0.0
147
0.0
147
1.0
  0
MATERIAL
  5
11
102
{ACAD_XDICTIONARY
360
12
102
}
102
{ACAD_REACTORS
330
10
102
}
330
10
100
AcDbMaterial
  1
ByLayer
 72
     0
 43
0.0208333333333333
 43
0.0
 43
0.0
 43
0.0
 43
0.0
 43
0.0208333333333333
 43
0.0
 43
0.0
 43
0.0
 43
0.0
 43
1.0
 43
0.0
 43
0.0
 43
0.0
 43
0.0
 43
1.0
 77
     0
 47
0.0208333333333333
 47
0.0
 47
0.0
 47
0.0
 47
0.0
 47
0.0208333333333333
 47
0.0
 47
0.0
 47
0.0
 47
0.0
 47
1.0
 47
0.0
 47
0.0
 47
0.0
 47
0.0
 47
1.0
171
     0
 49
0.0208333333333333
 49
0.0
 49
0.0
 49
0.0
 49
0.0
 49
0.0208333333333333
 49
0.0
 49
0.0
 49
0.0
 49
0.0
 49
1.0
 49
0.0
 49
0.0
 49
0.0
 49
0.0
 49
1.0
175
     0
142
0.0208333333333333
142
0.0
142
0.0
142
0.0
142
0.0
142
0.0208333333333333
142
0.0
142
0.0
142
0.0
142
0.0
142
1.0
142
0.0
142
0.0
142
0.0
142
0.0
142
1.0
179
     0
144
0.0208333333333333
144
0.0
144
0.0
144
0.0
144
0.0
144
0.0208333333333333
144
0.0
144
0.0
144
0.0
144
0.0
144
1.0
144
0.0
144
0.0
144
0.0
144
0.0
144
1.0
147
0.0208333333333333
147
0.0
147
0.0
147
0.0
147
0.0
147
0.0208333333333333
147
0.0
147
0.0
147
0.0
147
0.0
147
1.0
147
0.0
147
0.0
147
0.0
147
0.0
147
1.0
  0
MATERIAL
  5
21
102
{ACAD_XDICTIONARY
360
22
102
}
102
{ACAD_REACTORS
330
10
102
}
330
10
100
AcDbMaterial
  1
Global
 72
     0
 43
0.0208333333333333
 43
0.0
 43
0.0
 43
0.0
 43
0.0
 43
0.0208333333333333
 43
0.0
 43
0.0
 43
0.0
 43
0.0
 43
1.0
 43
0.0
 43
0.0
 43
0.0
 43
0.0
 43
1.0
 77
     0
 47
0.0208333333333333
 47
0.0
 47
0.0
 47
0.0
 47
0.0
 47
0.0208333333333333
 47
0.0
 47
0.0
 47
0.0
 47
0.0
 47
1.0
 47
0.0
 47
0.0
 47
0.0
 47
0.0
 47
1.0
171
     0
 49
0.0208333333333333
 49
0.0
 49
0.0
 49
0.0
 49
0.0
 49
0.0208333333333333
 49
0.0
 49
0.0
 49
0.0
 49
0.0
 49
1.0
 49
0.0
 49
0.0
 49
0.0
 49
0.0
 49
1.0
175
     0
142
0.0208333333333333
142
0.0
142
0.0
142
0.0
142
0.0
142
0.0208333333333333
142
0.0
142
0.0
142
0.0
142
0.0
142
1.0
142
0.0
142
0.0
142
0.0
142
0.0
142
1.0
179
     0
144
0.0208333333333333
144
0.0
144
0.0
144
0.0
144
0.0
144
0.0208333333333333
144
0.0
144
0.0
144
0.0
144
0.0
144
1.0
144
0.0
144
0.0
144
0.0
144
0.0
144
1.0
147
0.0208333333333333
147
0.0
147
0.0
147
0.0
147
0.0
147
0.0208333333333333
147
0.0
147
0.0
147
0.0
147
0.0
147
1.0
147
0.0
147
0.0
147
0.0
147
0.0
147
1.0
  0
MLEADERSTYLE
  5
67
102
{ACAD_XDICTIONARY
360
1A6A
102
}
102
{ACAD_REACTORS
330
66
102
}
330
66
100
AcDbMLeaderStyle
170
     2
171
     1
172
     0
 90
        2
 40
0.0
 41
0.0
173
     1
 91
-1056964608
340
5B
 92
       -2
290
     1
 42
0.09
291
     1
 43
0.36
  3
Standard
 44
0.18
300

342
55
174
     1
178
     6
175
     1
176
     0
 93
-1056964608
 45
0.18
292
     0
297
     0
 46
0.18
 94
-1056964608
 47
1.0
 49
1.0
140
1.0
293
     1
141
0.0
294
     1
177
     0
142
1.0
295
     0
296
     0
143
0.125
1001
ACAD_MLEADERVER
1070
     2
  0
MLINESTYLE
  5
60
102
{ACAD_REACTORS
330
5F
102
}
330
5F
100
AcDbMlineStyle
  2
STANDARD
 70
     0
  3

 62
   256
 51
90.0
 52
90.0
 71
     2
 49
0.5
 62
   256
  6
BYLAYER
 49
-0.5
 62
   256
  6
BYLAYER
  0
ACDBPLACEHOLDER
  5
F
102
{ACAD_REACTORS
330
E
102
}
330
E
  0
SCALE
  5
43
102
{ACAD_REACTORS
330
42
102
}
330
42
100
AcDbScale
 70
     0
300
1:1
140
1.0
141
1.0
290
     1
  0
SCALE
  5
44
102
{ACAD_REACTORS
330
42
102
}
330
42
100
AcDbScale
 70
     0
300
1/128" = 1'-0"
140
0.0078125
141
12.0
290
     0
  0
SCALE
  5
45
102
{ACAD_REACTORS
330
42
102
}
330
42
100
AcDbScale
 70
     0
300
1/64" = 1'-0"
140
0.015625
141
12.0
290
     0
  0
SCALE
  5
46
102
{ACAD_REACTORS
330
42
102
}
330
42
100
AcDbScale
 70
     0
300
1/32" = 1'-0"
140
0.03125
141
12.0
290
     0
  0
SCALE
  5
47
102
{ACAD_REACTORS
330
42
102
}
330
42
100
AcDbScale
 70
     0
300
1/16" = 1'-0"
140
0.0625
141
12.0
290
     0
  0
SCALE
  5
48
102
{ACAD_REACTORS
330
42
102
}
330
42
100
AcDbScale
 70
     0
300
3/32" = 1'-0"
140
0.09375
141
12.0
290
     0
  0
SCALE
  5
49
102
{ACAD_REACTORS
330
42
102
}
330
42
100
AcDbScale
 70
     0
300
1/8" = 1'-0"
140
0.125
141
12.0
290
     0
  0
SCALE
  5
4A
102
{ACAD_REACTORS
330
42
102
}
330
42
100
AcDbScale
 70
     0
300
3/16" = 1'-0"
140
0.1875
141
12.0
290
     0
  0
SCALE
  5
4B
102
{ACAD_REACTORS
330
42
102
}
330
42
100
AcDbScale
 70
     0
300
1/4" = 1'-0"
140
0.25
141
12.0
290
     0
  0
SCALE
  5
4C
102
{ACAD_REACTORS
330
42
102
}
330
42
100
AcDbScale
 70
     0
300
3/8" = 1'-0"
140
0.375
141
12.0
290
     0
  0
SCALE
  5
4D
102
{ACAD_REACTORS
330
42
102
}
330
42
100
AcDbScale
 70
     0
300
1/2" = 1'-0"
140
0.5
141
12.0
290
     0
  0
SCALE
  5
4E
102
{ACAD_REACTORS
330
42
102
}
330
42
100
AcDbScale
 70
     0
300
3/4" = 1'-0"
140
0.75
141
12.0
290
     0
  0
SCALE
  5
4F
102
{ACAD_REACTORS
330
42
102
}
330
42
100
AcDbScale
 70
     0
300
1" = 1'-0"
140
1.0
141
12.0
290
     0
  0
SCALE
  5
50
102
{ACAD_REACTORS
330
42
102
}
330
42
100
AcDbScale
 70
     0
300
1-1/2" = 1'-0"
140
1.5
141
12.0
290
     0
  0
SCALE
  5
51
102
{ACAD_REACTORS
330
42
102
}
330
42
100
AcDbScale
 70
     0
300
3" = 1'-0"
140
3.0
141
12.0
290
     0
  0
SCALE
  5
52
102
{ACAD_REACTORS
330
42
102
}
330
42
100
AcDbScale
 70
     0
300
6" = 1'-0"
140
6.0
141
12.0
290
     0
  0
SCALE
  5
53
102
{ACAD_REACTORS
330
42
102
}
330
42
100
AcDbScale
 70
     0
300
1'-0" = 1'-0"
140
12.0
141
12.0
290
     0
  0
TABLESTYLE
  5
65
102
{ACAD_XDICTIONARY
360
449
102
}
102
{ACAD_REACTORS
330
64
102
}
330
64
100
AcDbTableStyle
  3
Standard
 70
     0
 71
     0
 40
0.06
 41
0.06
280
     0
281
     0
  7
Standard
140
0.18
170
     2
 62
     0
 63
     7
283
     0
274
    -2
284
     1
 64
     0
275
    -2
285
     1
 65
     0
276
    -2
286
     1
 66
     0
277
    -2
287
     1
 67
     0
278
    -2
288
     1
 68
     0
279
    -2
289
     1
 69
     0
  7
Standard
140
0.25
170
     5
 62
     0
 63
     7
283
     0
274
    -2
284
     1
 64
     0
275
    -2
285
     1
 65
     0
276
    -2
286
     1
 66
     0
277
    -2
287
     1
 67
     0
278
    -2
288
     1
 68
     0
279
    -2
289
     1
 69
     0
  7
Standard
140
0.18
170
     5
 62
     0
 63
     7
283
     0
274
    -2
284
     1
 64
     0
275
    -2
285
     1
 65
     0
276
    -2
286
     1
 66
     0
277
    -2
287
     1
 67
     0
278
    -2
288
     1
 68
     0
279
    -2
289
     1
 69
     0
  0
VISUALSTYLE
  5
2F
102
{ACAD_XDICTIONARY
360
1A7F
102
}
102
{ACAD_REACTORS
330
29
102
}
330
29
100
AcDbVisualStyle
  2
2dWireframe
 70
     4
 71
     0
 72
     2
 73
     0
 90
        0
 40
-0.6
 41
-30.0
 62
     5
 63
     7
 74
     1
 91
        4
 64
     7
 65
   257
 75
     1
175
     1
 42
1.0
 92
        0
 66
   257
 43
1.0
 76
     1
 77
     6
 78
     2
 67
     7
 79
     5
170
     0
171
     0
290
     0
174
     0
 93
        1
 44
0.0
173
     0
291
     0
 45
0.0
1001
ACAD
1000
AcDbSavedByObjectVersion
1070
     0
  0
VISUALSTYLE
  5
2E
102
{ACAD_XDICTIONARY
360
1A7D
102
}
102
{ACAD_REACTORS
330
29
102
}
330
29
100
AcDbVisualStyle
  2
Basic
 70
     7
 71
     1
 72
     0
 73
     1
 90
        0
 40
-0.6
 41
-30.0
 62
     5
 63
     7
 74
     0
 91
        4
 64
     7
 65
   257
 75
     1
175
     1
 42
1.0
 92
        8
 66
     7
 43
1.0
 76
     1
 77
     6
 78
     2
 67
     7
 79
     5
170
     0
171
     0
290
     0
174
     0
 93
        1
 44
0.0
173
     0
291
     1
 45
0.0
1001
ACAD
1000
AcDbSavedByObjectVersion
1070
     0
  0
VISUALSTYLE
  5
35
102
{ACAD_XDICTIONARY
360
1A8B
102
}
102
{ACAD_REACTORS
330
29
102
}
330
29
100
AcDbVisualStyle
  2
Brighten
 70
    12
 71
     2
 72
     2
 73
     0
 90
        0
 40
-0.6
 41
-30.0
 62
     5
 63
     7
 74
     1
 91
        4
 64
     7
 65
   257
 75
     1
175
     1
 42
1.0
 92
        8
 66
     7
 43
1.0
 76
     1
 77
     6
 78
     2
 67
     7
 79
     5
170
     0
171
     0
290
     0
174
     0
 93
        1
 44
50.0
173
     0
291
     1
 45
0.0
1001
ACAD
1000
AcDbSavedByObjectVersion
1070
     0
  0
VISUALSTYLE
  5
39
102
{ACAD_XDICTIONARY
360
1A93
102
}
102
{ACAD_REACTORS
330
29
102
}
330
29
100
AcDbVisualStyle
  2
ColorChange
 70
    16
 71
     2
 72
     2
 73
     3
 90
        0
 40
-0.6
 41
-30.0
 62
     5
 63
     8
 74
     1
 91
        4
 64
     7
 65
   257
 75
     1
175
     1
 42
1.0
 92
        8
 66
     8
 43
1.0
 76
     1
 77
     6
 78
     2
 67
     7
 79
     5
170
     0
171
     0
290
     0
174
     0
 93
        1
 44
0.0
173
     0
291
     1
 45
0.0
1001
ACAD
1000
AcDbSavedByObjectVersion
1070
     0
  0
VISUALSTYLE
  5
32
102
{ACAD_XDICTIONARY
360
1A85
102
}
102
{ACAD_REACTORS
330
29
102
}
330
29
100
AcDbVisualStyle
  2
Conceptual
 70
     9
 71
     3
 72
     2
 73
     0
 90
        0
 40
-0.6
 41
-30.0
 62
     5
 63
     7
 74
     2
 91
        2
 64
     7
 65
   257
 75
     1
175
     1
 42
179.0
 92
        8
 66
     7
 43
1.0
 76
     1
 77
     6
 78
     2
 67
     7
 79
     3
170
     0
171
     0
290
     0
174
     0
 93
        1
 44
0.0
173
     0
291
     0
 45
0.0
1001
ACAD
1000
AcDbSavedByObjectVersion
1070
     0
  0
VISUALSTYLE
  5
34
102
{ACAD_XDICTIONARY
360
1A89
102
}
102
{ACAD_REACTORS
330
29
102
}
330
29
100
AcDbVisualStyle
  2
Dim
 70
    11
 71
     2
 72
     2
 73
     0
 90
        0
 40
-0.6
 41
-30.0
 62
     5
 63
     7
 74
     1
 91
        4
 64
     7
 65
   257
 75
     1
175
     1
 42
1.0
 92
        8
 66
     7
 43
1.0
 76
     1
 77
     6
 78
     2
 67
     7
 79
     5
170
     0
171
     0
290
     0
174
     0
 93
        1
 44
-50.0
173
     0
291
     1
 45
0.0
1001
ACAD
1000
AcDbSavedByObjectVersion
1070
     0
  0
VISUALSTYLE
  5
41
102
{ACAD_XDICTIONARY
360
1AA3
102
}
102
{ACAD_REACTORS
330
29
102
}
330
29
100
AcDbVisualStyle
  2
EdgeColorOff
 70
    22
 71
     2
 72
     2
 73
     0
 90
        0
 40
-0.6
 41
-30.0
 62
     5
 63
     7
 74
     1
 91
        4
 64
     7
 65
   257
 75
     1
175
     1
 42
1.0
 92
        8
 66
     7
 43
1.0
 76
     1
 77
     6
 78
     2
 67
     7
 79
     5
170
     0
171
     0
290
     0
174
     0
 93
        1
 44
0.0
173
     0
291
     1
 45
0.0
1001
ACAD
1000
AcDbSavedByObjectVersion
1070
     0
  0
VISUALSTYLE
  5
38
102
{ACAD_XDICTIONARY
360
1A91
102
}
102
{ACAD_REACTORS
330
29
102
}
330
29
100
AcDbVisualStyle
  2
Facepattern
 70
    15
 71
     2
 72
     2
 73
     0
 90
        0
 40
-0.6
 41
-30.0
 62
     5
 63
     7
 74
     1
 91
        4
 64
     7
 65
   257
 75
     1
175
     1
 42
1.0
 92
        8
 66
     7
 43
1.0
 76
     1
 77
     6
 78
     2
 67
     7
 79
     5
170
     0
171
     0
290
     0
174
     0
 93
        1
 44
0.0
173
     0
291
     1
 45
0.0
1001
ACAD
1000
AcDbSavedByObjectVersion
1070
     0
  0
VISUALSTYLE
  5
2A
102
{ACAD_XDICTIONARY
360
1A75
102
}
102
{ACAD_REACTORS
330
29
102
}
330
29
100
AcDbVisualStyle
  2
Flat
 70
     0
 71
     2
 72
     1
 73
     1
 90
        2
 40
-0.6
 41
30.0
 62
     5
 63
     7
 74
     0
 91
        0
 64
     7
 65
   257
 75
     1
175
     1
 42
1.0
 92
        8
 66
     7
 43
1.0
 76
     1
 77
     6
 78
     2
 67
     7
 79
     5
170
     0
171
     0
290
     0
174
     0
 93
       13
 44
0.0
173
     0
291
     1
 45
0.0
1001
ACAD
1000
AcDbSavedByObjectVersion
1070
     0
  0
VISUALSTYLE
  5
2B
102
{ACAD_XDICTIONARY
360
1A77
102
}
102
{ACAD_REACTORS
330
29
102
}
330
29
100
AcDbVisualStyle
  2
FlatWithEdges
 70
     1
 71
     2
 72
     1
 73
     1
 90
        2
 40
-0.6
 41
30.0
 62
     5
 63
     7
 74
     1
 91
        0
 64
     7
 65
   257
 75
     1
175
     1
 42
1.0
 92
        0
 66
   257
 43
1.0
 76
     1
 77
     6
 78
     2
 67
     7
 79
     5
170
     0
171
     0
290
     0
174
     0
 93
       13
 44
0.0
173
     0
291
     1
 45
0.0
1001
ACAD
1000
AcDbSavedByObjectVersion
1070
     0
  0
VISUALSTYLE
  5
2C
102
{ACAD_XDICTIONARY
360
1A79
102
}
102
{ACAD_REACTORS
330
29
102
}
330
29
100
AcDbVisualStyle
  2
Gouraud
 70
     2
 71
     2
 72
     2
 73
     1
 90
        2
 40
-0.6
 41
30.0
 62
     5
 63
     7
 74
     0
 91
        0
 64
     7
 65
   257
 75
     1
175
     1
 42
1.0
 92
        0
 66
     7
 43
1.0
 76
     1
 77
     6
 78
     2
 67
     7
 79
     5
170
     0
171
     0
290
     0
174
     0
 93
       13
 44
0.0
173
     0
291
     1
 45
0.0
1001
ACAD
1000
AcDbSavedByObjectVersion
1070
     0
  0
VISUALSTYLE
  5
2D
102
{ACAD_XDICTIONARY
360
1A7B
102
}
102
{ACAD_REACTORS
330
29
102
}
330
29
100
AcDbVisualStyle
  2
GouraudWithEdges
 70
     3
 71
     2
 72
     2
 73
     1
 90
        2
 40
-0.6
 41
30.0
 62
     5
 63
     7
 74
     1
 91
        0
 64
     7
 65
   257
 75
     1
175
     1
 42
1.0
 92
        0
 66
   257
 43
1.0
 76
     1
 77
     6
 78
     2
 67
     7
 79
     5
170
     0
171
     0
290
     0
174
     0
 93
       13
 44
0.0
173
     0
291
     1
 45
0.0
1001
ACAD
1000
AcDbSavedByObjectVersion
1070
     0
  0
VISUALSTYLE
  5
31
102
{ACAD_XDICTIONARY
360
1A83
102
}
102
{ACAD_REACTORS
330
29
102
}
330
29
100
AcDbVisualStyle
  2
Hidden
 70
     6
 71
     1
 72
     2
 73
     2
 90
        0
 40
-0.6
 41
-30.0
 62
     5
 63
     7
 74
     2
 91
        2
 64
     7
 65
   257
 75
     2
175
     1
 42
40.0
 92
        0
 66
   257
 43
1.0
 76
     1
 77
     6
 78
     2
 67
     7
 79
     3
170
     0
171
     0
290
     0
174
     0
 93
        1
 44
0.0
173
     0
291
     0
 45
0.0
1001
ACAD
1000
AcDbSavedByObjectVersion
1070
     0
  0
VISUALSTYLE
  5
3F
102
{ACAD_XDICTIONARY
360
1A9F
102
}
102
{ACAD_REACTORS
330
29
102
}
330
29
100
AcDbVisualStyle
  2
JitterOff
 70
    20
 71
     2
 72
     2
 73
     0
 90
        0
 40
-0.6
 41
-30.0
 62
     5
 63
     7
 74
     1
 91
        4
 64
     7
 65
   257
 75
     1
175
     1
 42
1.0
 92
       10
 66
     7
 43
1.0
 76
     1
 77
     6
 78
     2
 67
     7
 79
     5
170
     0
171
     0
290
     0
174
     0
 93
        1
 44
0.0
173
     0
291
     1
 45
0.0
1001
ACAD
1000
AcDbSavedByObjectVersion
1070
     0
  0
VISUALSTYLE
  5
37
102
{ACAD_XDICTIONARY
360
1A8F
102
}
102
{ACAD_REACTORS
330
29
102
}
330
29
100
AcDbVisualStyle
  2
Linepattern
 70
    14
 71
     2
 72
     2
 73
     0
 90
        0
 40
-0.6
 41
-30.0
 62
     5
 63
     7
 74
     1
 91
        4
 64
     7
 65
   257
 75
     7
175
     7
 42
1.0
 92
        8
 66
     7
 43
1.0
 76
     1
 77
     6
 78
     2
 67
     7
 79
     5
170
     0
171
     0
290
     0
174
     0
 93
        1
 44
0.0
173
     0
291
     1
 45
0.0
1001
ACAD
1000
AcDbSavedByObjectVersion
1070
     0
  0
VISUALSTYLE
  5
40
102
{ACAD_XDICTIONARY
360
1AA1
102
}
102
{ACAD_REACTORS
330
29
102
}
330
29
100
AcDbVisualStyle
  2
OverhangOff
 70
    21
 71
     2
 72
     2
 73
     0
 90
        0
 40
-0.6
 41
-30.0
 62
     5
 63
     7
 74
     1
 91
        4
 64
     7
 65
   257
 75
     1
175
     1
 42
1.0
 92
        9
 66
     7
 43
1.0
 76
     1
 77
     6
 78
     2
 67
     7
 79
     5
170
     0
171
     0
290
     0
174
     0
 93
        1
 44
0.0
173
     0
291
     1
 45
0.0
1001
ACAD
1000
AcDbSavedByObjectVersion
1070
     0
  0
VISUALSTYLE
  5
33
102
{ACAD_XDICTIONARY
360
1A87
102
}
102
{ACAD_REACTORS
330
29
102
}
330
29
100
AcDbVisualStyle
  2
Realistic
 70
     8
 71
     2
 72
     2
 73
     0
 90
        2
 40
-0.6
 41
30.0
 62
     5
 63
     7
 74
     0
 91
        0
 64
     7
 65
   257
 75
     1
175
     1
 42
1.0
 92
        8
 66
   257
 43
1.0
 76
     1
 77
     6
 78
     2
 67
     7
 79
     3
170
     0
171
     0
290
     0
174
     0
 93
       13
 44
0.0
173
     0
291
     0
 45
0.0
1001
ACAD
1000
AcDbSavedByObjectVersion
1070
     0
  0
VISUALSTYLE
  5
3E
102
{ACAD_XDICTIONARY
360
1A9D
102
}
102
{ACAD_REACTORS
330
29
102
}
330
29
100
AcDbVisualStyle
  2
Shaded
 70
    27
 71
     2
 72
     2
 73
     1
 90
        2
 40
-0.6
 41
30.0
 62
     5
 63
     7
 74
     0
 91
        4
 64
     7
 65
   257
 75
     1
175
     1
 42
1.0
 92
        8
 66
   257
 43
1.0
 76
     1
 77
     6
 78
     2
 67
     8
 79
     3
170
     0
171
     0
290
     0
174
     0
 93
        5
 44
0.0
173
     0
291
     0
 45
0.0
1001
ACAD
1000
AcDbSavedByObjectVersion
1070
     0
  0
VISUALSTYLE
  5
3D
102
{ACAD_XDICTIONARY
360
1A9B
102
}
102
{ACAD_REACTORS
330
29
102
}
330
29
100
AcDbVisualStyle
  2
Shaded with edges
 70
    26
 71
     2
 72
     2
 73
     1
 90
        2
 40
-0.6
 41
30.0
 62
     5
 63
     7
 74
     1
 91
       10
 64
     7
 65
   257
 75
     2
175
     1
 42
1.0
 92
        8
 66
   257
 43
1.0
 76
     1
 77
     6
 78
     2
 67
     7
 79
     3
170
     0
171
     0
290
     0
174
     0
 93
        5
 44
0.0
173
     0
291
     0
 45
0.0
1001
ACAD
1000
AcDbSavedByObjectVersion
1070
     0
  0
VISUALSTYLE
  5
3A
102
{ACAD_XDICTIONARY
360
1A95
102
}
102
{ACAD_REACTORS
330
29
102
}
330
29
100
AcDbVisualStyle
  2
Shades of Gray
 70
    23
 71
     2
 72
     2
 73
     3
 90
        0
 40
-0.6
 41
-30.0
 62
     5
 63
     7
 74
     2
 91
        2
 64
     7
 65
     7
 75
     1
175
     1
 42
40.0
 92
        8
 66
     7
 43
1.0
 76
     1
 77
     6
 78
     2
 67
     7
 79
     3
170
     0
171
     0
290
     0
174
     0
 93
        1
 44
0.0
173
     0
291
     0
 45
0.0
1001
ACAD
1000
AcDbSavedByObjectVersion
1070
     0
  0
VISUALSTYLE
  5
3B
102
{ACAD_XDICTIONARY
360
1A97
102
}
102
{ACAD_REACTORS
330
29
102
}
330
29
100
AcDbVisualStyle
  2
Sketchy
 70
    24
 71
     1
 72
     2
 73
     2
 90
        0
 40
-0.6
 41
-30.0
 62
     5
 63
     7
 74
     2
 91
        2
 64
     7
 65
     7
 75
     1
175
     1
 42
40.0
 92
       11
 66
     7
 43
1.0
 76
     1
 77
     6
 78
     2
 67
     7
 79
     6
170
     0
171
     0
290
     0
174
     0
 93
        1
 44
0.0
173
     0
291
     0
 45
0.0
1001
ACAD
1000
AcDbSavedByObjectVersion
1070
     0
  0
VISUALSTYLE
  5
36
102
{ACAD_XDICTIONARY
360
1A8D
102
}
102
{ACAD_REACTORS
330
29
102
}
330
29
100
AcDbVisualStyle
  2
Thicken
 70
    13
 71
     2
 72
     2
 73
     0
 90
        0
 40
-0.6
 41
-30.0
 62
     5
 63
     7
 74
     1
 91
        4
 64
     7
 65
   257
 75
     1
175
     1
 42
1.0
 92
       12
 66
     7
 43
1.0
 76
     1
 77
     6
 78
     2
 67
     7
 79
     5
170
     0
171
     0
290
     0
174
     0
 93
        1
 44
0.0
173
     0
291
     1
 45
0.0
1001
ACAD
1000
AcDbSavedByObjectVersion
1070
     0
  0
VISUALSTYLE
  5
30
102
{ACAD_XDICTIONARY
360
1A81
102
}
102
{ACAD_REACTORS
330
29
102
}
330
29
100
AcDbVisualStyle
  2
Wireframe
 70
     5
 71
     0
 72
     2
 73
     0
 90
        0
 40
-0.6
 41
-30.0
 62
     5
 63
     7
 74
     1
 91
        4
 64
     7
 65
   257
 75
     1
175
     1
 42
1.0
 92
        0
 66
   257
 43
1.0
 76
     1
 77
     6
 78
     2
 67
     7
 79
     3
170
     0
171
     0
290
     0
174
     0
 93
        1
 44
0.0
173
     0
291
     0
 45
0.0
1001
ACAD
1000
AcDbSavedByObjectVersion
1070
     0
  0
VISUALSTYLE
  5
3C
102
{ACAD_XDICTIONARY
360
1A99
102
}
102
{ACAD_REACTORS
330
29
102
}
330
29
100
AcDbVisualStyle
  2
X-Ray
 70
    25
 71
     2
 72
     2
 73
     1
 90
        1
 40
0.5
 41
-30.0
 62
     5
 63
     7
 74
     1
 91
        0
 64
     7
 65
   257
 75
     1
175
     1
 42
1.0
 92
        8
 66
     7
 43
1.0
 76
     1
 77
     6
 78
     2
 67
     7
 79
     3
170
     0
171
     0
290
     0
174
     0
 93
       13
 44
0.0
173
     0
291
     0
 45
0.0
1001
ACAD
1000
AcDbSavedByObjectVersion
1070
     0
  0
DICTIONARYVAR
  5
496
102
{ACAD_REACTORS
330
492
102
}
330
492
100
DictionaryVariables
280
     0
  1
1:1
  0
DICTIONARYVAR
  5
494
102
{ACAD_REACTORS
330
492
102
}
330
492
100
DictionaryVariables
280
     0
  1
STANDARD
  0
DICTIONARYVAR
  5
493
102
{ACAD_REACTORS
330
492
102
}
330
492
100
DictionaryVariables
280
     0
  1
STANDARD
  0
DICTIONARYVAR
  5
49D
102
{ACAD_REACTORS
330
492
102
}
330
492
100
DictionaryVariables
280
     0
  1
2
  0
DICTIONARYVAR
  5
49C
102
{ACAD_REACTORS
330
492
102
}
330
492
100
DictionaryVariables
280
     0
  1
1
  0
DICTIONARYVAR
  5
49B
102
{ACAD_REACTORS
330
492
102
}
330
492
100
DictionaryVariables
280
     0
  1
0
  0
DICTIONARYVAR
  5
1A65
102
{ACAD_REACTORS
330
492
102
}
330
492
100
DictionaryVariables
280
     0
  1
0.000000
  0
DICTIONARYVAR
  5
498
102
{ACAD_REACTORS
330
492
102
}
330
492
100
DictionaryVariables
280
     0
  1
0
  0
DICTIONARYVAR
  5
499
102
{ACAD_REACTORS
330
492
102
}
330
492
100
DictionaryVariables
280
     0
  1
0
  0
DICTIONARYVAR
  5
497
102
{ACAD_REACTORS
330
492
102
}
330
492
100
DictionaryVariables
280
     0
  1
2
  0
DICTIONARYVAR
  5
1A66
102
{ACAD_REACTORS
330
492
102
}
330
492
100
DictionaryVariables
280
     0
  1
0.000000
  0
DICTIONARYVAR
  5
495
102
{ACAD_REACTORS
330
492
102
}
330
492
100
DictionaryVariables
280
     0
  1
1
  0
DICTIONARYVAR
  5
49A
102
{ACAD_REACTORS
330
492
102
}
330
492
100
DictionaryVariables
280
     0
  1
127
  0
DICTIONARYVAR
  5
1A67
102
{ACAD_REACTORS
330
492
102
}
330
492
100
DictionaryVariables
280
     0
  1
0
  0
DICTIONARYVAR
  5
1A68
102
{ACAD_REACTORS
330
492
102
}
330
492
100
DictionaryVariables
280
     0
  1
2
  0
XRECORD
  5
445
102
{ACAD_REACTORS
330
441
102
}
330
441
100
AcDbXrecord
280
     1
  1
BUILDING_ID
  1
D78
  1
FLOOR_ID
  1
249342
  0
XRECORD
  5
443
102
{ACAD_REACTORS
330
441
102
}
330
441
100
AcDbXrecord
280
     1
  1
-2000151
  1
Generic Models
  1
-2000196
  1
Imports in Families
  1
-2000300
  1
Text Notes
  1
-2001320
  1
Structural Framing
  0
XRECORD
  5
444
102
{ACAD_REACTORS
330
441
102
}
330
441
100
AcDbXrecord
280
     1
  1
249093
  1
0
  1
249105
  1
BCS2-24, 10d, detail D78
  0
XRECORD
  5
442
102
{ACAD_REACTORS
330
441
102
}
330
441
100
AcDbXrecord
280
     1
  1
248184
  1
d78 : d78
  1
249148
  1
BCS2-24 : BCS2-24
  1
249351
  1
Text : 3/32"
  1
249355
  1
Text : 1/16"
  1
249375
  1
Text : 1/16" Italic
  0
DICTIONARY
  5
4B1
330
6B
100
AcDbDictionary
280
     1
281
     1
  3
ACAD_XREC_ROUNDTRIP
360
1AA6
  3
ADSK_XREC_LAYOUTTHUMBNAIL
360
4B2
  0
DICTIONARY
  5
1AA9
330
73
100
AcDbDictionary
280
     1
281
     1
  3
ACAD_XREC_ROUNDTRIP
360
1AAA
  0
DICTIONARY
  5
1AA7
330
6F
100
AcDbDictionary
280
     1
281
     1
  3
ACAD_XREC_ROUNDTRIP
360
1AA8
  0
DICTIONARY
  5
1A
330
19
100
AcDbDictionary
280
     1
281
     1
  3
ACAD_XREC_ROUNDTRIP
360
1A73
  3
BUMPTILE
360
1C
  3
DIFFUSETILE
360
1B
  3
OPACITYTILE
360
1F
  3
REFLECTIONTILE
360
1E
  3
REFRACTIONTILE
360
20
  3
SPECULARTILE
360
1D
  0
DICTIONARY
  5
12
330
11
100
AcDbDictionary
280
     1
281
     1
  3
ACAD_XREC_ROUNDTRIP
360
1A72
  3
BUMPTILE
360
14
  3
DIFFUSETILE
360
13
  3
OPACITYTILE
360
17
  3
REFLECTIONTILE
360
16
  3
REFRACTIONTILE
360
18
  3
SPECULARTILE
360
15
  0
DICTIONARY
  5
22
330
21
100
AcDbDictionary
280
     1
281
     1
  3
ACAD_XREC_ROUNDTRIP
360
1A74
  3
BUMPTILE
360
24
  3
DIFFUSETILE
360
23
  3
OPACITYTILE
360
27
  3
REFLECTIONTILE
360
26
  3
REFRACTIONTILE
360
28
  3
SPECULARTILE
360
25
  0
DICTIONARY
  5
1A6A
330
67
100
AcDbDictionary
280
     1
281
     1
  3
ACAD_XREC_ROUNDTRIP
360
1A6B
  0
DICTIONARY
  5
449
330
65
100
AcDbDictionary
280
     1
281
     1
  3
ACAD_ROUNDTRIP_2008_TABLESTYLE_CELLSTYLEMAP
360
1A69
  3
ACAD_XREC_ROUNDTRIP
360
1AA5
  0
DICTIONARY
  5
1A7F
330
2F
100
AcDbDictionary
280
     1
281
     1
  3
ACAD_XREC_ROUNDTRIP
360
1A80
  0
DICTIONARY
  5
1A7D
330
2E
100
AcDbDictionary
280
     1
281
     1
  3
ACAD_XREC_ROUNDTRIP
360
1A7E
  0
DICTIONARY
  5
1A8B
330
35
100
AcDbDictionary
280
     1
281
     1
  3
ACAD_XREC_ROUNDTRIP
360
1A8C
  0
DICTIONARY
  5
1A93
330
39
100
AcDbDictionary
280
     1
281
     1
  3
ACAD_XREC_ROUNDTRIP
360
1A94
  0
DICTIONARY
  5
1A85
330
32
100
AcDbDictionary
280
     1
281
     1
  3
ACAD_XREC_ROUNDTRIP
360
1A86
  0
DICTIONARY
  5
1A89
330
34
100
AcDbDictionary
280
     1
281
     1
  3
ACAD_XREC_ROUNDTRIP
360
1A8A
  0
DICTIONARY
  5
1AA3
330
41
100
AcDbDictionary
280
     1
281
     1
  3
ACAD_XREC_ROUNDTRIP
360
1AA4
  0
DICTIONARY
  5
1A91
330
38
100
AcDbDictionary
280
     1
281
     1
  3
ACAD_XREC_ROUNDTRIP
360
1A92
  0
DICTIONARY
  5
1A75
330
2A
100
AcDbDictionary
280
     1
281
     1
  3
ACAD_XREC_ROUNDTRIP
360
1A76
  0
DICTIONARY
  5
1A77
330
2B
100
AcDbDictionary
280
     1
281
     1
  3
ACAD_XREC_ROUNDTRIP
360
1A78
  0
DICTIONARY
  5
1A79
330
2C
100
AcDbDictionary
280
     1
281
     1
  3
ACAD_XREC_ROUNDTRIP
360
1A7A
  0
DICTIONARY
  5
1A7B
330
2D
100
AcDbDictionary
280
     1
281
     1
  3
ACAD_XREC_ROUNDTRIP
360
1A7C
  0
DICTIONARY
  5
1A83
330
31
100
AcDbDictionary
280
     1
281
     1
  3
ACAD_XREC_ROUNDTRIP
360
1A84
  0
DICTIONARY
  5
1A9F
330
3F
100
AcDbDictionary
280
     1
281
     1
  3
ACAD_XREC_ROUNDTRIP
360
1AA0
  0
DICTIONARY
  5
1A8F
330
37
100
AcDbDictionary
280
     1
281
     1
  3
ACAD_XREC_ROUNDTRIP
360
1A90
  0
DICTIONARY
  5
1AA1
330
40
100
AcDbDictionary
280
     1
281
     1
  3
ACAD_XREC_ROUNDTRIP
360
1AA2
  0
DICTIONARY
  5
1A87
330
33
100
AcDbDictionary
280
     1
281
     1
  3
ACAD_XREC_ROUNDTRIP
360
1A88
  0
DICTIONARY
  5
1A9D
330
3E
100
AcDbDictionary
280
     1
281
     1
  3
ACAD_XREC_ROUNDTRIP
360
1A9E
  0
DICTIONARY
  5
1A9B
330
3D
100
AcDbDictionary
280
     1
281
     1
  3
ACAD_XREC_ROUNDTRIP
360
1A9C
  0
DICTIONARY
  5
1A95
330
3A
100
AcDbDictionary
280
     1
281
     1
  3
ACAD_XREC_ROUNDTRIP
360
1A96
  0
DICTIONARY
  5
1A97
330
3B
100
AcDbDictionary
280
     1
281
     1
  3
ACAD_XREC_ROUNDTRIP
360
1A98
  0
DICTIONARY
  5
1A8D
330
36
100
AcDbDictionary
280
     1
281
     1
  3
ACAD_XREC_ROUNDTRIP
360
1A8E
  0
DICTIONARY
  5
1A81
330
30
100
AcDbDictionary
280
     1
281
     1
  3
ACAD_XREC_ROUNDTRIP
360
1A82
  0
DICTIONARY
  5
1A99
330
3C
100
AcDbDictionary
280
     1
281
     1
  3
ACAD_XREC_ROUNDTRIP
360
1A9A
  0
XRECORD
  5
1AA6
102
{ACAD_REACTORS
330
4B1
102
}
330
4B1
100
AcDbXrecord
280
     1
102
SHADEPLOT
 70
     0
102
SHADEPLOTRESLEVEL
 70
     2
102
SHADEPLOTCUSTOMDPI
 70
   300
  0
XRECORD
  5
4B2
102
{ACAD_REACTORS
330
4B1
102
}
330
4B1
100
AcDbXrecord
280
     1
310
28000000B40000007F00000001000800000000004C59000000000000000000000001000000000000FFFFFF0000000000FFFFFF000000000000000000000000000000000000000000000000000000000000000000330000006600000099000000CC000000FF00000000330000333300006633000099330000CC330000FF3300
310
0000660000336600006666000099660000CC660000FF66000000990000339900006699000099990000CC990000FF99000000CC000033CC000066CC000099CC0000CCCC0000FFCC000000FF000033FF000066FF000099FF0000CCFF0000FFFF000000003300330033006600330099003300CC003300FF003300003333003333
310
33006633330099333300CC333300FF33330000663300336633006666330099663300CC663300FF66330000993300339933006699330099993300CC993300FF99330000CC330033CC330066CC330099CC3300CCCC3300FFCC330000FF330033FF330066FF330099FF3300CCFF3300FFFF330000006600330066006600660099
310
006600CC006600FF00660000336600333366006633660099336600CC336600FF33660000666600336666006666660099666600CC666600FF66660000996600339966006699660099996600CC996600FF99660000CC660033CC660066CC660099CC6600CCCC6600FFCC660000FF660033FF660066FF660099FF6600CCFF6600
310
FFFF660000009900330099006600990099009900CC009900FF00990000339900333399006633990099339900CC339900FF33990000669900336699006666990099669900CC669900FF66990000999900339999006699990099999900CC999900FF99990000CC990033CC990066CC990099CC9900CCCC9900FFCC990000FF99
310
0033FF990066FF990099FF9900CCFF9900FFFF99000000CC003300CC006600CC009900CC00CC00CC00FF00CC000033CC003333CC006633CC009933CC00CC33CC00FF33CC000066CC003366CC006666CC009966CC00CC66CC00FF66CC000099CC003399CC006699CC009999CC00CC99CC00FF99CC0000CCCC0033CCCC0066CC
310
CC0099CCCC00CCCCCC00FFCCCC0000FFCC0033FFCC0066FFCC0099FFCC00CCFFCC00FFFFCC000000FF003300FF006600FF009900FF00CC00FF00FF00FF000033FF003333FF006633FF009933FF00CC33FF00FF33FF000066FF003366FF006666FF009966FF00CC66FF00FF66FF000099FF003399FF006699FF009999FF00CC
310
99FF00FF99FF0000CCFF0033CCFF0066CCFF0099CCFF00CCCCFF00FFCCFF0000FFFF0033FFFF0066FFFF0099FFFF00CCFFFF00FFFFFF00000000000D0D0D001A1A1A00282828003535350043434300505050005D5D5D006B6B6B00787878008686860093939300A1A1A100AEAEAE00BBBBBB00C9C9C900D6D6D600E4E4E400
310
F1F1F100FFFFFF0000000000000000000000000000000000000000000000000000000000000000000000000000000000E2E2E2E2E2E2E2E2E2E2E2E2E2E2E2E2E2E2E2E2E2E2E2E2E2E2E2E2E2E2E2E2E2E2E2E2E2E2E2E2E2E2E2E2E2E2E2E2E2E2E2E2E2E2E2E2E2E2E2E2E2E2E2E2E2E2E2E2E2E2E2E2E2E2E2E2E2E2E2
310
E2E2E2E2E2E2E2E2E2E2E2E2E2E2E2E2E2E2E2E2E2E2E2E2E2E2E2E2E2E2E2E2E2E2E2E2E2E2E2E2E2E2E2E2E2E2E2E2E2E2E2E2E2E2E2E2E2E2E2E2E2E2E2E2E2E2E2E2E2E2E2E2E2E2E2E2E2E2E2E2E2E2E2E2E2E2E2E2E2E2E2E2E2E2E2E2E2E2E2E2E2E200000000000000000000000000000000000000000000000000
310
00000000000000000000000000000000000000000000000000000000000000000000000000000000000000000000000000000000000000000000000000000000000000000000000000000000000000000000000000000000000000000000000000000000000000000000000000000000000000000000000000000000000000
310
0000000000000000000000000000000000000000000000000000E2E2000000000000000000000000000000000000000000000000000000000000000000000000000000000000000000000000000000000000000000000000000000000000000000000000000000000000000000000000000000000000000000000000000000
310
00000000000000000000000000000000000000000000000000000000000000000000000000000000000000000000000000000000000000000000000000000000000000000000000000000000000000E2E200000000000000000000000000000000000000000000000000000000000000000000000000000000000000000000
310
00000000000000000000000000000000000000000000000000000000000000000000000000000000000000000000000000000000000000000000000000000000000000000000000000000000000000000000000000000000000000000000000000000000000000000000000000000000000000000000000000000000000000
310
0000000000E2E200000F0F0F0F0F0F0F0F0F0F0F0F0F0F0F0F0F0F0F0F0F0F0F0F0F0F0F0F0F0F0F0F0F0F0F0F0F0F0F0F0F0F0F0F0F0F0F0F0F0F0F0F0F0F0F0F0F0F0F0F0F0F0F0F0F0F0F0F0F0F0F0F0F0F0F0F0F0F0F0F0F0F0F0F0F0F0F0F0F0F0F0F0F0F0F0F0F0F0F0F0F0F0F0F0F0F0F0F0F0F0F00000000E2E2E2
310
E2E2E2E2E2E2E2E2E2E2E2E2E2000000000000000000E2E2E2E2E2E2E2E2E2E2E2E2E2E2E2E2000000000000000000E2E2E2E2E2E2E2E2000000E2E200000F00000000000000000000000000000000000000000000000000000000000000000000000000000000000000000000000000000000000000000000000000000000
310
0000000000000000000000000000000000000000000000000000000000000000000000000000000000000000000F00000000000000000000000000000000000000000000000000000000000000000000000000000000000000000000000000000000000000000000000000E2000000E2E200000F0000000000000000000000
310
00000000000000000000000000000000000000000000000000000000000000000000000000000000000000000000000000000000000000000000000000000000000000000000000000000000000000000000000000000000000000000000000000000F00000000000000000000000000000000000000000000000000000000
310
000000000000000000000000000000000000000000000000000000000000000000E2000000E2E200000F00000000000000000000000000000000000000000000000000000000000000000000000000000000000000000000000000000000000000000000000000000000000000000000000000000000000000000000000000
310
0000000000000000000000000000000000000000000000000F00000000000000000000000000000000000000000000000000000000000000000000000000000000000000000000000000000000000000000000000000E2000000E2E200000F0000000000000000000000000000000000000000000000000000000000000000
310
00000000000000000000000000000000000000000000000000000000000000000000000000000000000000000000000000000000000000000000000000000000000000000000000000000000000F00000000000000000000000000000000000000000000000000000000000000000000000000000000000000000000000000
310
000000000000000000000000E2000000E2E200000F00000000000000000000000000000000000000000000000000000000000000000000000000000000000000000000000000000000000000000000000000000000000000000000000000000000000000000000000000000000000000000000000000000000000000000000
310
0000000F00000000000000000000000000000000000000000000000000000000000000000000000000000000000000000000000000000000000000000000000000E2000000E2E200000F0000000000000000000000000000000000000000000000000000000000000000000000000000000000000000000000000000000000
310
00000000000000000000000000000000000000000000000000000000000000000000000000000000000000000000000000000000000000000F00000000000000000000000000000000000000000000000000000000000000000000000000000000000000000000000000000000000000000000000000E2000000E2E200000F
310
000000000000000000000000000000000000000000000000000000000000000000000000000000000000000000000000000000000000000000000000000000000000000000000000000000000000000000000000000000000000000000000000000000000000000000000000000F0000000000000000000000000000000000
310
0000000000000000000000000000000000000000000000000000000000000000000000000000000000000000E2000000E2E200000F0000000000000000000000000000000000000000000000000000000000000000000000000000000000000000000000000000000000000000000000000000000000000000000000000000
310
00000000000000000000000000000000000000000000000000000000000000000000000F0000000000000000000000000000000000000000000000000000000000000000000000000000000000000000000000000000000000000000000000000000000000E2E200000F000000000000000000000000000000000000000000
310
000000000000000000000000000000000000000000000000000000000000000000000000000000000000000000000000000000000000000000000000000000000000000000000000000000000000000000000000000000000F0000000000000000000000000000000000000000000000000000000000000000000000000000
310
000000000000000000000000000000000000000000000000000000E2E200000F0000000000000000000000000000000000000000000000000000000000000000000000000000000000000000000000000000000000000000000000000000000000000000000000000000000000000000000000000000000000000000000000
310
00000000000000000000000000000F0000000000000000000000000000000000000000000000000000000000000000000000000000000000000000000000000000000000000000000000000000000000E2E200000F000000000000000000000000000000000000000000000000000000000000000000000000000000000000
310
000000000000000000000000000000000000000000000000000000000000000000000000000000000000000000000000000000000000000000000000000000000000000F0000000000000000000000000000000000000000000000000000000000000000000000000000000000000000000000000000000000000000000000
310
000000000000E2E200000F000000000000000000000000000000000000000000000000000000000000000000000000000000000000000000000000000000000000000000000000000000000000000000000000000000000000000000000000000000000000000000000000000000000000000000000000000F000000000000
310
0000000000000000000000000000000000000000000000000000000000000000000000000000000000000000000000000000000000000000000000E2E200000F000000000000000000000000000000000000000000000000000000000000000000000000000000000000000000000000000000000000000000000000000000
310
000000000000000000000000000000000000000000000000000000000000000000000000000000000000000000000F0000000000000000000000000000000000000000000000000000000000000000000000000000000000000000000000000000000000000000000000000000000000E2E200000F00000000000000000000
310
0000000000000000000000000000000000000000000000000000000000000000000000000000000000000000000000000000000000000000000000000000000000000000000000000000000000000000000000000000000000000000000000000000000F000000000000000000000000000000000000000000000000000000
310
0000000000000000000000000000000000000000000000000000000000000000000000000000E2E200000F000000000000000000000000000000000000000000000000000000000000000000000000000000000000000000000000000000000000000000000000000000000000000000000000000000000000000000000000
310
000000000000000000000000000000000000000000000000000F0000000000000000000000000000000000000000000000000000000000000000000000000000000000000000000000000000000000000000000000000000000000E2E200000F00000000000000000000000000000000000000000000000000000000000000
310
0000000000000000000000000000000000000000000000000000000000000000000000000000000000000000000000000000000000000000000000000000000000000000000000000000000000000F000000000000000000000000000000000000000000000000000000000000000000000000000000000000000000000000
310
00000000000000000000000000E2000000E2E200000F000000000000000000000000000000000000000000000000000000000000000000000000000000000000000000000000000000000000000000000000000000000000000000000000000000000000000000000000000000000000000000000000000000000000000000
310
000000000F00000000000000000000000000000000000000000000000000000000000000000000000000000000000000000000000000000000000000000000000000E2000000E2E200000F00000000000000000000000000000000000000000000000000000000000000000000000000000000000000000000000000000000
310
0000000000000000000000000000000000000000000000000000000000000000000000000000000000000000000000000000000000000000000F00000000000000000000000000000000000000000000000000000000000000000000000000000000000000000000000000000000000000000000000000E2000000E2E20000
310
0F000000000000000000000000000000000000000000000000000000000000000000000000000000000000000000000000000000000000000000000000000000000000000000000000000000000000000000000000000000000000000000000000000000000000000000000000000F00000000000000000000000000000000
310
000000000000000000000000000000000000000000000000000000000000000000000000000000000000000000E2000000E2E200000F00000000000000000000000000000000000000000000000000000000000000000000000000000000000000000000000000000000000000000000000000000000000000000000000000
310
0000000000000000000000000000000000000000000000000000000000000000000000000000000000000000000000000000000000000000000000000000000000000000000000000000000000000000000000000000000000000000000000000000E2000000E2E200000F0000000000000000000000000000000000000000
310
00000000000000000000000000000000000000000000000000000000000000000000000000000000000000000000000000000000000000000000000000000000000000000000000000000000000000000000000000000000000000000000000000000000000000000000000000000000000000000000000000000000000000
310
000000000000000000000000000000000000000000000000E2000000E2E200000F00000000000000000000000000000000000000000000000000000000000000000000000000000000000000000000000000000000000000000000000000000000000000000000000000E20000000000000000000000000000000000000000
310
000000000000000000000000000000000000000000000000000000000000000000E200000000000000000000000000000000000000000000000000000000000000000000000000000000000000E2000000E2E200000F0000000000000000000000000000000000000000000000000000000000000000000000000000000000
310
00000000000000000000000000000000000000000000000000000000000000E200E2E2E2E2000000E2E200E2E2E2E200E2E2E2E20000E2E2E2E20000E2E2E2000000E2E2E2E2E200E200E200E200E2E200E2E2E200E2E200000000000000000000000000000000000000000000000000000000000000000000000000000000
310
000000E2000000E2E200000F000000000000000000000000000000000000000000000000000000000000000000000000000000000000000000000000000000000000000000000000000000000000000000000000E200E2000000E200E20000E2E20000E20000E200000000000000E2E200E20000E200000000E2E2E200E200
310
E200E200E2E200E200E200E200E2000000000000000000000000000000000000000000000000000000000000000000000000000000000000E2000000E2E200000F0000000000000000000000000000000000000000000000000000000000000000000000000000000000000000000000000000000000000000000000000000
310
00000000000000000000E200E2E2E2E20000E20000000000E200000000E200E2E20000E2E2E2E2E2E200E2000000E20000E200E2E200E200E2E2E20000E2E2E200E2E2000000000000000000000000000000000000000000000000000000000000000000000000000000000000E2000000E2E200000F000000000000000000
310
00000000000000000000000000000000000000000000000000000000000000000000000000000000000000000000000000000000000000000000000000000000E200E20000E200E20000E200E2000000E20000E2000000E200E200E2E200E2E2000000E2E2E200E200E2E200E20000E2E2E2E2E2E200E2E200000000000000
310
0000000000000000000000000000000000000000000000000000000000000000000000E2000000E2E200000F00000000000000000000000000000000000000000000000000000000000000000000000000000000000000000000000000000000000000000000000000000000000000000000000000E200E2E2E2E20000E2E2
310
0000E2E2E2E200E2E2E2000000E2E2E20000E2E2E2E200000000000000E200000000000000E2E20000000000E200000000000000000000000000000000000000000000000000000000000000000000000000000000000000E2000000E2E200000F000000000000000000000000000000000000000000000000000000000000
310
00000000000000000000000000000000000000000000000000000000000000000000000000000000000000000000000000000000000000000000000000000000000000000000000000000000000000000000000000000000000000000000000000000000000000000000000000000000000000000000000000000000000000
310
0000000000000000000000000000E2000000E2E200000F0000000000000000000000000000000000000000000000000000000000000000000000000000000000000000000000000000000000000000000000000000000000000000000000000000000000000000000000000000000000000000000000000000000000000000
310
00000000000000000000000000000000000000000000000000000000000000000000000000000000000000000000000000000000000000000000000000000000000000E2000000E2E200000F000000000000000000000000000000000000000000000000000000000000000000000000000000000000000000000000000000
310
000000000000000000000000000000000000000000000000000000000000000000000000000000000000000000000000000000000000000000000000000000000000000000000000000000000000000000000000000000000000000000000000000000000000000000000000000000000000000000000000E2000000E2E200
310
000F0000000000000000000000000000000000000000000000000000000000000000000000000000000000000000000000000000000000000000000000000000000000000000000000000000000000000000000000000000000000E2E2E2E200E2E2E2E20000E2E2E200E2E2E2000000E2E2E200E200000000E20000000000
310
0000000000000000000000000000000000000000000000000000000000000000000000000000000000000000000000000000E2E200000F000000000000000000000000000000000000000000000000000000000000000000000000000000000000000000000000000000000000000000000000000000000000000000000000
310
0000000000000000000000000000000000E2000000E2E2000000E200E200E200E2E200000000E2E20000E20000E2E2E2E2000000000000000000000000000000000000000000000000000000000000000000000000000000000000000000000000000000000000E2E200000F00000000000000000000000000000000000000
310
00000000000000000000000000000000000000000000000000000000000000000000000000000000000000000000000000000000000000000000000000000000000000000000E2000000E200000000000000E2E20000E2E200E2E2E2E2E200E20000E200E20000000000000000000000000000000000000000000000000000
310
0000000000000000000000000000000000000000000000000000000000E2E200000F0000000000000000000000000000000000000000000000000000000000000000000000000000000000000000000000000000000000000000000000000000000000000000000000000000000000000000000000000000000000E2E2E2E2
310
E2000000000000E2E200000000E20000000000E20000E20000E2E200000000000000000000000000000000000000000000000000000000000000000000000000000000000000000000000000000000000000E2E200000F00000000000000000000000000000000000000000000000000000000000000000000000000000000
310
00000000000000000000000000000000000000000000000000000000000000000000000000000000000000000000000000E2000000E2E2000000E200E200E200E200E2000000E200E20000E20000E2E20000000000000000000000000000000000000000000000000000000000000000000000000000000000000000000000
310
0000000000000000E2E200000F0000000000000000000000000000000000000000000000000000000000000000000000000000000000000000000000000000000000000000000000000000000000000000000000000000000000000000000000000000000000E2E2E2E2E2E2E2E2E20000E2E2E200E2E2E2000000E2E2E200
310
00E2000000E200000000000000000000000000000000000000000000000000000000000000000000000000000000000000000000000000000000000000E2E200000F000000000000E2E2E2E2E200000000E2E200000000E2E2E200000000000000000000000000000000000000000000000000000000000000000000000000
310
000000000000000000000000000000000000000000000000000000000000000000000000000000000000000000000000000000000000000000000000000000000000000000000000000000000000000000000000000000000000000000000000000000000000000000000000000000000000E2E200000F000000000000E2E2
310
0000E2E2000000E2E2000000E2E200E2E20000000000000000000000000000000000000000000000000000000000000000000000000000000000000000000000000000000000000000000000000000000000000000000000000000000000000000000000000000000000000000000000000000000000000000000000000000
310
00000000000000000000000000000000000000000000000000000000000000000000000000000000E2E200000F000000000000E2E20000E2E2000000E2E2000000E2E200E2E2000000000000000000000000000000000000000000000000000000000000000000000000000000000000000000000000000000000000000000
310
0000000000000000000000000000000000000000000000000000000F0000000000000000000000000000000000000000000000000000000000000000000000000000000000000000000000000000000000000000000000000000000000E2E200000F000000000000E2E20000E2E2000000E2E2000000E2E200E2E200000000
310
00000000000000000000000000000000000000000000000000000000000000000000000000000000000000000000000000000000000000000000000000000000000000000000000000000000000000000F00000000000000000000000000000000000000000000000000000000000000000000000000000000000000000000
310
000000000000000000000000000000E2000000E2E200000F000000000000E2E20000E2E200000000E2E2000000E2E2E200000000000000000000000000000000000000000000000000000000000000000000000000000000000000000000000000000000000000000000000000000000000000000000000000000000000000
310
0000000000000F00000000000000000000000000000000000000000000000000000000000000000000000000000000000000000000000000000000000000000000000000E2000000E2E200000F000000000000E2E20000E2E200000000E2E20000E2E200E2E200000000000000000000000000000000000000000000000000
310
00000000000000000000000000000000000000000000000000000000000000000000000000000000000000000000000000000000000000000000000F00000000000000000000000000000000000000000000000000000000000000000000000000000000000000000000000000000000000000000000000000E2000000E2E2
310
00000F000000000000E2E20000E2E20000000000E2E200E2E200E2E20000000000000000000000000000000000000000000000000000000000000000000000000000000000000000000000000000000000000000000000000000000000000000000000000000000000000000000000000F0000000000000000000000000000
310
0000000000000000000000000000000000000000000000000000000000000000000000000000000000000000000000E2000000E2E200000F000000000000E2E2E2E2E2000000E2E2E2E2E20000E2E2E20000000000000000000000000000000000000000000000000000000000000000000000000000000000000000000000
310
00000000000000000000000000000000000000000000000000000000000000000000000000000F00000000000000000000000000000000000000000000000000000000000000000000000000000000000000000000000000000000000000000000000000E2000000E2E200000F000000000000000000000000000000000000
310
000000000000000000000000000000000000000000000000000000000000000000000000000000000000000000000000000000000000000000000000000000000000000000000000000000000000000000000000000000000000000F0000000000000000000000000000000000000000000000000000000000000000000000
310
0000000000000000000000000000000000000000000000000000E2000000E2E200000F0000000000000000000000000000000000000000000000000000000000000000000000000000000000000000000000000000000000000000000000000000000000000000000000000000000000000000000000000000000000000000
310
00000000000000000000000000000000000F00000000000000000000000000000000000000000000000000000000000000000000000000000000000000000000000000000000000000000000000000E2000000E2E200000F000000000000000000000000000000000000000000000000000000000000000000000000000000
310
00000000000000000000002D000000002D2D2D0000000000000000000000000000000000000000000000000000000000000000000000000000000000000000000000000000000F0000000000000000000000000000000000000000000000000000000000000000000000000000000000000000000000000000000000000000
310
0000000000E2000000E2E200000F0000000000E20000000000000000000000000000000000000000000000E200000000000000000000000000000000000000002D2D2D2D2D00002D2D2D000000000000000000000000000000000000000000000000000000000000000000000000000000000000000000000000000F000000
310
00000000000000000000000000000000000000000000000000000000000000000000000000000000000000000000000000000000000000000000E2000000E2E200000F0000000000E2E2E2E2E2E2E2E2E2E2E2E2E2E2E2E2E2E2E2E2E2E2E2E2E200000000000000000000000000000000002D2D2D000000000000002D0000
310
2D0000000000000000000000000000000000000000000000000000000000000000000000000000000000000000000000000F00000000000000000000000000000000000000000000000000000000000000000000000000000000000000000000000000000000000000000000000000E2000000E2E200000F00000000000000
310
000000000000000000000000000000000000000000000000000000000000000000000000002D2D2D00002D000000000000002D0000002D2D000000000000000000000000000000000000000000000000000000000000000000000000000000000000000000000F000000000000000000000000000000000000000000000000
310
00000000000000000000000000000000000000000000000000000000000000000000000000E2000000E2E200000F0000000000000000000000000000000000000000000000000000000000000000000000000000000000002D2D000000000000000000000000002D00000000002D0000000000000000000000000000000000
310
000000000000000000000000000000000000000000000000000000000F00000000000000000000000000000000000000000000000000000000000000000000000000000000000000000000000000000000000000000000000000E2000000E2E200000F00000000000000000000000000000000000000000000000000000000
310
00000000000000000000000000002D00000000000000000000000000002D0000000000002D2D000000000000000000000000000000000000000000000000000000000000000000000000000000000000000F000000000000000000000000000000000000000000000000000000000000000000000000000000000000000000
310
00000000000000000000000000000000E2000000E2E200000F0000000000000000000000000000000000000000000000000000000000000000000000000000000000002D00000000000000000000000000002D00000000000000002D0000000000000000000000000000000000000000000000000000000000000000000000
310
000000000000000F00000000000000000000000000000000000000000000000000000000000000000000000000000000000000000000000000000000000000000000000000E2000000E2E200000F0000000000000000000000000000000000000000000000000000000000000000000000000000000000002D000000000000
310
00000000000000002D00000000000000002D0000000000000000000000000000000000000000000000000000000000000000000000000000000000000F00000000000000000000000000000000000000000000000000000000000000000000000000000000000000000000000000000000000000000000000000E2000000E2
310
E200000F0000000000000000000000000000000000000000000000000000000000000000000000000000000000002D00000000000000000000000000002D00000000000000002D0000000000000000000000000000000000000000000000000000000000000000000000000000000000000F00000000000000000000000000
310
00000000000000000000000000000000000000000000000000000000000000000000000000000000000000000000000000000000E2E200000F0000000000000000000000000000000000000000000000000000000000000000000000000000000000002D00000000000000000000000000002D00000000000000002D000000
310
0000000000000000000000000000000000000000000000000000000000000000000000000000000F0000000000000000000000000000000000000000000000000000000000000000000000000000000000000000000000000000000000000000000000000000000000E2E200000F0000000000000000000000000000000000
310
000000000000000000000000000000000000000000000000002D00000000000000000000000000002D00000000000000002D0000000000000000000000000000000000000000000000000000000000000000000000000000000000000F00000000000000000000000000000000000000000000000000000000000000000000
310
00000000000000000000000000000000000000000000000000000000000000E2E200000F0000000000000000000000000000000000000000000000000000000000000000000000000000000000002D00000000000000000000000000002D00000000000000002D000000000000000000000000000000000000000000000000
310
0000000000000000000000000000000000000F0000000000000000000000000000000000000000000000000000000000000000000000000000000000000000000000000000000000000000000000000000000000E2E200000F0000000000000000000000000000000000000000000000000000000000000000000000000000
310
000000002D00000000000000000000000000002D00000000000000002D0000000000000000000000000000000000000000000000000000000000000000000000000000000000000F00000000000000000000000000000000000000000000000000000000000000000000000000000000000000000000000000000000000000
310
00000000000000000000E2E200000F0000000000000000000000000000000000000000000000000000000000000000000000000000000000002D00000000000000000000000000002D000000BE000000002D0000000000000000000000000000000000000000000000000000000000000000000000000000000000000F0000
310
000000000000000000000000000000000000000000000000000000000000000000000000000000000000000000000000000000000000000000000000000000E2E200000F0000000000000000000000000000000000000000000000000000000000000000000000000000000000002D00000000000000000000000000002D00
310
00BE00BE0000002D0000000000000000000000000000000000000000000000000000000000000000000000000000000000000F0000000000000000000000000000000000000000000000000000000000000000000000000000000000000000000000000000000000000000000000000000000000E2E200000F000000000000
310
0000000000000000000000000000000000000000000000000000000000000000000000002D00000000000000000000000000002D0000BEC3C30000002D0000000000000000000000000000000000000000000000000000000000000000000000000000000000000F0000000000000000000000000000000000000000000000
310
000000000000000000000000000000000000000000000000000000000000000000000000000000000000E2E200000F0000000000000000000000000000000000000000000000000000000000000000000000000000000000002D00000000000000000000000000002D00BE00C3C3BE00002D00000000000000000000000000
310
00000000000000000000000000000000000000000000000000000000000F00000000000000000000000000000000000000000000000000000000000000000000000000000000000000000000000000000000000000000000000000E2000000E2E200000F000000000000000000000000000000000000000000000000000000
310
0000000000000000000000000000002D00000000000000000000000000002DBE00000000BE00002D0000000000000000000000000000000000000000000000000000000000000000000000000000000000000F0000000000000000000000000000000000000000000000000000000000000000000000000000000000000000
310
0000000000000000000000000000000000E2000000E2E200000F0000000000000000000000000000000000000000000000000000000000000000000000000000000000002D00000000000000000000000000002DBE0000000000BE002D00000000000000000000000000000000000000000000000000000000000000000000
310
00000000000000000F00000000000000000000000000000000000000000000000000000000000000000000000000000000000000000000000000000000000000000000000000E2000000E2E200000F0000000000000000000000000000000000000000000000000000000000000000000000000000000000002D0000000000
310
0000000000000000002DBE0000000000BE002D0000000000000000000000000000000000000000000000000000000000000000000000000000000000000F00000000000000000000000000000000000000000000000000000000000000000000000000000000000000000000000000000000000000000000000000E2000000
310
E2E200000F0000000000000000000000000000000000000000000000000000000000000000000000000000000000002D00000000000000000000000000002DBE0000000000BE002D0000000000000000000000002D2D2D0000000000000000000000000000000000000000000000000000000F000000000000000000000000
310
00000000000000000000000000000000000000000000000000000000000000000000000000000000000000000000000000E2000000E2E200000F0000000000000000000000000000000000000000000000000000000000000000000000000000000000002D00000000000000000000000000002DBEC3C300000000BE2D0000
310
0000000000002D2D2D2D00002D2D00000000000000000000000000000000000000000000000000000F00000000000000000000000000000000000000000000000000000000000000000000000000000000000000000000000000000000000000000000000000E2000000E2E200000F00000000000000000000000000000000
310
00000000000000000000000000000000000000000000000000002D00000000000000000000000000002DBEC3C300000000BE2D000000002D2D2D2D0000000000002D002D2D0000000000000000000000000000000000000000000000000F000000000000000000000000000000000000000000000000000000000000000000
310
00000000000000000000000000000000000000000000000000000000E2000000E2E200000F0000000000000000000000000000000000000000000000000000000000000000000000000000000000002D00000000000000000000000000002DBE000000000000BE2D2D2D2D2D000000000000000000002D00002D2D00000000
310
000000000000000000000000000000000000000F00000000000000000000000000000000000000000000000000000000000000000000000000000000000000000000000000000000000000000000000000E2000000E2E200000F00000000000000000000000000000000000000000000000000000000000000000000000000
310
00000000002D00000000000000000000000000002DBE000000002D2D2D2D00000000000000000000000000002D00002D2D2D000000000000000000000000000000000000000000000F000000000000000000000000000000000000000000000000000000000000000000000000000000000000000000000000000000000000
310
00000000000000E2000000E2E200000F0000000000000000000000000000000000000000000000000000000000000000000000000000000000002D000000000000000000000000002D2DBE2D2D2D2D0000000000000000000000000000000000002D002D002D2D2D0000000000000000000000000000000000000000000F00
310
000000000000000000000000000000000000000000000000000000000000000000000000000000000000000000000000000000000000000000000000E2000000E2E200000F0000000000000000000000000000000000000000000000000000000000000000000000000000000000002D0000000000000000002D2DBEBEBEBE
310
BE000000000000000000000000000000000000000000002D2D00002D00002D00000000000000000000000000000000000000000F00000000000000000000000000000000000000000000000000000000000000000000000000000000000000000000000000000000000000000000000000E2000000E2E200000F0000000000
310
000000000000000000000000000000000000000000000000000000000000000000000000002D00000000002D2DBEBEBEBEBE00BE0000000000000000000000000000000000000000000000002D2D00002D00002D00000000000000000000000000000000000000000F00000000000000000000000000000000000000000000
310
000000000000000000000000000000000000000000000000000000000000000000000000000000E2000000E2E200000F0000000000000000000000000000000000000000000000000000000000000000000000000000000000002D002D2DBEBEBEBEBE0000000000BE00000000000000000000000000000000000000000000
310
00002D0000002D00002D00000000000000000000000000000000000000000F00000000000000000000000000000000000000000000000000000000000000000000000000000000000000000000000000000000000000000000000000E2000000E2E200000F0000000000000000000000000000000000000000000000000000
310
00000000000000000000000000000000BEBEBEBEBE000000000000000000BE0000000000000000000000000000000000000000000000002D0000002D00002D00000000000000000000000000000000000000000F00000000000000000000000000000000000000000000000000000000000000000000000000000000000000
310
000000000000000000000000000000000000E2000000E2E200000F00000000000000000000000000000000000000000000000000000000000000000000000000002D2D2D2DBEBE000000000000000000C3C300BE0000000000000000000000000000000000000000000000002D0000002D00002D0000000000000000000000
310
0000000000000000000F00000000000000000000000000000000000000000000000000000000000000000000000000000000000000000000000000000000000000000000000000E2000000E2E200000F000000000000000000000000000000000000000000000000000000000000000000002D2D2D2D0000000000BE000000
310
000000000000C3C300BE0000000000000000000000000000000000000000000000002D0000002D00002D00000000000000000000000000000000000000000F00000000000000000000000000000000000000000000000000000000000000000000000000000000000000000000000000000000000000000000000000000000
310
00E2E200000F000000000000000000000000000000000000000000000000000000000000002D2D2D000000000000000000BE00C3C30000BEBE0000000000BE0000000000000000000000000000000000000000000000002D0000002D00002D00000000000000000000000000000000000000000F0000000000000000000000
310
000000000000000000000000000000000000000000000000000000000000000000000000000000000000000000000000000000000000E2E200000F0000000000000000000000000000000000000000000000000000002D2D2D2D000000000000000000000000BE00C3C30000C3C3BE00000000BE0000000000000000000000
310
000000000000000000000000002D0000002D00002D00000000000000000000000000000000000000000F0000000000000000000000000000000000000000000000000000000000000000000000000000000000000000000000000000000000000000000000000000000000E2E200000F000000000000000000000000000000
310
00000000000000002D2D2D2D00000000000000000000000000000000BE0000000000C3C3BE00000000BE0000000000000000000000000000000000000000000000002D0000002D00002D00000000000000000000000000000000000000000F0000000000000000000000000000000000000000000000000000000000000000
310
000000000000000000000000000000000000000000000000000000000000000000E2E200000F0000000000000000000000000000000000000000002D2D0000000000000000000000000000000000000000BE000000000000000000000000BE0000000000000000000000000000000000000000000000002D0000002D002D2D
310
00000000000000000000000000000000000000000F0000000000000000000000000000000000000000000000000000000000000000000000000000000000000000000000000000000000000000000000000000000000E2E200000F0000000000000000000000000000000000000000002D0000000000000000000000000000
310
00000000000000BE0000000000000000000000BE000000000000000000000000000000000000000000000000002D00002D2D002D2D00000000000000000000000000000000000000000F0000000000000000000000000000000000000000000000000000000000000000000000000000000000000000000000000000000000
310
000000000000000000000000E2E200000F0000000000000000000000000000000000000000002D000000000000000000000000000000000000000000BE0000000000000000000000BE000000000000000000000000000000000000000000000000002D00002D2D2D002D00000000000000000000000000000000000000000F
310
0000000000000000000000000000000000000000000000000000000000000000000000000000000000000000000000000000000000000000000000000000000000E2E200000F0000000000000000000000000000000000000000002D000000000000000000000000000000000000000000BE00000000000000000000BE0000
310
000000000000000000000000000000000000000000002D2D002D2D002D00002D00000000000000000000000000000000000000000F0000000000000000000000000000000000000000000000000000000000000000000000000000000000000000000000000000000000000000000000000000000000E2E200000F00000000
310
00000000000000000000000000000000002D00000000000000000000000000000000000000000000BE00000000C3C30000BE0000000000000000000000000000000000000000000000002D2D00002D002D2D00002D00000000000000000000000000000000000000000F000000000000000000000000000000000000000000
310
0000000000000000000000000000000000000000000000000000000000000000000000000000000000000000E2E200000F0000000000000000000000000000000000000000002D0000000000000000000000000000000000000000000000BEBE0000C3C300BE00000000000000000000000000000000000000000000000000
310
00002D2D2D2D2D2D00002D00000000000000000000000000000000000000000F00000000000000000000000000000000000000000000000000000000000000000000000000000000000000000000000000000000000000000000000000E2000000E2E200000F0000000000000000000000000000000000000000002D000000
310
00000000000000000000000000000000000000000000BE00000000BE000000000000000000000000000000000000000000000000000000000000002D2D2D2D2D00000000000000000000000000000000000000000F000000000000000000000000000000000000000000000000000000000000000000000000000000000000
310
00000000000000000000000000000000000000E2000000E2E200000F0000000000000000000000000000000000000000002D0000000000000000000000000000000000000000000000000000BE0000BE000000000000000000000000000000000000000000000000000000000000002D2D002D2D2D00000000000000000000
310
000000000000000000000F00000000000000000000000000000000000000000000000000000000000000000000000000000000000000000000000000000000000000000000000000E2000000E2E200000F0000000000000000000000000000000000000000002D000000000000000000000000000000000000000000000000
310
000000BEBE0000000000000000000000000000000000000000000000000000000000002D2D2D00002D002D00000000000000000000000000000000000000000F00000000000000000000000000000000000000000000000000000000000000000000000000000000000000000000000000000000000000000000000000E200
310
0000E2E200000F0000000000000000000000000000000000000000002D00000000000000000000000000000000000000000000000000000000000000000000000000000000000000000000000000000000000000000000002D2D0000002D2D002D2D0000000000000000000000000000000000000F00000000000000000000
310
000000000000000000000000000000000000000000000000000000000000000000000000000000000000000000000000000000E2000000E2E200000F0000000000000000000000000000000000000000002D000000000000000000000000000000000000000000000000000000000000000000000000000000000000000000
310
00000000000000000000000000002D002D2D2D2D002D2D2D2D00000000000000000000000000000000000F00000000000000000000000000000000000000000000000000000000000000000000000000000000000000000000000000000000000000000000000000E2000000E2E200000F0000000000000000000000000000
310
000000000000002D00000000000000000000000000000000000000000000000000000000000000000000000000000000000000000000000000000000000000000000002D0000002D002D000000002D000000000000000000000000000000000F00000000000000000000000000000000000000000000000000000000000000
310
000000000000000000000000000000000000000000000000000000000000E2000000E2E200000F0000000000000000000000000000000000000000002D00000000000000000000000000000000000000000000000000000000000000000000000000000000000000000000000000000000000000000000002D0000002D2D2D
310
00002D2D00000000000000000000000000000000000F00000000000000000000000000000000000000000000000000000000000000000000000000000000000000000000000000000000000000000000000000E2000000E2E200000F0000000000000000000000000000000000000000002D00000000000000000000000000
310
000000000000000000000000000000000000000000000000000000000000000000000000000000000000000000002D00002D2D002D2D2D000000000000000000000000000000000000000F00000000000000000000000000000000000000000000000000000000000000000000000000000000000000000000000000000000
310
000000000000000000E2000000E2E200000F0000000000000000000000000000000000000000002D00000000000000000000000000000000000000000000000000000000000000000000000000000000000000000000000000000000000000000000002D00002D2D002D2D0000000000000000000000000000000000000000
310
0F00000000000000000000000000000000000000000000000000000000000000000000000000000000000000000000000000000000000000000000000000E2000000E2E200000F0000000000000000000000000000000000000000002D2D000000000000000000000000000000000000000000000000000000000000000000
310
000000000000000000000000000000000000000000000000002D002D002D2D002D00000000000000000000000000000000000000000F00000000000000000000000000000000000000000000000000000000000000000000000000000000000000000000000000000000000000000000000000E2000000E2E200000F000000
310
000000000000000000000000000000000000002D2D2D00000000000000000000000000000000000000000000000000000000000000000000000000000000000000000000000000000000000000002D2D00002D00002D00000000000000000000000000000000000000000F0000000000000000000000000000000000000000
310
0000000000000000000000000000000000000000000000000000000000000000000000000000000000E2000000E2E200000F000000000000000000000000000000000000000000002D2D0000000000000000000000000000000000000000000000000000000000000000000000000000000000000000000000000000000000
310
000000002D2D00002D00002D00000000000000000000000000000000000000000F00000000000000000000000000000000000000000000000000000000000000000000000000000000000000000000000000000000000000000000000000E2000000E2E200000F0000000000000000000000000000000000000000002D0000
310
0000000000000000000000000000000000000000000000000000000000000000000000000000000000000000000000000000000000000000002D0000002D00002D00000000000000000000000000000000000000000F0000000000000000000000000000000000000000000000000000000000000000000000000000000000
310
0000000000000000000000000000000000000000E2000000E2E200000F000000000000000000000000000000000000002D2D0000000000000000000000000000000000000000000000000000000000000000000000000000000000000000000000000000000000000000000000002D0000002D00002D000000000000000000
310
00000000000000000000000F00000000000000000000000000000000000000000000000000000000000000000000000000000000000000000000000000000000000000000000000000E2000000E2E200000F0000000000000000000000000000000000002D2D00000000000000000000000000000000000000000000000000
310
0000000000000000000000000000000000000000000000000000000000000000000000002D0000002D00002D00000000000000000000000000000000000000000F0000000000000000000000000000000000000000000000000000000000000000000000000000000000000000000000000000000000000000000000000000
310
000000E2E200000F000000000000000000000000000000000000002D2D2D00000000000000000000000000000000000000000000000000000000000000000000000000000000000000000000000000000000000000000000002D0000002D00002D00000000000000000000000000000000000000000F000000000000000000
310
0000000000000000000000000000000000000000000000000000000000000000000000000000000000000000000000000000000000000000E2E200000F0000000000000000000000000000000000000000002D0000000000000000000000000000000000000000000000000000000000000000000000000000000000000000
310
0000000000000000000000000000002D0000002D00002D00000000000000000000000000000000000000000F0000000000000000000000000000000000000000000000000000000000000000000000000000000000000000000000000000000000000000000000000000000000E2E200000F00000000000000000000000000
310
00000000000000002D00000000000000000000000000000000000000000000000000000000000000000000000000000000000000000000000000000000000000000000002D0000002D00002D00000000000000000000000000000000000000000F000000000000000000000000000000000000000000000000000000000000
310
0000000000000000000000000000000000000000000000000000000000000000000000E2E200000F0000000000000000000000000000000000000000002D00000000000000000000000000000000000000000000000000000000000000000000000000000000000000000000000000000000000000000000002D0000002D00
310
002D00000000000000000000000000000000000000000F0000000000000000000000000000000000000000000000000000000000000000000000000000000000000000000000000000000000000000000000000000000000E2E200000F0000000000000000000000000000000000000000002D000000000000000000000000
310
0000000000000000000000000000000000000000000000000000000000000000000000000000000000000000002D2D2D0000002D002D2D00000000000000000000000000000000000000000F000000000000000000000000000000000000000000000000000000000000000000000000000000000000000000000000000000
310
0000000000000000000000000000E2E200000F0000000000000000000000000000000000000000002D000000000000000000000000000000000000000000000000000000000000000000000000000000000000000000000000000000002D2D2D2D2D0000002D2D2D2D002D2D00000000000000000000000000000000000000
310
000F0000000000000000000000000000000000000000000000000000000000000000000000000000000000000000000000000000000000000000000000000000000000E2E200000F0000000000000000000000000000000000000000002D000000000000000000000000000000000000000000000000000000000000000000
310
00000000000000000000000000002D2D2D2D2D0000000000000000002D2D2D2D002D00000000000000000000000000000000000000000F0000000000000000000000000000000000000000000000000000000000000000000000000000000000000000000000000000000000000000000000000000000000E2E200000F0000
310
000000000000000000000000000000000000002D0000000000000000000000000000000000000000000000000000000000000000000000000000000000002D2D2D2D2D0000000000000000002D2D2D2D2D0000002D2D2D00000000000000000000000000000000000000000F00000000000000000000000000000000000000
310
000000000000000000000000000000000000000000000000000000000000000000000000000000000000E2000000E2E200000F0000000000000000000000000000000000000000002D000000000000000000000000000000000000000000000000000000000000000000000000002D2D2D2D2D0000000000000000002D2D2D
310
2D2D00000000000000002D2D2D00000000000000000000000000000000000000000F00000000000000000000000000000000000000000000000000000000000000000000000000000000000000000000000000000000000000000000000000E2000000E2E200000F0000000000000000000000000000000000000000002D00
310
000000000000000000000000000000000000000000000000000000000000002D2D2D2D2D0000000000000000002D2D2D2D2D00000000000000002D2D2D2D2D00000000000000000000000000000000000000000000000F00000000000000000000000000000000000000000000000000000000000000000000000000000000
310
000000000000000000000000000000000000000000E2000000E2E200000F0000000000000000000000000000000000000000002D0000000000000000000000000000000000000000000000000000002D2D2D2D2D0000000000000000002D2D2D2D2D00000000000000002D2D2D2D2D00000000000000000000000000000000
310
0000000000000000000000000F00000000000000000000000000000000000000000000000000000000000000000000000000000000000000000000000000000000000000000000000000E2000000E2E200000F0000000000000000000000000000000000000000002D00000000000000000000000000000000000000000000
310
2D2D2D2D2D0000000000000000002D2D2D2D2D00000000000000002D2D2D2D2D0000000000000000000000000000000000000000000000000000000000000000000F00000000000000000000000000000000000000000000000000000000000000000000000000000000000000000000000000000000000000000000000000
310
E2000000E2E200000F0000000000000000000000000000000000000000002D00000000000000000000000000000000002D2D2D2D2D0000000000000000002D2D2D2D2D00000000000000002D2D2D2D2D00000000000000000000000000000000000000000000000000000000000000000000000000000F0000000000000000
310
0000000000000000000000000000000000000000000000000000000000000000000000000000000000000000000000000000000000E2000000E2E200000F0000000000000000000000000000000000000000002D0000000000000000000000002D2D2D2D2D0000000000000000002D2D2D2D2D00000000000000002D2D2D2D
310
2D000000000000000000000000000000000000000000000000000000000000000000000000000000000000000F00000000000000000000000000000000000000000000000000000000000000000000000000000000000000000000000000000000000000000000000000E2000000E2E200000F0F0F0F0F0F0F0F0F0F0F0F0F
310
0F0F0F0F0F0F0F0F0F0F0F0F0F0F0F0F0F0F0F0F0F0F0F0F0F0F0F0F0F0F0F0F0F0F0F0F0F0F0F0F0F0F0F0F0F0F0F0F0F0F0F0F0F0F0F0F0F0F0F0F0F0F0F0F0F0F0F0F0F0F0F0F0F0F0F0F0F0F0F0F0F0F0F0F0F0F0F0F0F0F0F0F0F0F0F0F0F0F00000000E2E2E2E2E2E2E2E2E2E2E2E2E2E2E2E2000000000000000000
310
E2E2E2E2E2E2E2E2E2E2E2E2E2E2E2E2000000000000000000E2E2E2E2E2E2E2E2000000E2E20000000000000000000000000000000000000000000000000000000000000000000000000000000000000000000000000000000000000000000000000000000000000000000000000000000000000000000000000000000000
310
0000000000000000000000000000000000000000000000000000000000000000000000000000000000000000000000000000000000000000000000000000000000000000000000000000000000000000000000000000000000E2E2000000000000000000000000000000000000000000000000000000000000000000000000
310
00000000000000000000000000000000000000000000000000000000000000000000000000000000000000000000000000000000000000000000000000000000000000000000000000000000000000000000000000000000000000000000000000000000000000000000000000000000000000000000000000000000000000
310
000000000000000000000000000000E2E20000000000000000000000000000000000000000000000000000000000000000000000000000000000000000000000000000000000000000000000000000000000000000000000000000000000000000000000000000000000000000000000000000000000000000000000000000
310
0000000000000000000000000000000000000000000000000000000000000000000000000000000000000000000000000000000000000000000000000000000000000000E2E2000000000000000000000000000000000000000000000000000000000000000000000000000000000000000000000000000000000000000000
310
00000000000000000000000000000000000000000000000000000000000000000000000000000000000000000000000000000000000000000000000000000000000000000000000000000000000000000000000000000000000000000000000000000000000000000000000000000000000000000000000000E2E2E2E2E2E2
310
E2E2E2E2E2E2E2E2E2E2E2E2E2E2E2E2E2E2E2E2E2E2E2E2E2E2E2E2E2E2E2E2E2E2E2E2E2E2E2E2E2E2E2E2E2E2E2E2E2E2E2E2E2E2E2E2E2E2E2E2E2E2E2E2E2E2E2E2E2E2E2E2E2E2E2E2E2E2E2E2E2E2E2E2E2E2E2E2E2E2E2E2E2E2E2E2E2E2E2E2E2E2E2E2E2E2E2E2E2E2E2E2E2E2E2E2E2E2E2E2E2E2E2E2E2E2E2
310
E2E2E2E2E2E2E2E2E2E2E2E2E2E2E2E2E2E2E2E2E2E2E2E2E2E2E2E2E2E2E2E2E2E2E2E2E2E2E2E2E2E2E2E2E2E2E2E2
  0
XRECORD
  5
1AAA
102
{ACAD_REACTORS
330
1AA9
102
}
330
1AA9
100
AcDbXrecord
280
     1
102
SHADEPLOT
 70
     0
102
SHADEPLOTRESLEVEL
 70
     2
102
SHADEPLOTCUSTOMDPI
 70
   300
  0
XRECORD
  5
1AA8
102
{ACAD_REACTORS
330
1AA7
102
}
330
1AA7
100
AcDbXrecord
280
     1
102
SHADEPLOT
 70
     0
102
SHADEPLOTRESLEVEL
 70
     2
102
SHADEPLOTCUSTOMDPI
 70
   300
  0
XRECORD
  5
1A73
102
{ACAD_REACTORS
330
1A
102
}
330
1A
100
AcDbXrecord
280
     1
102
MATERIAL
148
0.0
149
0.0
149
0.0
 93
        0
 94
      127
282
     0
 72
     0
 77
     0
171
     0
175
     0
179
     0
273
     0
  0
XRECORD
  5
1C
102
{ACAD_REACTORS
330
1A
102
}
330
1A
100
AcDbXrecord
280
     1
270
     1
271
     1
  0
XRECORD
  5
1B
102
{ACAD_REACTORS
330
1A
102
}
330
1A
100
AcDbXrecord
280
     1
270
     1
271
     1
  0
XRECORD
  5
1F
102
{ACAD_REACTORS
330
1A
102
}
330
1A
100
AcDbXrecord
280
     1
270
     1
271
     1
  0
XRECORD
  5
1E
102
{ACAD_REACTORS
330
1A
102
}
330
1A
100
AcDbXrecord
280
     1
270
     1
271
     1
  0
XRECORD
  5
20
102
{ACAD_REACTORS
330
1A
102
}
330
1A
100
AcDbXrecord
280
     1
270
     1
271
     1
  0
XRECORD
  5
1D
102
{ACAD_REACTORS
330
1A
102
}
330
1A
100
AcDbXrecord
280
     1
270
     1
271
     1
  0
XRECORD
  5
1A72
102
{ACAD_REACTORS
330
12
102
}
330
12
100
AcDbXrecord
280
     1
102
MATERIAL
148
0.0
149
0.0
149
0.0
 93
        0
 94
      127
282
     0
 72
     0
 77
     0
171
     0
175
     0
179
     0
273
     0
  0
XRECORD
  5
14
102
{ACAD_REACTORS
330
12
102
}
330
12
100
AcDbXrecord
280
     1
270
     1
271
     1
  0
XRECORD
  5
13
102
{ACAD_REACTORS
330
12
102
}
330
12
100
AcDbXrecord
280
     1
270
     1
271
     1
  0
XRECORD
  5
17
102
{ACAD_REACTORS
330
12
102
}
330
12
100
AcDbXrecord
280
     1
270
     1
271
     1
  0
XRECORD
  5
16
102
{ACAD_REACTORS
330
12
102
}
330
12
100
AcDbXrecord
280
     1
270
     1
271
     1
  0
XRECORD
  5
18
102
{ACAD_REACTORS
330
12
102
}
330
12
100
AcDbXrecord
280
     1
270
     1
271
     1
  0
XRECORD
  5
15
102
{ACAD_REACTORS
330
12
102
}
330
12
100
AcDbXrecord
280
     1
270
     1
271
     1
  0
XRECORD
  5
1A74
102
{ACAD_REACTORS
330
22
102
}
330
22
100
AcDbXrecord
280
     1
102
MATERIAL
148
0.0
149
0.0
149
0.0
 93
        0
 94
      127
282
     0
 72
     0
 77
     0
171
     0
175
     0
179
     0
273
     0
  0
XRECORD
  5
24
102
{ACAD_REACTORS
330
22
102
}
330
22
100
AcDbXrecord
280
     1
270
     1
271
     1
  0
XRECORD
  5
23
102
{ACAD_REACTORS
330
22
102
}
330
22
100
AcDbXrecord
280
     1
270
     1
271
     1
  0
XRECORD
  5
27
102
{ACAD_REACTORS
330
22
102
}
330
22
100
AcDbXrecord
280
     1
270
     1
271
     1
  0
XRECORD
  5
26
102
{ACAD_REACTORS
330
22
102
}
330
22
100
AcDbXrecord
280
     1
270
     1
271
     1
  0
XRECORD
  5
28
102
{ACAD_REACTORS
330
22
102
}
330
22
100
AcDbXrecord
280
     1
270
     1
271
     1
  0
XRECORD
  5
25
102
{ACAD_REACTORS
330
22
102
}
330
22
100
AcDbXrecord
280
     1
270
     1
271
     1
  0
XRECORD
  5
1A6B
102
{ACAD_REACTORS
330
1A6A
102
}
330
1A6A
100
AcDbXrecord
280
     1
102
ACAD_ROUNDTRIP_2012_MLEADER_STYLE
298
     1
  0
CELLSTYLEMAP
  5
1A69
102
{ACAD_REACTORS
330
449
102
}
330
449
100
AcDbCellStyleMap
 90
        3
300
CELLSTYLE
  1
TABLEFORMAT_BEGIN
 90
        5
170
     1
 91
        0
 92
    32768
 62
   257
 93
        1
300
CONTENTFORMAT
  1
CONTENTFORMAT_BEGIN
 90
        0
 91
        0
 92
      512
 93
        0
300

 40
0.0
140
1.0
 94
        5
 62
     0
340
55
144
0.25
309
CONTENTFORMAT_END
171
     0
 94
        0
309
TABLEFORMAT_END
  1
CELLSTYLE_BEGIN
 90
        1
 91
        1
300
_TITLE
309
CELLSTYLE_END
300
CELLSTYLE
  1
TABLEFORMAT_BEGIN
 90
        5
170
     1
 91
        0
 92
        0
 62
   257
 93
        1
300
CONTENTFORMAT
  1
CONTENTFORMAT_BEGIN
 90
        0
 91
        0
 92
      512
 93
        0
300

 40
0.0
140
1.0
 94
        5
 62
     0
340
55
144
0.18
309
CONTENTFORMAT_END
171
     0
 94
        0
309
TABLEFORMAT_END
  1
CELLSTYLE_BEGIN
 90
        2
 91
        1
300
_HEADER
309
CELLSTYLE_END
300
CELLSTYLE
  1
TABLEFORMAT_BEGIN
 90
        5
170
     1
 91
        0
 92
        0
 62
   257
 93
        1
300
CONTENTFORMAT
  1
CONTENTFORMAT_BEGIN
 90
        0
 91
        0
 92
      512
 93
        0
300

 40
0.0
140
1.0
 94
        2
 62
     0
340
55
144
0.18
309
CONTENTFORMAT_END
171
     0
 94
        0
309
TABLEFORMAT_END
  1
CELLSTYLE_BEGIN
 90
        3
 91
        2
300
_DATA
309
CELLSTYLE_END
  0
XRECORD
  5
1AA5
102
{ACAD_REACTORS
330
449
102
}
330
449
100
AcDbXrecord
280
     1
102
ACAD_ROUNDTRIP_PRE2007_TABLESTYLE
 90
      512
 91
        0
  1

 92
      512
 93
        0
  2

 94
      512
 95
        0
  3

  0
XRECORD
  5
1A80
102
{ACAD_REACTORS
330
1A7F
102
}
330
1A7F
100
AcDbXrecord
280
     1
102
RTVSPropertyOp0
 70
     1
102
RTVSPropertyOp1
 70
     1
102
RTVSPropertyOp2
 70
     1
102
RTVSPropertyOp3
 70
     1
102
RTVSPropertyOp4
 70
     1
102
RTVSPropertyOp5
 70
     1
102
RTVSPropertyOp6
 70
     1
102
RTVSPropertyOp7
 70
     1
102
RTVSPropertyOp8
 70
     1
102
RTVSPropertyOp9
 70
     1
102
RTVSPropertyOp10
 70
     1
102
RTVSPropertyOp11
 70
     1
102
RTVSPropertyOp12
 70
     1
102
RTVSPropertyOp13
 70
     1
102
RTVSPropertyOp14
 70
     1
102
RTVSPropertyOp15
 70
     1
102
RTVSPropertyOp16
 70
     1
102
RTVSPropertyOp17
 70
     1
102
RTVSPropertyOp18
 70
     1
102
RTVSPropertyOp19
 70
     1
102
RTVSPropertyOp20
 70
     1
102
RTVSPropertyOp21
 70
     1
102
RTVSPropertyOp22
 70
     1
102
RTVSPropertyOp23
 70
     1
102
RTVSPropertyOp24
 70
     1
102
RTVSPropertyOp25
 70
     1
102
RTVSPropertyOp26
 70
     1
102
RTVSPropertyOp27
 70
     1
102
RTVSPropertyOp28
 70
     1
102
RTVSPropertyOp29
 70
     1
102
RTVSPropertyOp30
 70
     1
102
RTVSPropertyOp31
 70
     1
102
RTVSPropertyOp32
 70
     1
  0
XRECORD
  5
1A7E
102
{ACAD_REACTORS
330
1A7D
102
}
330
1A7D
100
AcDbXrecord
280
     1
102
RTVSPropertyOp0
 70
     1
102
RTVSPropertyOp1
 70
     1
102
RTVSPropertyOp2
 70
     1
102
RTVSPropertyOp3
 70
     1
102
RTVSPropertyOp4
 70
     1
102
RTVSPropertyOp5
 70
     1
102
RTVSPropertyOp6
 70
     1
102
RTVSPropertyOp7
 70
     1
102
RTVSPropertyOp8
 70
     1
102
RTVSPropertyOp9
 70
     1
102
RTVSPropertyOp10
 70
     1
102
RTVSPropertyOp11
 70
     1
102
RTVSPropertyOp12
 70
     1
102
RTVSPropertyOp13
 70
     1
102
RTVSPropertyOp14
 70
     1
102
RTVSPropertyOp15
 70
     1
102
RTVSPropertyOp16
 70
     1
102
RTVSPropertyOp17
 70
     1
102
RTVSPropertyOp18
 70
     1
102
RTVSPropertyOp19
 70
     1
102
RTVSPropertyOp20
 70
     1
102
RTVSPropertyOp21
 70
     1
102
RTVSPropertyOp22
 70
     1
102
RTVSPropertyOp23
 70
     1
102
RTVSPropertyOp24
 70
     1
102
RTVSPropertyOp25
 70
     1
102
RTVSPropertyOp26
 70
     1
102
RTVSPropertyOp27
 70
     1
102
RTVSPropertyOp28
 70
     1
102
RTVSPropertyOp29
 70
     1
102
RTVSPropertyOp30
 70
     1
102
RTVSPropertyOp31
 70
     1
102
RTVSPropertyOp32
 70
     1
  0
XRECORD
  5
1A8C
102
{ACAD_REACTORS
330
1A8B
102
}
330
1A8B
100
AcDbXrecord
280
     1
102
RTVSPropertyOp0
 70
     1
102
RTVSPropertyOp1
 70
     1
102
RTVSPropertyOp2
 70
     1
102
RTVSPropertyOp3
 70
     1
102
RTVSPropertyOp4
 70
     1
102
RTVSPropertyOp5
 70
     1
102
RTVSPropertyOp6
 70
     1
102
RTVSPropertyOp7
 70
     1
102
RTVSPropertyOp8
 70
     1
102
RTVSPropertyOp9
 70
     1
102
RTVSPropertyOp10
 70
     1
102
RTVSPropertyOp11
 70
     1
102
RTVSPropertyOp12
 70
     1
102
RTVSPropertyOp13
 70
     1
102
RTVSPropertyOp14
 70
     1
102
RTVSPropertyOp15
 70
     1
102
RTVSPropertyOp16
 70
     1
102
RTVSPropertyOp17
 70
     1
102
RTVSPropertyOp18
 70
     1
102
RTVSPropertyOp19
 70
     1
102
RTVSPropertyOp20
 70
     1
102
RTVSPropertyOp21
 70
     1
102
RTVSPropertyOp22
 70
     1
102
RTVSPropertyOp23
 70
     1
102
RTVSPropertyOp24
 70
     1
102
RTVSPropertyOp25
 70
     1
102
RTVSPropertyOp26
 70
     1
102
RTVSPropertyOp27
 70
     1
102
RTVSPropertyOp28
 70
     1
102
RTVSPropertyOp29
 70
     1
102
RTVSPropertyOp30
 70
     1
102
RTVSPropertyOp31
 70
     1
102
RTVSPropertyOp32
 70
     1
  0
XRECORD
  5
1A94
102
{ACAD_REACTORS
330
1A93
102
}
330
1A93
100
AcDbXrecord
280
     1
102
RTVSPropertyOp0
 70
     1
102
RTVSPropertyOp1
 70
     1
102
RTVSPropertyOp2
 70
     1
102
RTVSPropertyOp3
 70
     1
102
RTVSPropertyOp4
 70
     1
102
RTVSPropertyOp5
 70
     1
102
RTVSPropertyOp6
 70
     1
102
RTVSPropertyOp7
 70
     1
102
RTVSPropertyOp8
 70
     1
102
RTVSPropertyOp9
 70
     1
102
RTVSPropertyOp10
 70
     1
102
RTVSPropertyOp11
 70
     1
102
RTVSPropertyOp12
 70
     1
102
RTVSPropertyOp13
 70
     1
102
RTVSPropertyOp14
 70
     1
102
RTVSPropertyOp15
 70
     1
102
RTVSPropertyOp16
 70
     1
102
RTVSPropertyOp17
 70
     1
102
RTVSPropertyOp18
 70
     1
102
RTVSPropertyOp19
 70
     1
102
RTVSPropertyOp20
 70
     1
102
RTVSPropertyOp21
 70
     1
102
RTVSPropertyOp22
 70
     1
102
RTVSPropertyOp23
 70
     1
102
RTVSPropertyOp24
 70
     1
102
RTVSPropertyOp25
 70
     1
102
RTVSPropertyOp26
 70
     1
102
RTVSPropertyOp27
 70
     1
102
RTVSPropertyOp28
 70
     1
102
RTVSPropertyOp29
 70
     1
102
RTVSPropertyOp30
 70
     1
102
RTVSPropertyOp31
 70
     1
102
RTVSPropertyOp32
 70
     1
  0
XRECORD
  5
1A86
102
{ACAD_REACTORS
330
1A85
102
}
330
1A85
100
AcDbXrecord
280
     1
102
RTVSPropertyOp0
 70
     1
102
RTVSPropertyOp1
 70
     1
102
RTVSPropertyOp2
 70
     1
102
RTVSPropertyOp3
 70
     1
102
RTVSPropertyOp4
 70
     1
102
RTVSPropertyOp5
 70
     1
102
RTVSPropertyOp6
 70
     1
102
RTVSPropertyOp7
 70
     1
102
RTVSPropertyOp8
 70
     1
102
RTVSPropertyOp9
 70
     1
102
RTVSPropertyOp10
 70
     1
102
RTVSPropertyOp11
 70
     1
102
RTVSPropertyOp12
 70
     1
102
RTVSPropertyOp13
 70
     1
102
RTVSPropertyOp14
 70
     1
102
RTVSPropertyOp15
 70
     1
102
RTVSPropertyOp16
 70
     1
102
RTVSPropertyOp17
 70
     1
102
RTVSPropertyOp18
 70
     1
102
RTVSPropertyOp19
 70
     1
102
RTVSPropertyOp20
 70
     1
102
RTVSPropertyOp21
 70
     1
102
RTVSPropertyOp22
 70
     1
102
RTVSPropertyOp23
 70
     1
102
RTVSPropertyOp24
 70
     1
102
RTVSPropertyOp25
 70
     1
102
RTVSPropertyOp26
 70
     1
102
RTVSPropertyOp27
 70
     1
102
RTVSPropertyOp28
 70
     1
102
RTVSPropertyOp29
 70
     1
102
RTVSPropertyOp30
 70
     1
102
RTVSPropertyOp31
 70
     1
102
RTVSPropertyOp32
 70
     1
  0
XRECORD
  5
1A8A
102
{ACAD_REACTORS
330
1A89
102
}
330
1A89
100
AcDbXrecord
280
     1
102
RTVSPropertyOp0
 70
     1
102
RTVSPropertyOp1
 70
     1
102
RTVSPropertyOp2
 70
     1
102
RTVSPropertyOp3
 70
     1
102
RTVSPropertyOp4
 70
     1
102
RTVSPropertyOp5
 70
     1
102
RTVSPropertyOp6
 70
     1
102
RTVSPropertyOp7
 70
     1
102
RTVSPropertyOp8
 70
     1
102
RTVSPropertyOp9
 70
     1
102
RTVSPropertyOp10
 70
     1
102
RTVSPropertyOp11
 70
     1
102
RTVSPropertyOp12
 70
     1
102
RTVSPropertyOp13
 70
     1
102
RTVSPropertyOp14
 70
     1
102
RTVSPropertyOp15
 70
     1
102
RTVSPropertyOp16
 70
     1
102
RTVSPropertyOp17
 70
     1
102
RTVSPropertyOp18
 70
     1
102
RTVSPropertyOp19
 70
     1
102
RTVSPropertyOp20
 70
     1
102
RTVSPropertyOp21
 70
     1
102
RTVSPropertyOp22
 70
     1
102
RTVSPropertyOp23
 70
     1
102
RTVSPropertyOp24
 70
     1
102
RTVSPropertyOp25
 70
     1
102
RTVSPropertyOp26
 70
     1
102
RTVSPropertyOp27
 70
     1
102
RTVSPropertyOp28
 70
     1
102
RTVSPropertyOp29
 70
     1
102
RTVSPropertyOp30
 70
     1
102
RTVSPropertyOp31
 70
     1
102
RTVSPropertyOp32
 70
     1
  0
XRECORD
  5
1AA4
102
{ACAD_REACTORS
330
1AA3
102
}
330
1AA3
100
AcDbXrecord
280
     1
102
RTVSPropertyOp0
 70
     0
102
RTVSPropertyOp1
 70
     0
102
RTVSPropertyOp2
 70
     0
102
RTVSPropertyOp3
 70
     0
102
RTVSPropertyOp4
 70
     0
102
RTVSPropertyOp5
 70
     0
102
RTVSPropertyOp6
 70
     0
102
RTVSPropertyOp7
 70
     0
102
RTVSPropertyOp8
 70
     0
102
RTVSPropertyOp9
 70
     0
102
RTVSPropertyOp10
 70
     0
102
RTVSPropertyOp11
 70
     0
102
RTVSPropertyOp12
 70
     0
102
RTVSPropertyOp13
 70
     0
102
RTVSPropertyOp14
 70
     2
102
RTVSPropertyOp15
 70
     0
102
RTVSPropertyOp16
 70
     0
102
RTVSPropertyOp17
 70
     0
102
RTVSPropertyOp18
 70
     0
102
RTVSPropertyOp19
 70
     0
102
RTVSPropertyOp20
 70
     0
102
RTVSPropertyOp21
 70
     0
102
RTVSPropertyOp22
 70
     0
102
RTVSPropertyOp23
 70
     0
102
RTVSPropertyOp24
 70
     0
102
RTVSPropertyOp25
 70
     0
102
RTVSPropertyOp26
 70
     0
102
RTVSPropertyOp27
 70
     0
102
RTVSPropertyOp28
 70
     0
102
RTVSPropertyOp29
 70
     0
102
RTVSPropertyOp30
 70
     0
102
RTVSPropertyOp31
 70
     0
102
RTVSPropertyOp32
 70
     0
  0
XRECORD
  5
1A92
102
{ACAD_REACTORS
330
1A91
102
}
330
1A91
100
AcDbXrecord
280
     1
102
RTVSPropertyOp0
 70
     1
102
RTVSPropertyOp1
 70
     1
102
RTVSPropertyOp2
 70
     1
102
RTVSPropertyOp3
 70
     1
102
RTVSPropertyOp4
 70
     1
102
RTVSPropertyOp5
 70
     1
102
RTVSPropertyOp6
 70
     1
102
RTVSPropertyOp7
 70
     1
102
RTVSPropertyOp8
 70
     1
102
RTVSPropertyOp9
 70
     1
102
RTVSPropertyOp10
 70
     1
102
RTVSPropertyOp11
 70
     1
102
RTVSPropertyOp12
 70
     1
102
RTVSPropertyOp13
 70
     1
102
RTVSPropertyOp14
 70
     1
102
RTVSPropertyOp15
 70
     1
102
RTVSPropertyOp16
 70
     1
102
RTVSPropertyOp17
 70
     1
102
RTVSPropertyOp18
 70
     1
102
RTVSPropertyOp19
 70
     1
102
RTVSPropertyOp20
 70
     1
102
RTVSPropertyOp21
 70
     1
102
RTVSPropertyOp22
 70
     1
102
RTVSPropertyOp23
 70
     1
102
RTVSPropertyOp24
 70
     1
102
RTVSPropertyOp25
 70
     1
102
RTVSPropertyOp26
 70
     1
102
RTVSPropertyOp27
 70
     1
102
RTVSPropertyOp28
 70
     1
102
RTVSPropertyOp29
 70
     1
102
RTVSPropertyOp30
 70
     1
102
RTVSPropertyOp31
 70
     1
102
RTVSPropertyOp32
 70
     1
  0
XRECORD
  5
1A76
102
{ACAD_REACTORS
330
1A75
102
}
330
1A75
100
AcDbXrecord
280
     1
102
RTVSPropertyOp0
 70
     1
102
RTVSPropertyOp1
 70
     1
102
RTVSPropertyOp2
 70
     1
102
RTVSPropertyOp3
 70
     1
102
RTVSPropertyOp4
 70
     1
102
RTVSPropertyOp5
 70
     1
102
RTVSPropertyOp6
 70
     1
102
RTVSPropertyOp7
 70
     1
102
RTVSPropertyOp8
 70
     1
102
RTVSPropertyOp9
 70
     1
102
RTVSPropertyOp10
 70
     1
102
RTVSPropertyOp11
 70
     1
102
RTVSPropertyOp12
 70
     1
102
RTVSPropertyOp13
 70
     1
102
RTVSPropertyOp14
 70
     1
102
RTVSPropertyOp15
 70
     1
102
RTVSPropertyOp16
 70
     1
102
RTVSPropertyOp17
 70
     1
102
RTVSPropertyOp18
 70
     1
102
RTVSPropertyOp19
 70
     1
102
RTVSPropertyOp20
 70
     1
102
RTVSPropertyOp21
 70
     1
102
RTVSPropertyOp22
 70
     1
102
RTVSPropertyOp23
 70
     1
102
RTVSPropertyOp24
 70
     1
102
RTVSPropertyOp25
 70
     1
102
RTVSPropertyOp26
 70
     1
102
RTVSPropertyOp27
 70
     1
102
RTVSPropertyOp28
 70
     1
102
RTVSPropertyOp29
 70
     1
102
RTVSPropertyOp30
 70
     1
102
RTVSPropertyOp31
 70
     1
102
RTVSPropertyOp32
 70
     1
  0
XRECORD
  5
1A78
102
{ACAD_REACTORS
330
1A77
102
}
330
1A77
100
AcDbXrecord
280
     1
102
RTVSPropertyOp0
 70
     1
102
RTVSPropertyOp1
 70
     1
102
RTVSPropertyOp2
 70
     1
102
RTVSPropertyOp3
 70
     1
102
RTVSPropertyOp4
 70
     1
102
RTVSPropertyOp5
 70
     1
102
RTVSPropertyOp6
 70
     1
102
RTVSPropertyOp7
 70
     1
102
RTVSPropertyOp8
 70
     1
102
RTVSPropertyOp9
 70
     1
102
RTVSPropertyOp10
 70
     1
102
RTVSPropertyOp11
 70
     1
102
RTVSPropertyOp12
 70
     1
102
RTVSPropertyOp13
 70
     1
102
RTVSPropertyOp14
 70
     1
102
RTVSPropertyOp15
 70
     1
102
RTVSPropertyOp16
 70
     1
102
RTVSPropertyOp17
 70
     1
102
RTVSPropertyOp18
 70
     1
102
RTVSPropertyOp19
 70
     1
102
RTVSPropertyOp20
 70
     1
102
RTVSPropertyOp21
 70
     1
102
RTVSPropertyOp22
 70
     1
102
RTVSPropertyOp23
 70
     1
102
RTVSPropertyOp24
 70
     1
102
RTVSPropertyOp25
 70
     1
102
RTVSPropertyOp26
 70
     1
102
RTVSPropertyOp27
 70
     1
102
RTVSPropertyOp28
 70
     1
102
RTVSPropertyOp29
 70
     1
102
RTVSPropertyOp30
 70
     1
102
RTVSPropertyOp31
 70
     1
102
RTVSPropertyOp32
 70
     1
  0
XRECORD
  5
1A7A
102
{ACAD_REACTORS
330
1A79
102
}
330
1A79
100
AcDbXrecord
280
     1
102
RTVSPropertyOp0
 70
     1
102
RTVSPropertyOp1
 70
     1
102
RTVSPropertyOp2
 70
     1
102
RTVSPropertyOp3
 70
     1
102
RTVSPropertyOp4
 70
     1
102
RTVSPropertyOp5
 70
     1
102
RTVSPropertyOp6
 70
     1
102
RTVSPropertyOp7
 70
     1
102
RTVSPropertyOp8
 70
     1
102
RTVSPropertyOp9
 70
     1
102
RTVSPropertyOp10
 70
     1
102
RTVSPropertyOp11
 70
     1
102
RTVSPropertyOp12
 70
     1
102
RTVSPropertyOp13
 70
     1
102
RTVSPropertyOp14
 70
     1
102
RTVSPropertyOp15
 70
     1
102
RTVSPropertyOp16
 70
     1
102
RTVSPropertyOp17
 70
     1
102
RTVSPropertyOp18
 70
     1
102
RTVSPropertyOp19
 70
     1
102
RTVSPropertyOp20
 70
     1
102
RTVSPropertyOp21
 70
     1
102
RTVSPropertyOp22
 70
     1
102
RTVSPropertyOp23
 70
     1
102
RTVSPropertyOp24
 70
     1
102
RTVSPropertyOp25
 70
     1
102
RTVSPropertyOp26
 70
     1
102
RTVSPropertyOp27
 70
     1
102
RTVSPropertyOp28
 70
     1
102
RTVSPropertyOp29
 70
     1
102
RTVSPropertyOp30
 70
     1
102
RTVSPropertyOp31
 70
     1
102
RTVSPropertyOp32
 70
     1
  0
XRECORD
  5
1A7C
102
{ACAD_REACTORS
330
1A7B
102
}
330
1A7B
100
AcDbXrecord
280
     1
102
RTVSPropertyOp0
 70
     1
102
RTVSPropertyOp1
 70
     1
102
RTVSPropertyOp2
 70
     1
102
RTVSPropertyOp3
 70
     1
102
RTVSPropertyOp4
 70
     1
102
RTVSPropertyOp5
 70
     1
102
RTVSPropertyOp6
 70
     1
102
RTVSPropertyOp7
 70
     1
102
RTVSPropertyOp8
 70
     1
102
RTVSPropertyOp9
 70
     1
102
RTVSPropertyOp10
 70
     1
102
RTVSPropertyOp11
 70
     1
102
RTVSPropertyOp12
 70
     1
102
RTVSPropertyOp13
 70
     1
102
RTVSPropertyOp14
 70
     1
102
RTVSPropertyOp15
 70
     1
102
RTVSPropertyOp16
 70
     1
102
RTVSPropertyOp17
 70
     1
102
RTVSPropertyOp18
 70
     1
102
RTVSPropertyOp19
 70
     1
102
RTVSPropertyOp20
 70
     1
102
RTVSPropertyOp21
 70
     1
102
RTVSPropertyOp22
 70
     1
102
RTVSPropertyOp23
 70
     1
102
RTVSPropertyOp24
 70
     1
102
RTVSPropertyOp25
 70
     1
102
RTVSPropertyOp26
 70
     1
102
RTVSPropertyOp27
 70
     1
102
RTVSPropertyOp28
 70
     1
102
RTVSPropertyOp29
 70
     1
102
RTVSPropertyOp30
 70
     1
102
RTVSPropertyOp31
 70
     1
102
RTVSPropertyOp32
 70
     1
  0
XRECORD
  5
1A84
102
{ACAD_REACTORS
330
1A83
102
}
330
1A83
100
AcDbXrecord
280
     1
102
RTVSPropertyOp0
 70
     1
102
RTVSPropertyOp1
 70
     1
102
RTVSPropertyOp2
 70
     1
102
RTVSPropertyOp3
 70
     1
102
RTVSPropertyOp4
 70
     1
102
RTVSPropertyOp5
 70
     1
102
RTVSPropertyOp6
 70
     1
102
RTVSPropertyOp7
 70
     1
102
RTVSPropertyOp8
 70
     1
102
RTVSPropertyOp9
 70
     1
102
RTVSPropertyOp10
 70
     1
102
RTVSPropertyOp11
 70
     1
102
RTVSPropertyOp12
 70
     1
102
RTVSPropertyOp13
 70
     1
102
RTVSPropertyOp14
 70
     1
102
RTVSPropertyOp15
 70
     1
102
RTVSPropertyOp16
 70
     1
102
RTVSPropertyOp17
 70
     1
102
RTVSPropertyOp18
 70
     1
102
RTVSPropertyOp19
 70
     1
102
RTVSPropertyOp20
 70
     1
102
RTVSPropertyOp21
 70
     1
102
RTVSPropertyOp22
 70
     1
102
RTVSPropertyOp23
 70
     1
102
RTVSPropertyOp24
 70
     1
102
RTVSPropertyOp25
 70
     1
102
RTVSPropertyOp26
 70
     1
102
RTVSPropertyOp27
 70
     1
102
RTVSPropertyOp28
 70
     1
102
RTVSPropertyOp29
 70
     1
102
RTVSPropertyOp30
 70
     1
102
RTVSPropertyOp31
 70
     1
102
RTVSPropertyOp32
 70
     1
  0
XRECORD
  5
1AA0
102
{ACAD_REACTORS
330
1A9F
102
}
330
1A9F
100
AcDbXrecord
280
     1
102
RTVSPropertyOp0
 70
     0
102
RTVSPropertyOp1
 70
     0
102
RTVSPropertyOp2
 70
     0
102
RTVSPropertyOp3
 70
     0
102
RTVSPropertyOp4
 70
     0
102
RTVSPropertyOp5
 70
     0
102
RTVSPropertyOp6
 70
     0
102
RTVSPropertyOp7
 70
     0
102
RTVSPropertyOp8
 70
     0
102
RTVSPropertyOp9
 70
     0
102
RTVSPropertyOp10
 70
     0
102
RTVSPropertyOp11
 70
     0
102
RTVSPropertyOp12
 70
     0
102
RTVSPropertyOp13
 70
     0
102
RTVSPropertyOp14
 70
     2
102
RTVSPropertyOp15
 70
     0
102
RTVSPropertyOp16
 70
     0
102
RTVSPropertyOp17
 70
     0
102
RTVSPropertyOp18
 70
     0
102
RTVSPropertyOp19
 70
     0
102
RTVSPropertyOp20
 70
     0
102
RTVSPropertyOp21
 70
     0
102
RTVSPropertyOp22
 70
     0
102
RTVSPropertyOp23
 70
     0
102
RTVSPropertyOp24
 70
     0
102
RTVSPropertyOp25
 70
     0
102
RTVSPropertyOp26
 70
     0
102
RTVSPropertyOp27
 70
     0
102
RTVSPropertyOp28
 70
     0
102
RTVSPropertyOp29
 70
     0
102
RTVSPropertyOp30
 70
     0
102
RTVSPropertyOp31
 70
     0
102
RTVSPropertyOp32
 70
     0
  0
XRECORD
  5
1A90
102
{ACAD_REACTORS
330
1A8F
102
}
330
1A8F
100
AcDbXrecord
280
     1
102
RTVSPropertyOp0
 70
     1
102
RTVSPropertyOp1
 70
     1
102
RTVSPropertyOp2
 70
     1
102
RTVSPropertyOp3
 70
     1
102
RTVSPropertyOp4
 70
     1
102
RTVSPropertyOp5
 70
     1
102
RTVSPropertyOp6
 70
     1
102
RTVSPropertyOp7
 70
     1
102
RTVSPropertyOp8
 70
     1
102
RTVSPropertyOp9
 70
     1
102
RTVSPropertyOp10
 70
     1
102
RTVSPropertyOp11
 70
     1
102
RTVSPropertyOp12
 70
     1
102
RTVSPropertyOp13
 70
     1
102
RTVSPropertyOp14
 70
     1
102
RTVSPropertyOp15
 70
     1
102
RTVSPropertyOp16
 70
     1
102
RTVSPropertyOp17
 70
     1
102
RTVSPropertyOp18
 70
     1
102
RTVSPropertyOp19
 70
     1
102
RTVSPropertyOp20
 70
     1
102
RTVSPropertyOp21
 70
     1
102
RTVSPropertyOp22
 70
     1
102
RTVSPropertyOp23
 70
     1
102
RTVSPropertyOp24
 70
     1
102
RTVSPropertyOp25
 70
     1
102
RTVSPropertyOp26
 70
     1
102
RTVSPropertyOp27
 70
     1
102
RTVSPropertyOp28
 70
     1
102
RTVSPropertyOp29
 70
     1
102
RTVSPropertyOp30
 70
     1
102
RTVSPropertyOp31
 70
     1
102
RTVSPropertyOp32
 70
     1
  0
XRECORD
  5
1AA2
102
{ACAD_REACTORS
330
1AA1
102
}
330
1AA1
100
AcDbXrecord
280
     1
102
RTVSPropertyOp0
 70
     0
102
RTVSPropertyOp1
 70
     0
102
RTVSPropertyOp2
 70
     0
102
RTVSPropertyOp3
 70
     0
102
RTVSPropertyOp4
 70
     0
102
RTVSPropertyOp5
 70
     0
102
RTVSPropertyOp6
 70
     0
102
RTVSPropertyOp7
 70
     0
102
RTVSPropertyOp8
 70
     0
102
RTVSPropertyOp9
 70
     0
102
RTVSPropertyOp10
 70
     0
102
RTVSPropertyOp11
 70
     0
102
RTVSPropertyOp12
 70
     0
102
RTVSPropertyOp13
 70
     0
102
RTVSPropertyOp14
 70
     2
102
RTVSPropertyOp15
 70
     0
102
RTVSPropertyOp16
 70
     0
102
RTVSPropertyOp17
 70
     0
102
RTVSPropertyOp18
 70
     0
102
RTVSPropertyOp19
 70
     0
102
RTVSPropertyOp20
 70
     0
102
RTVSPropertyOp21
 70
     0
102
RTVSPropertyOp22
 70
     0
102
RTVSPropertyOp23
 70
     0
102
RTVSPropertyOp24
 70
     0
102
RTVSPropertyOp25
 70
     0
102
RTVSPropertyOp26
 70
     0
102
RTVSPropertyOp27
 70
     0
102
RTVSPropertyOp28
 70
     0
102
RTVSPropertyOp29
 70
     0
102
RTVSPropertyOp30
 70
     0
102
RTVSPropertyOp31
 70
     0
102
RTVSPropertyOp32
 70
     0
  0
XRECORD
  5
1A88
102
{ACAD_REACTORS
330
1A87
102
}
330
1A87
100
AcDbXrecord
280
     1
102
RTVSPropertyOp0
 70
     1
102
RTVSPropertyOp1
 70
     1
102
RTVSPropertyOp2
 70
     1
102
RTVSPropertyOp3
 70
     1
102
RTVSPropertyOp4
 70
     1
102
RTVSPropertyOp5
 70
     1
102
RTVSPropertyOp6
 70
     1
102
RTVSPropertyOp7
 70
     1
102
RTVSPropertyOp8
 70
     1
102
RTVSPropertyOp9
 70
     1
102
RTVSPropertyOp10
 70
     1
102
RTVSPropertyOp11
 70
     1
102
RTVSPropertyOp12
 70
     1
102
RTVSPropertyOp13
 70
     1
102
RTVSPropertyOp14
 70
     1
102
RTVSPropertyOp15
 70
     1
102
RTVSPropertyOp16
 70
     1
102
RTVSPropertyOp17
 70
     1
102
RTVSPropertyOp18
 70
     1
102
RTVSPropertyOp19
 70
     1
102
RTVSPropertyOp20
 70
     1
102
RTVSPropertyOp21
 70
     1
102
RTVSPropertyOp22
 70
     1
102
RTVSPropertyOp23
 70
     1
102
RTVSPropertyOp24
 70
     1
102
RTVSPropertyOp25
 70
     1
102
RTVSPropertyOp26
 70
     1
102
RTVSPropertyOp27
 70
     1
102
RTVSPropertyOp28
 70
     1
102
RTVSPropertyOp29
 70
     1
102
RTVSPropertyOp30
 70
     1
102
RTVSPropertyOp31
 70
     1
102
RTVSPropertyOp32
 70
     1
  0
XRECORD
  5
1A9E
102
{ACAD_REACTORS
330
1A9D
102
}
330
1A9D
100
AcDbXrecord
280
     1
102
RTVSPropertyOp0
 70
     1
102
RTVSPropertyOp1
 70
     1
102
RTVSPropertyOp2
 70
     1
102
RTVSPropertyOp3
 70
     1
102
RTVSPropertyOp4
 70
     1
102
RTVSPropertyOp5
 70
     1
102
RTVSPropertyOp6
 70
     1
102
RTVSPropertyOp7
 70
     1
102
RTVSPropertyOp8
 70
     1
102
RTVSPropertyOp9
 70
     1
102
RTVSPropertyOp10
 70
     1
102
RTVSPropertyOp11
 70
     1
102
RTVSPropertyOp12
 70
     1
102
RTVSPropertyOp13
 70
     1
102
RTVSPropertyOp14
 70
     1
102
RTVSPropertyOp15
 70
     1
102
RTVSPropertyOp16
 70
     1
102
RTVSPropertyOp17
 70
     1
102
RTVSPropertyOp18
 70
     1
102
RTVSPropertyOp19
 70
     1
102
RTVSPropertyOp20
 70
     1
102
RTVSPropertyOp21
 70
     1
102
RTVSPropertyOp22
 70
     1
102
RTVSPropertyOp23
 70
     1
102
RTVSPropertyOp24
 70
     1
102
RTVSPropertyOp25
 70
     1
102
RTVSPropertyOp26
 70
     1
102
RTVSPropertyOp27
 70
     1
102
RTVSPropertyOp28
 70
     1
102
RTVSPropertyOp29
 70
     1
102
RTVSPropertyOp30
 70
     1
102
RTVSPropertyOp31
 70
     1
102
RTVSPropertyOp32
 70
     1
  0
XRECORD
  5
1A9C
102
{ACAD_REACTORS
330
1A9B
102
}
330
1A9B
100
AcDbXrecord
280
     1
102
RTVSPropertyOp0
 70
     1
102
RTVSPropertyOp1
 70
     1
102
RTVSPropertyOp2
 70
     1
102
RTVSPropertyOp3
 70
     1
102
RTVSPropertyOp4
 70
     1
102
RTVSPropertyOp5
 70
     1
102
RTVSPropertyOp6
 70
     1
102
RTVSPropertyOp7
 70
     1
102
RTVSPropertyOp8
 70
     1
102
RTVSPropertyOp9
 70
     1
102
RTVSPropertyOp10
 70
     1
102
RTVSPropertyOp11
 70
     1
102
RTVSPropertyOp12
 70
     1
102
RTVSPropertyOp13
 70
     1
102
RTVSPropertyOp14
 70
     1
102
RTVSPropertyOp15
 70
     1
102
RTVSPropertyOp16
 70
     1
102
RTVSPropertyOp17
 70
     1
102
RTVSPropertyOp18
 70
     1
102
RTVSPropertyOp19
 70
     1
102
RTVSPropertyOp20
 70
     1
102
RTVSPropertyOp21
 70
     1
102
RTVSPropertyOp22
 70
     1
102
RTVSPropertyOp23
 70
     1
102
RTVSPropertyOp24
 70
     1
102
RTVSPropertyOp25
 70
     1
102
RTVSPropertyOp26
 70
     1
102
RTVSPropertyOp27
 70
     1
102
RTVSPropertyOp28
 70
     1
102
RTVSPropertyOp29
 70
     1
102
RTVSPropertyOp30
 70
     1
102
RTVSPropertyOp31
 70
     1
102
RTVSPropertyOp32
 70
     1
  0
XRECORD
  5
1A96
102
{ACAD_REACTORS
330
1A95
102
}
330
1A95
100
AcDbXrecord
280
     1
102
RTVSPropertyOp0
 70
     1
102
RTVSPropertyOp1
 70
     1
102
RTVSPropertyOp2
 70
     1
102
RTVSPropertyOp3
 70
     1
102
RTVSPropertyOp4
 70
     1
102
RTVSPropertyOp5
 70
     1
102
RTVSPropertyOp6
 70
     1
102
RTVSPropertyOp7
 70
     1
102
RTVSPropertyOp8
 70
     1
102
RTVSPropertyOp9
 70
     1
102
RTVSPropertyOp10
 70
     1
102
RTVSPropertyOp11
 70
     1
102
RTVSPropertyOp12
 70
     1
102
RTVSPropertyOp13
 70
     1
102
RTVSPropertyOp14
 70
     1
102
RTVSPropertyOp15
 70
     1
102
RTVSPropertyOp16
 70
     1
102
RTVSPropertyOp17
 70
     1
102
RTVSPropertyOp18
 70
     1
102
RTVSPropertyOp19
 70
     1
102
RTVSPropertyOp20
 70
     1
102
RTVSPropertyOp21
 70
     1
102
RTVSPropertyOp22
 70
     1
102
RTVSPropertyOp23
 70
     1
102
RTVSPropertyOp24
 70
     1
102
RTVSPropertyOp25
 70
     1
102
RTVSPropertyOp26
 70
     1
102
RTVSPropertyOp27
 70
     1
102
RTVSPropertyOp28
 70
     1
102
RTVSPropertyOp29
 70
     1
102
RTVSPropertyOp30
 70
     1
102
RTVSPropertyOp31
 70
     1
102
RTVSPropertyOp32
 70
     1
  0
XRECORD
  5
1A98
102
{ACAD_REACTORS
330
1A97
102
}
330
1A97
100
AcDbXrecord
280
     1
102
RTVSPropertyOp0
 70
     1
102
RTVSPropertyOp1
 70
     1
102
RTVSPropertyOp2
 70
     1
102
RTVSPropertyOp3
 70
     1
102
RTVSPropertyOp4
 70
     1
102
RTVSPropertyOp5
 70
     1
102
RTVSPropertyOp6
 70
     1
102
RTVSPropertyOp7
 70
     1
102
RTVSPropertyOp8
 70
     1
102
RTVSPropertyOp9
 70
     1
102
RTVSPropertyOp10
 70
     1
102
RTVSPropertyOp11
 70
     1
102
RTVSPropertyOp12
 70
     1
102
RTVSPropertyOp13
 70
     1
102
RTVSPropertyOp14
 70
     1
102
RTVSPropertyOp15
 70
     1
102
RTVSPropertyOp16
 70
     1
102
RTVSPropertyOp17
 70
     1
102
RTVSPropertyOp18
 70
     1
102
RTVSPropertyOp19
 70
     1
102
RTVSPropertyOp20
 70
     1
102
RTVSPropertyOp21
 70
     1
102
RTVSPropertyOp22
 70
     1
102
RTVSPropertyOp23
 70
     1
102
RTVSPropertyOp24
 70
     1
102
RTVSPropertyOp25
 70
     1
102
RTVSPropertyOp26
 70
     1
102
RTVSPropertyOp27
 70
     1
102
RTVSPropertyOp28
 70
     1
102
RTVSPropertyOp29
 70
     1
102
RTVSPropertyOp30
 70
     1
102
RTVSPropertyOp31
 70
     1
102
RTVSPropertyOp32
 70
     1
  0
XRECORD
  5
1A8E
102
{ACAD_REACTORS
330
1A8D
102
}
330
1A8D
100
AcDbXrecord
280
     1
102
RTVSPropertyOp0
 70
     1
102
RTVSPropertyOp1
 70
     1
102
RTVSPropertyOp2
 70
     1
102
RTVSPropertyOp3
 70
     1
102
RTVSPropertyOp4
 70
     1
102
RTVSPropertyOp5
 70
     1
102
RTVSPropertyOp6
 70
     1
102
RTVSPropertyOp7
 70
     1
102
RTVSPropertyOp8
 70
     1
102
RTVSPropertyOp9
 70
     1
102
RTVSPropertyOp10
 70
     1
102
RTVSPropertyOp11
 70
     1
102
RTVSPropertyOp12
 70
     1
102
RTVSPropertyOp13
 70
     1
102
RTVSPropertyOp14
 70
     1
102
RTVSPropertyOp15
 70
     1
102
RTVSPropertyOp16
 70
     1
102
RTVSPropertyOp17
 70
     1
102
RTVSPropertyOp18
 70
     1
102
RTVSPropertyOp19
 70
     1
102
RTVSPropertyOp20
 70
     1
102
RTVSPropertyOp21
 70
     1
102
RTVSPropertyOp22
 70
     1
102
RTVSPropertyOp23
 70
     1
102
RTVSPropertyOp24
 70
     1
102
RTVSPropertyOp25
 70
     1
102
RTVSPropertyOp26
 70
     1
102
RTVSPropertyOp27
 70
     1
102
RTVSPropertyOp28
 70
     1
102
RTVSPropertyOp29
 70
     1
102
RTVSPropertyOp30
 70
     1
102
RTVSPropertyOp31
 70
     1
102
RTVSPropertyOp32
 70
     1
  0
XRECORD
  5
1A82
102
{ACAD_REACTORS
330
1A81
102
}
330
1A81
100
AcDbXrecord
280
     1
102
RTVSPropertyOp0
 70
     1
102
RTVSPropertyOp1
 70
     1
102
RTVSPropertyOp2
 70
     1
102
RTVSPropertyOp3
 70
     1
102
RTVSPropertyOp4
 70
     1
102
RTVSPropertyOp5
 70
     1
102
RTVSPropertyOp6
 70
     1
102
RTVSPropertyOp7
 70
     1
102
RTVSPropertyOp8
 70
     1
102
RTVSPropertyOp9
 70
     1
102
RTVSPropertyOp10
 70
     1
102
RTVSPropertyOp11
 70
     1
102
RTVSPropertyOp12
 70
     1
102
RTVSPropertyOp13
 70
     1
102
RTVSPropertyOp14
 70
     1
102
RTVSPropertyOp15
 70
     1
102
RTVSPropertyOp16
 70
     1
102
RTVSPropertyOp17
 70
     1
102
RTVSPropertyOp18
 70
     1
102
RTVSPropertyOp19
 70
     1
102
RTVSPropertyOp20
 70
     1
102
RTVSPropertyOp21
 70
     1
102
RTVSPropertyOp22
 70
     1
102
RTVSPropertyOp23
 70
     1
102
RTVSPropertyOp24
 70
     1
102
RTVSPropertyOp25
 70
     1
102
RTVSPropertyOp26
 70
     1
102
RTVSPropertyOp27
 70
     1
102
RTVSPropertyOp28
 70
     1
102
RTVSPropertyOp29
 70
     1
102
RTVSPropertyOp30
 70
     1
102
RTVSPropertyOp31
 70
     1
102
RTVSPropertyOp32
 70
     1
  0
XRECORD
  5
1A9A
102
{ACAD_REACTORS
330
1A99
102
}
330
1A99
100
AcDbXrecord
280
     1
102
RTVSPropertyOp0
 70
     1
102
RTVSPropertyOp1
 70
     1
102
RTVSPropertyOp2
 70
     1
102
RTVSPropertyOp3
 70
     1
102
RTVSPropertyOp4
 70
     1
102
RTVSPropertyOp5
 70
     1
102
RTVSPropertyOp6
 70
     1
102
RTVSPropertyOp7
 70
     1
102
RTVSPropertyOp8
 70
     1
102
RTVSPropertyOp9
 70
     1
102
RTVSPropertyOp10
 70
     1
102
RTVSPropertyOp11
 70
     1
102
RTVSPropertyOp12
 70
     1
102
RTVSPropertyOp13
 70
     1
102
RTVSPropertyOp14
 70
     1
102
RTVSPropertyOp15
 70
     1
102
RTVSPropertyOp16
 70
     1
102
RTVSPropertyOp17
 70
     1
102
RTVSPropertyOp18
 70
     1
102
RTVSPropertyOp19
 70
     1
102
RTVSPropertyOp20
 70
     1
102
RTVSPropertyOp21
 70
     1
102
RTVSPropertyOp22
 70
     1
102
RTVSPropertyOp23
 70
     1
102
RTVSPropertyOp24
 70
     1
102
RTVSPropertyOp25
 70
     1
102
RTVSPropertyOp26
 70
     1
102
RTVSPropertyOp27
 70
     1
102
RTVSPropertyOp28
 70
     1
102
RTVSPropertyOp29
 70
     1
102
RTVSPropertyOp30
 70
     1
102
RTVSPropertyOp31
 70
     1
102
RTVSPropertyOp32
 70
     1
  0
ENDSEC
  0
EOF
