  0
SECTION
  2
HEADER
  9
$ACADVER
  1
AC1015
  9
$ACADMAINTVER
 70
    20
  9
$DWGCODEPAGE
  3
ANSI_1258
  9
$INSBASE
 10
0.0
 20
0.0
 30
0.0
  9
$EXTMIN
 10
-161.7686707776918
 20
41.4925445522121
 30
0.0
  9
$EXTMAX
 10
-161.1777457167026
 20
41.79490043799841
 30
0.0
  9
$LIMMIN
 10
0.0
 20
0.0
  9
$LIMMAX
 10
12.0
 20
9.0
  9
$ORTHOMODE
 70
     1
  9
$REGENMODE
 70
     1
  9
$FILLMODE
 70
     1
  9
$QTEXTMODE
 70
     0
  9
$MIRRTEXT
 70
     0
  9
$LTSCALE
 40
0.04
  9
$ATTMODE
 70
     1
  9
$TEXTSIZE
 40
0.2
  9
$TRACEWID
 40
0.05
  9
$TEXTSTYLE
  7
Standard
  9
$CLAYER
  8
0
  9
$CELTYPE
  6
ByLayer
  9
$CECOLOR
 62
   256
  9
$CELTSCALE
 40
1.0
  9
$DISPSILH
 70
     0
  9
$DIMSCALE
 40
1.0
  9
$DIMASZ
 40
0.18
  9
$DIMEXO
 40
0.0625
  9
$DIMDLI
 40
0.38
  9
$DIMRND
 40
0.0
  9
$DIMDLE
 40
0.0
  9
$DIMEXE
 40
0.18
  9
$DIMTP
 40
0.0
  9
$DIMTM
 40
0.0
  9
$DIMTXT
 40
0.18
  9
$DIMCEN
 40
0.09
  9
$DIMTSZ
 40
0.0
  9
$DIMTOL
 70
     0
  9
$DIMLIM
 70
     0
  9
$DIMTIH
 70
     1
  9
$DIMTOH
 70
     1
  9
$DIMSE1
 70
     0
  9
$DIMSE2
 70
     0
  9
$DIMTAD
 70
     0
  9
$DIMZIN
 70
     0
  9
$DIMBLK
  1

  9
$DIMASO
 70
     1
  9
$DIMSHO
 70
     1
  9
$DIMPOST
  1

  9
$DIMAPOST
  1

  9
$DIMALT
 70
     0
  9
$DIMALTD
 70
     2
  9
$DIMALTF
 40
25.4
  9
$DIMLFAC
 40
1.0
  9
$DIMTOFL
 70
     0
  9
$DIMTVP
 40
0.0
  9
$DIMTIX
 70
     0
  9
$DIMSOXD
 70
     0
  9
$DIMSAH
 70
     0
  9
$DIMBLK1
  1

  9
$DIMBLK2
  1

  9
$DIMSTYLE
  2
Standard
  9
$DIMCLRD
 70
     0
  9
$DIMCLRE
 70
     0
  9
$DIMCLRT
 70
     0
  9
$DIMTFAC
 40
1.0
  9
$DIMGAP
 40
0.09
  9
$DIMJUST
 70
     0
  9
$DIMSD1
 70
     0
  9
$DIMSD2
 70
     0
  9
$DIMTOLJ
 70
     1
  9
$DIMTZIN
 70
     0
  9
$DIMALTZ
 70
     0
  9
$DIMALTTZ
 70
     0
  9
$DIMUPT
 70
     0
  9
$DIMDEC
 70
     4
  9
$DIMTDEC
 70
     4
  9
$DIMALTU
 70
     4
  9
$DIMALTTD
 70
     2
  9
$DIMTXSTY
  7
Standard
  9
$DIMAUNIT
 70
     0
  9
$DIMADEC
 70
     0
  9
$DIMALTRND
 40
0.0
  9
$DIMAZIN
 70
     0
  9
$DIMDSEP
 70
    46
  9
$DIMATFIT
 70
     3
  9
$DIMFRAC
 70
     0
  9
$DIMLDRBLK
  1

  9
$DIMLUNIT
 70
     4
  9
$DIMLWD
 70
    -2
  9
$DIMLWE
 70
    -2
  9
$DIMTMOVE
 70
     0
  9
$LUNITS
 70
     4
  9
$LUPREC
 70
     4
  9
$SKETCHINC
 40
0.1
  9
$FILLETRAD
 40
0.0
  9
$AUNITS
 70
     0
  9
$AUPREC
 70
     0
  9
$MENU
  1
.
  9
$ELEVATION
 40
0.0
  9
$PELEVATION
 40
0.0
  9
$THICKNESS
 40
0.0
  9
$LIMCHECK
 70
     0
  9
$CHAMFERA
 40
0.0
  9
$CHAMFERB
 40
0.0
  9
$CHAMFERC
 40
0.0
  9
$CHAMFERD
 40
0.0
  9
$SKPOLY
 70
     0
  9
$TDCREATE
 40
2456195.353039664
  9
$TDUCREATE
 40
2456195.061372998
  9
$TDUPDATE
 40
2456197.437873392
  9
$TDUUPDATE
 40
2456197.146206724
  9
$TDINDWG
 40
0.2682249074
  9
$TDUSRTIMER
 40
0.2682249074
  9
$USRTIMER
 70
     1
  9
$ANGBASE
 50
0.0
  9
$ANGDIR
 70
     0
  9
$PDMODE
 70
     0
  9
$PDSIZE
 40
0.0
  9
$PLINEWID
 40
0.0
  9
$SPLFRAME
 70
     0
  9
$SPLINETYPE
 70
     6
  9
$SPLINESEGS
 70
     8
  9
$HANDSEED
  5
62BF
  9
$SURFTAB1
 70
     6
  9
$SURFTAB2
 70
     6
  9
$SURFTYPE
 70
     6
  9
$SURFU
 70
     6
  9
$SURFV
 70
     6
  9
$UCSBASE
  2

  9
$UCSNAME
  2

  9
$UCSORG
 10
0.0
 20
0.0
 30
0.0
  9
$UCSXDIR
 10
1.0
 20
0.0
 30
0.0
  9
$UCSYDIR
 10
0.0
 20
1.0
 30
0.0
  9
$UCSORTHOREF
  2

  9
$UCSORTHOVIEW
 70
     0
  9
$UCSORGTOP
 10
0.0
 20
0.0
 30
0.0
  9
$UCSORGBOTTOM
 10
0.0
 20
0.0
 30
0.0
  9
$UCSORGLEFT
 10
0.0
 20
0.0
 30
0.0
  9
$UCSORGRIGHT
 10
0.0
 20
0.0
 30
0.0
  9
$UCSORGFRONT
 10
0.0
 20
0.0
 30
0.0
  9
$UCSORGBACK
 10
0.0
 20
0.0
 30
0.0
  9
$PUCSBASE
  2

  9
$PUCSNAME
  2

  9
$PUCSORG
 10
0.0
 20
0.0
 30
0.0
  9
$PUCSXDIR
 10
1.0
 20
0.0
 30
0.0
  9
$PUCSYDIR
 10
0.0
 20
1.0
 30
0.0
  9
$PUCSORTHOREF
  2

  9
$PUCSORTHOVIEW
 70
     0
  9
$PUCSORGTOP
 10
0.0
 20
0.0
 30
0.0
  9
$PUCSORGBOTTOM
 10
0.0
 20
0.0
 30
0.0
  9
$PUCSORGLEFT
 10
0.0
 20
0.0
 30
0.0
  9
$PUCSORGRIGHT
 10
0.0
 20
0.0
 30
0.0
  9
$PUCSORGFRONT
 10
0.0
 20
0.0
 30
0.0
  9
$PUCSORGBACK
 10
0.0
 20
0.0
 30
0.0
  9
$USERI1
 70
     0
  9
$USERI2
 70
     0
  9
$USERI3
 70
     0
  9
$USERI4
 70
     0
  9
$USERI5
 70
     0
  9
$USERR1
 40
0.0
  9
$USERR2
 40
0.0
  9
$USERR3
 40
0.0
  9
$USERR4
 40
0.0
  9
$USERR5
 40
0.0
  9
$WORLDVIEW
 70
     1
  9
$SHADEDGE
 70
     3
  9
$SHADEDIF
 70
    70
  9
$TILEMODE
 70
     1
  9
$MAXACTVP
 70
    64
  9
$PINSBASE
 10
0.0
 20
0.0
 30
0.0
  9
$PLIMCHECK
 70
     0
  9
$PEXTMIN
 10
1.000000000000000E+20
 20
1.000000000000000E+20
 30
1.000000000000000E+20
  9
$PEXTMAX
 10
-1.000000000000000E+20
 20
-1.000000000000000E+20
 30
-1.000000000000000E+20
  9
$PLIMMIN
 10
0.0
 20
0.0
  9
$PLIMMAX
 10
12.0
 20
9.0
  9
$UNITMODE
 70
     0
  9
$VISRETAIN
 70
     1
  9
$PLINEGEN
 70
     0
  9
$PSLTSCALE
 70
     1
  9
$TREEDEPTH
 70
  3020
  9
$CMLSTYLE
  2
Standard
  9
$CMLJUST
 70
     0
  9
$CMLSCALE
 40
1.0
  9
$PROXYGRAPHICS
 70
     1
  9
$MEASUREMENT
 70
     0
  9
$CELWEIGHT
370
    -1
  9
$ENDCAPS
280
     0
  9
$JOINSTYLE
280
     0
  9
$LWDISPLAY
290
     0
  9
$INSUNITS
 70
     1
  9
$HYPERLINKBASE
  1

  9
$STYLESHEET
  1

  9
$XEDIT
290
     1
  9
$CEPSNTYPE
380
     0
  9
$PSTYLEMODE
290
     1
  9
$FINGERPRINTGUID
  2
{0680FE68-6438-4259-BC61-6109332EC3D6}
  9
$VERSIONGUID
  2
{92D64F9D-2031-4490-90AD-16A3A2D93BDD}
  9
$EXTNAMES
290
     1
  9
$PSVPSCALE
 40
0.0
  9
$OLESTARTUP
290
     0
  0
ENDSEC
  0
SECTION
  2
CLASSES
  0
CLASS
  1
ACDBDICTIONARYWDFLT
  2
AcDbDictionaryWithDefault
  3
ObjectDBX Classes
 90
        0
280
     0
281
     0
  0
CLASS
  1
MATERIAL
  2
AcDbMaterial
  3
ObjectDBX Classes
 90
     1153
280
     0
281
     0
  0
CLASS
  1
VISUALSTYLE
  2
AcDbVisualStyle
  3
ObjectDBX Classes
 90
     4095
280
     0
281
     0
  0
CLASS
  1
SCALE
  2
AcDbScale
  3
ObjectDBX Classes
 90
     1153
280
     0
281
     0
  0
CLASS
  1
TABLESTYLE
  2
AcDbTableStyle
  3
ObjectDBX Classes
 90
     4095
280
     0
281
     0
  0
CLASS
  1
MLEADERSTYLE
  2
AcDbMLeaderStyle
  3
ACDB_MLEADERSTYLE_CLASS
 90
     4095
280
     0
281
     0
  0
CLASS
  1
RASTERVARIABLES
  2
AcDbRasterVariables
  3
ISM
 90
        0
280
     0
281
     0
  0
CLASS
  1
DICTIONARYVAR
  2
AcDbDictionaryVar
  3
ObjectDBX Classes
 90
        0
280
     0
281
     0
  0
CLASS
  1
SORTENTSTABLE
  2
AcDbSortentsTable
  3
ObjectDBX Classes
 90
        0
280
     0
281
     0
  0
CLASS
  1
SUN
  2
AcDbSun
  3
SCENEOE
 90
     1153
280
     0
281
     0
  0
CLASS
  1
CELLSTYLEMAP
  2
AcDbCellStyleMap
  3
ObjectDBX Classes
 90
     1152
280
     0
281
     0
  0
CLASS
  1
ACDBPLACEHOLDER
  2
AcDbPlaceHolder
  3
ObjectDBX Classes
 90
        0
280
     0
281
     0
  0
CLASS
  1
LAYOUT
  2
AcDbLayout
  3
ObjectDBX Classes
 90
        0
280
     0
281
     0
  0
ENDSEC
  0
SECTION
  2
TABLES
  0
TABLE
  2
VPORT
  5
8
102
{ACAD_XDICTIONARY
360
49E7
102
}
330
0
100
AcDbSymbolTable
 70
     1
  0
VPORT
  5
57
330
8
100
AcDbSymbolTableRecord
100
AcDbViewportTableRecord
  2
*Active
 70
     0
 10
0.0
 20
0.0
 11
1.0
 21
1.0
 12
-161.5489578622189
 22
41.65971007413626
 13
0.0
 23
0.0
 14
1.0
 24
1.0
 15
0.0
 25
0.0
 16
0.0
 26
0.0
 36
1.0
 17
0.0
 27
0.0
 37
0.0
 40
0.3515489677063785
 41
1.791616766467065
 42
50.0
 43
0.0
 44
0.0
 50
0.0
 51
0.0
 71
     0
 72
  1000
 73
     1
 74
     1
 75
     0
 76
     0
 77
     0
 78
     0
281
     0
 65
     1
110
0.0
120
0.0
130
0.0
111
1.0
121
0.0
131
0.0
112
0.0
122
1.0
132
0.0
 79
     0
146
0.0
1001
ACAD_NAV_VCDISPLAY
1070
     3
  0
ENDTAB
  0
TABLE
  2
LTYPE
  5
5
330
0
100
AcDbSymbolTable
 70
     2
  0
LTYPE
  5
5B
330
5
100
AcDbSymbolTableRecord
100
AcDbLinetypeTableRecord
  2
ByBlock
 70
     0
  3

 72
    65
 73
     0
 40
0.0
  0
LTYPE
  5
5C
330
5
100
AcDbSymbolTableRecord
100
AcDbLinetypeTableRecord
  2
ByLayer
 70
     0
  3

 72
    65
 73
     0
 40
0.0
  0
LTYPE
  5
5D
330
5
100
AcDbSymbolTableRecord
100
AcDbLinetypeTableRecord
  2
Continuous
 70
     0
  3
Solid line
 72
    65
 73
     0
 40
0.0
  0
LTYPE
  5
145D
330
5
100
AcDbSymbolTableRecord
100
AcDbLinetypeTableRecord
  2
Dash
 70
     0
  3

 72
    65
 73
     2
 40
0.25
 49
0.125
 74
     0
 49
-0.125
 74
     0
  0
ENDTAB
  0
TABLE
  2
LAYER
  5
2
102
{ACAD_XDICTIONARY
360
F67
102
}
330
0
100
AcDbSymbolTable
 70
     6
  0
LAYER
  5
54
330
2
100
AcDbSymbolTableRecord
100
AcDbLayerTableRecord
  2
0
 70
     0
 62
     7
  6
Continuous
370
    -3
390
F
  0
LAYER
  5
7D
330
2
100
AcDbSymbolTableRecord
100
AcDbLayerTableRecord
  2
S-COLS
 70
     0
 62
     6
  6
Continuous
370
     5
390
F
  0
LAYER
  5
AB
330
2
100
AcDbSymbolTableRecord
100
AcDbLayerTableRecord
  2
A-GENM
 70
     0
 62
     6
  6
Continuous
370
     5
390
F
  0
LAYER
  5
F61
330
2
100
AcDbSymbolTableRecord
100
AcDbLayerTableRecord
  2
A-ANNO-TEXT
 70
     0
 62
     2
  6
Continuous
370
     9
390
F
  0
LAYER
  5
F62
330
2
100
AcDbSymbolTableRecord
100
AcDbLayerTableRecord
  2
Layer1
 70
     0
 62
     7
  6
Continuous
370
    -3
390
F
1001
AcAecLayerStandard
1000

1000

1001
AcCmTransparency
1071
        0
  0
LAYER
  5
145E
330
2
100
AcDbSymbolTableRecord
100
AcDbLayerTableRecord
  2
Hiden
 70
     0
 62
     7
  6
Dash
370
    -3
390
F
1001
AcAecLayerStandard
1000

1000

1001
AcCmTransparency
1071
        0
  0
ENDTAB
  0
TABLE
  2
STYLE
  5
3
330
0
100
AcDbSymbolTable
 70
     2
  0
STYLE
  5
55
330
3
100
AcDbSymbolTableRecord
100
AcDbTextStyleTableRecord
  2
Standard
 70
     0
 40
0.0
 41
1.0
 50
0.0
 71
     0
 42
0.2
  3
txt
  4

  0
STYLE
  5
5A
330
3
100
AcDbSymbolTableRecord
100
AcDbTextStyleTableRecord
  2
Annotative
 70
     0
 40
0.0
 41
1.0
 50
0.0
 71
     0
 42
0.2
  3
txt
  4

1001
AcadAnnotative
1000
AnnotativeData
1002
{
1070
     1
1070
     1
1002
}
  0
ENDTAB
  0
TABLE
  2
VIEW
  5
6
330
0
100
AcDbSymbolTable
 70
     0
  0
ENDTAB
  0
TABLE
  2
UCS
  5
7
330
0
100
AcDbSymbolTable
 70
     0
  0
ENDTAB
  0
TABLE
  2
APPID
  5
9
330
0
100
AcDbSymbolTable
 70
    11
  0
APPID
  5
56
330
9
100
AcDbSymbolTableRecord
100
AcDbRegAppTableRecord
  2
ACAD
 70
     0
  0
APPID
  5
5E
330
9
100
AcDbSymbolTableRecord
100
AcDbRegAppTableRecord
  2
AcadAnnotative
 70
     0
  0
APPID
  5
74
330
9
100
AcDbSymbolTableRecord
100
AcDbRegAppTableRecord
  2
REVIT
 70
     0
  0
APPID
  5
4C0
330
9
100
AcDbSymbolTableRecord
100
AcDbRegAppTableRecord
  2
ACAD_NAV_VCDISPLAY
 70
     0
  0
APPID
  5
F63
330
9
100
AcDbSymbolTableRecord
100
AcDbRegAppTableRecord
  2
AcAecLayerStandard
 70
     0
  0
APPID
  5
F64
330
9
100
AcDbSymbolTableRecord
100
AcDbRegAppTableRecord
  2
AcCmTransparency
 70
     0
  0
APPID
  5
F65
330
9
100
AcDbSymbolTableRecord
100
AcDbRegAppTableRecord
  2
GradientColor1ACI
 70
     0
  0
APPID
  5
F66
330
9
100
AcDbSymbolTableRecord
100
AcDbRegAppTableRecord
  2
GradientColor2ACI
 70
     0
  0
APPID
  5
1434
330
9
100
AcDbSymbolTableRecord
100
AcDbRegAppTableRecord
  2
ACAD_EXEMPT_FROM_CAD_STANDARDS
 70
     0
  0
APPID
  5
4A1D
330
9
100
AcDbSymbolTableRecord
100
AcDbRegAppTableRecord
  2
ACAD_MLEADERVER
 70
     0
  0
APPID
  5
4AEE
330
9
100
AcDbSymbolTableRecord
100
AcDbRegAppTableRecord
  2
_APP0
 70
     0
  0
ENDTAB
  0
TABLE
  2
DIMSTYLE
  5
A
330
0
100
AcDbSymbolTable
 70
     2
100
AcDbDimStyleTable
 71
     1
340
58
  0
DIMSTYLE
105
58
330
A
100
AcDbSymbolTableRecord
100
AcDbDimStyleTableRecord
  2
Standard
 70
     0
340
55
  0
DIMSTYLE
105
59
330
A
100
AcDbSymbolTableRecord
100
AcDbDimStyleTableRecord
  2
Annotative
 70
     0
340
55
1001
AcadAnnotative
1000
AnnotativeData
1002
{
1070
     1
1070
     1
1002
}
  0
ENDTAB
  0
TABLE
  2
BLOCK_RECORD
  5
1
330
0
100
AcDbSymbolTable
 70
     6
  0
BLOCK_RECORD
  5
6C
102
{ACAD_XDICTIONARY
360
4B3
102
}
330
1
100
AcDbSymbolTableRecord
100
AcDbBlockTableRecord
  2
*Model_Space
340
6F
  0
BLOCK_RECORD
  5
68
330
1
100
AcDbSymbolTableRecord
100
AcDbBlockTableRecord
  2
*Paper_Space
340
6B
  0
BLOCK_RECORD
  5
70
330
1
100
AcDbSymbolTableRecord
100
AcDbBlockTableRecord
  2
*Paper_Space0
340
73
  0
BLOCK_RECORD
  5
122
330
1
100
AcDbSymbolTableRecord
100
AcDbBlockTableRecord
  2
FP_1_1-Perspective D77
340
0
  0
BLOCK_RECORD
  5
135
330
1
100
AcDbSymbolTableRecord
100
AcDbBlockTableRecord
  2
FP_1_2-Perspective D77
340
0
  0
BLOCK_RECORD
  5
13F
330
1
100
AcDbSymbolTableRecord
100
AcDbBlockTableRecord
  2
FP_1_3-Perspective D77
340
0
  0
BLOCK_RECORD
  5
148
330
1
100
AcDbSymbolTableRecord
100
AcDbBlockTableRecord
  2
FP_1_4-Perspective D77
340
0
  0
ENDTAB
  0
ENDSEC
  0
SECTION
  2
BLOCKS
  0
BLOCK
  5
6D
330
6C
100
AcDbEntity
  8
0
100
AcDbBlockBegin
  2
*Model_Space
 70
     0
 10
0.0
 20
0.0
 30
0.0
  3
*Model_Space
  1

  0
ENDBLK
  5
6E
330
6C
100
AcDbEntity
  8
0
100
AcDbBlockEnd
  0
BLOCK
  5
69
330
68
100
AcDbEntity
 67
     1
  8
0
100
AcDbBlockBegin
  2
*Paper_Space
 70
     0
 10
0.0
 20
0.0
 30
0.0
  3
*Paper_Space
  1

  0
ENDBLK
  5
6A
330
68
100
AcDbEntity
 67
     1
  8
0
100
AcDbBlockEnd
  0
BLOCK
  5
71
330
70
100
AcDbEntity
 67
     1
  8
0
100
AcDbBlockBegin
  2
*Paper_Space0
 70
     0
 10
0.0
 20
0.0
 30
0.0
  3
*Paper_Space0
  1

  0
ENDBLK
  5
72
330
70
100
AcDbEntity
 67
     1
  8
0
100
AcDbBlockEnd
  0
BLOCK
  5
132
330
122
100
AcDbEntity
  8
0
100
AcDbBlockBegin
  2
FP_1_1-Perspective D77
 70
     0
 10
0.0
 20
0.0
 30
0.0
  3
FP_1_1-Perspective D77
  1

  0
LINE
  5
123
330
122
100
AcDbEntity
  8
S-COLS
100
AcDbLine
 10
-162.3469815257769
 20
41.68767031420578
 30
0.0
 11
-162.3477516779889
 21
41.69206008584067
 31
0.0
1001
REVIT
1002
{
1070
     2
1000
-2001330
1002
}
  0
LINE
  5
124
330
122
100
AcDbEntity
  8
S-COLS
100
AcDbLine
 10
-162.334166323668
 20
41.67035148029907
 30
0.0
 11
-162.3350157512841
 21
41.67526342855094
 31
0.0
1001
REVIT
1002
{
1070
     2
1000
-2001330
1002
}
  0
LINE
  5
125
330
122
100
AcDbEntity
  8
S-COLS
100
AcDbLine
 10
-162.3334163093821
 20
41.69384647220237
 30
0.0
 11
-162.3349014140585
 21
41.70249579205743
 31
0.0
1001
REVIT
1002
{
1070
     2
1000
-2001330
1002
}
  0
LINE
  5
126
330
122
100
AcDbEntity
  8
S-COLS
100
AcDbLine
 10
-162.3350196968803
 20
41.67526875177165
 30
0.0
 11
-162.336895364916
 21
41.67772221709022
 31
0.0
1001
REVIT
1002
{
1070
     2
1000
-2001330
1002
}
  0
LINE
  5
127
330
122
100
AcDbEntity
  8
S-COLS
100
AcDbLine
 10
-162.3368904501041
 20
41.67771561517159
 30
0.0
 11
-162.3412170735281
 21
41.68409903162915
 31
0.0
1001
REVIT
1002
{
1070
     2
1000
-2001330
1002
}
  0
LINE
  5
128
330
122
100
AcDbEntity
  8
S-COLS
100
AcDbLine
 10
-162.3412164364038
 20
41.68409833771428
 30
0.0
 11
-162.3423067595947
 21
41.68979597389643
 31
0.0
1001
REVIT
1002
{
1070
     2
1000
-2001330
1002
}
  0
LINE
  5
129
330
122
100
AcDbEntity
  8
S-COLS
100
AcDbLine
 10
-162.3423086503956
 20
41.66636424262797
 30
0.0
 11
-162.3423086503956
 21
41.66723957240104
 31
0.0
1001
REVIT
1002
{
1070
     2
1000
-2001330
1002
}
  0
LINE
  5
12A
330
122
100
AcDbEntity
  8
S-COLS
100
AcDbLine
 10
-162.3423086503956
 20
41.68979960139078
 30
0.0
 11
-162.3423086503956
 21
41.69543960863822
 31
0.0
1001
REVIT
1002
{
1070
     2
1000
-2001330
1002
}
  0
LINE
  5
12B
330
122
100
AcDbEntity
  8
S-COLS
100
AcDbLine
 10
-162.3423126449191
 20
41.66724580975783
 30
0.0
 11
-162.3458805224977
 21
41.6791102639228
 31
0.0
1001
REVIT
1002
{
1070
     2
1000
-2001330
1002
}
  0
LINE
  5
12C
330
122
100
AcDbEntity
  8
S-COLS
100
AcDbLine
 10
-162.342312717869
 20
41.6954461548071
 30
0.0
 11
-162.3433047448613
 21
41.69878605557443
 31
0.0
1001
REVIT
1002
{
1070
     2
1000
-2001330
1002
}
  0
LINE
  5
12D
330
122
100
AcDbEntity
  8
S-COLS
100
AcDbLine
 10
-162.3307030460337
 20
41.67981438786631
 30
0.0
 11
-162.3323585433753
 21
41.68544600317503
 31
0.0
1001
REVIT
1002
{
1070
     2
1000
-2001330
1002
}
  0
LINE
  5
12E
330
122
100
AcDbEntity
  8
S-COLS
100
AcDbLine
 10
-162.345875298327
 20
41.67909972829127
 30
0.0
 11
-162.3455995231153
 21
41.68489620568841
 31
0.0
1001
REVIT
1002
{
1070
     2
1000
-2001330
1002
}
  0
LINE
  5
12F
330
122
100
AcDbEntity
  8
S-COLS
100
AcDbLine
 10
-162.3323533461866
 20
41.68543526753384
 30
0.0
 11
-162.332088350873
 21
41.69111484697547
 31
0.0
1001
REVIT
1002
{
1070
     2
1000
-2001330
1002
}
  0
LINE
  5
130
330
122
100
AcDbEntity
  8
S-COLS
100
AcDbLine
 10
-162.3455980026011
 20
41.68489620333696
 30
0.0
 11
-162.3469790934616
 21
41.6876677283448
 31
0.0
1001
REVIT
1002
{
1070
     2
1000
-2001330
1002
}
  0
LINE
  5
131
330
122
100
AcDbEntity
  8
S-COLS
100
AcDbLine
 10
-162.3320868146758
 20
41.69111476599892
 30
0.0
 11
-162.3334138770051
 21
41.6938437817704
 31
0.0
1001
REVIT
1002
{
1070
     2
1000
-2001330
1002
}
  0
ENDBLK
  5
133
330
122
100
AcDbEntity
  8
0
100
AcDbBlockEnd
  0
BLOCK
  5
139
330
135
100
AcDbEntity
  8
0
100
AcDbBlockBegin
  2
FP_1_2-Perspective D77
 70
     0
 10
0.0
 20
0.0
 30
0.0
  3
FP_1_2-Perspective D77
  1

  0
LINE
  5
136
330
135
100
AcDbEntity
  8
S-COLS
100
AcDbLine
 10
-162.3321046952987
 20
41.70373068656861
 30
0.0
 11
-162.3337586659711
 21
41.70641290049389
 31
0.0
1001
REVIT
1002
{
1070
     2
1000
-2001330
1002
}
  0
LINE
  5
137
330
135
100
AcDbEntity
  8
S-COLS
100
AcDbLine
 10
-162.3409855076955
 20
41.69981016430952
 30
0.0
 11
-162.3448272407892
 21
41.70289046231054
 31
0.0
1001
REVIT
1002
{
1070
     2
1000
-2001330
1002
}
  0
LINE
  5
138
330
135
100
AcDbEntity
  8
S-COLS
100
AcDbLine
 10
-162.3473419976364
 20
41.69700402910598
 30
0.0
 11
-162.3510874213046
 21
41.70155523405461
 31
0.0
1001
REVIT
1002
{
1070
     2
1000
-2001330
1002
}
  0
ENDBLK
  5
13A
330
135
100
AcDbEntity
  8
0
100
AcDbBlockEnd
  0
BLOCK
  5
145
330
13F
100
AcDbEntity
  8
0
100
AcDbBlockBegin
  2
FP_1_3-Perspective D77
 70
     0
 10
0.0
 20
0.0
 30
0.0
  3
FP_1_3-Perspective D77
  1

  0
LINE
  5
140
330
13F
100
AcDbEntity
  8
S-COLS
100
AcDbLine
 10
-162.327928627152
 20
41.71012700572154
 30
0.0
 11
-162.3305043777484
 21
41.71423097943278
 31
0.0
1001
REVIT
1002
{
1070
     2
1000
-2001330
1002
}
  0
LINE
  5
141
330
13F
100
AcDbEntity
  8
S-COLS
100
AcDbLine
 10
-162.3305246454627
 20
41.71424513058023
 30
0.0
 11
-162.3321106525775
 21
41.71543556629727
 31
0.0
1001
REVIT
1002
{
1070
     2
1000
-2001330
1002
}
  0
LINE
  5
142
330
13F
100
AcDbEntity
  8
S-COLS
100
AcDbLine
 10
-162.3362033614129
 20
41.70653052899122
 30
0.0
 11
-162.3416461814452
 21
41.71085401321433
 31
0.0
1001
REVIT
1002
{
1070
     2
1000
-2001330
1002
}
  0
LINE
  5
143
330
13F
100
AcDbEntity
  8
S-COLS
100
AcDbLine
 10
-162.3416491250548
 20
41.71085694186613
 30
0.0
 11
-162.3419203378268
 21
41.71127611164653
 31
0.0
1001
REVIT
1002
{
1070
     2
1000
-2001330
1002
}
  0
LINE
  5
144
330
13F
100
AcDbEntity
  8
S-COLS
100
AcDbLine
 10
-162.3464772197513
 20
41.7079386370822
 30
0.0
 11
-162.3473435274608
 21
41.7089765973633
 31
0.0
1001
REVIT
1002
{
1070
     2
1000
-2001330
1002
}
  0
ENDBLK
  5
146
330
13F
100
AcDbEntity
  8
0
100
AcDbBlockEnd
  0
BLOCK
  5
159
330
148
100
AcDbEntity
  8
0
100
AcDbBlockBegin
  2
FP_1_4-Perspective D77
 70
     0
 10
0.0
 20
0.0
 30
0.0
  3
FP_1_4-Perspective D77
  1

  0
LINE
  5
149
330
148
100
AcDbEntity
  8
S-COLS
100
AcDbLine
 10
-162.3469815076802
 20
41.7160637502008
 30
0.0
 11
-162.3477516779889
 21
41.72048550282092
 31
0.0
1001
REVIT
1002
{
1070
     2
1000
-2001330
1002
}
  0
LINE
  5
14A
330
148
100
AcDbEntity
  8
S-COLS
100
AcDbLine
 10
-162.333416291994
 20
41.72167843721504
 30
0.0
 11
-162.3350157163423
 21
41.7310597614299
 31
0.0
1001
REVIT
1002
{
1070
     2
1000
-2001330
1002
}
  0
LINE
  5
14B
330
148
100
AcDbEntity
  8
S-COLS
100
AcDbLine
 10
-162.3350201352151
 20
41.73106593683307
 30
0.0
 11
-162.3368958056938
 21
41.73367467491921
 31
0.0
1001
REVIT
1002
{
1070
     2
1000
-2001330
1002
}
  0
LINE
  5
14C
330
148
100
AcDbEntity
  8
S-COLS
100
AcDbLine
 10
-162.3408668022381
 20
41.71172256532967
 30
0.0
 11
-162.3412170049498
 21
41.71225374267699
 31
0.0
1001
REVIT
1002
{
1070
     2
1000
-2001330
1002
}
  0
LINE
  5
14D
330
148
100
AcDbEntity
  8
S-COLS
100
AcDbLine
 10
-162.3368903146865
 20
41.73366687259689
 30
0.0
 11
-162.3412169363714
 21
41.7404084480478
 31
0.0
1001
REVIT
1002
{
1070
     2
1000
-2001330
1002
}
  0
LINE
  5
14E
330
148
100
AcDbEntity
  8
S-COLS
100
AcDbLine
 10
-162.3412164108504
 20
41.71225312282663
 30
0.0
 11
-162.3423067339593
 21
41.7179958877447
 31
0.0
1001
REVIT
1002
{
1070
     2
1000
-2001330
1002
}
  0
LINE
  5
14F
330
148
100
AcDbEntity
  8
S-COLS
100
AcDbLine
 10
-162.3412163852969
 20
41.74040790582355
 30
0.0
 11
-162.3416626308614
 21
41.74277676514654
 31
0.0
1001
REVIT
1002
{
1070
     2
1000
-2001330
1002
}
  0
LINE
  5
150
330
148
100
AcDbEntity
  8
S-COLS
100
AcDbLine
 10
-162.3423086503956
 20
41.71799963762798
 30
0.0
 11
-162.3423086503956
 21
41.72363964487542
 31
0.0
1001
REVIT
1002
{
1070
     2
1000
-2001330
1002
}
  0
LINE
  5
151
330
148
100
AcDbEntity
  8
S-COLS
100
AcDbLine
 10
-162.342312790819
 20
41.72364650589519
 30
0.0
 11
-162.3458806699298
 21
41.73580631668744
 31
0.0
1001
REVIT
1002
{
1070
     2
1000
-2001330
1002
}
  0
LINE
  5
152
330
148
100
AcDbEntity
  8
S-COLS
100
AcDbLine
 10
-162.3307030460337
 20
41.73525353602702
 30
0.0
 11
-162.3323586850433
 21
41.74102268821431
 31
0.0
1001
REVIT
1002
{
1070
     2
1000
-2001330
1002
}
  0
LINE
  5
153
330
148
100
AcDbEntity
  8
S-COLS
100
AcDbLine
 10
-162.345875302108
 20
41.73579507679346
 30
0.0
 11
-162.3456131322119
 21
41.74128388339615
 31
0.0
1001
REVIT
1002
{
1070
     2
1000
-2001330
1002
}
  0
LINE
  5
154
330
148
100
AcDbEntity
  8
S-COLS
100
AcDbLine
 10
-162.3457706227561
 20
41.70964326950815
 30
0.0
 11
-162.3455995250043
 21
41.71323246539818
 31
0.0
1001
REVIT
1002
{
1070
     2
1000
-2001330
1002
}
  0
LINE
  5
155
330
148
100
AcDbEntity
  8
S-COLS
100
AcDbLine
 10
-162.3323533498198
 20
41.74101125483796
 30
0.0
 11
-162.3321014216092
 21
41.7463899153616
 31
0.0
1001
REVIT
1002
{
1070
     2
1000
-2001330
1002
}
  0
LINE
  5
156
330
148
100
AcDbEntity
  8
S-COLS
100
AcDbLine
 10
-162.3322527563308
 20
41.71537505415866
 30
0.0
 11
-162.3320883526881
 21
41.71889187227423
 31
0.0
1001
REVIT
1002
{
1070
     2
1000
-2001330
1002
}
  0
LINE
  5
157
330
148
100
AcDbEntity
  8
S-COLS
100
AcDbLine
 10
-162.3455979163392
 20
41.71323221466688
 30
0.0
 11
-162.3469790068514
 21
41.71606090301049
 31
0.0
1001
REVIT
1002
{
1070
     2
1000
-2001330
1002
}
  0
LINE
  5
158
330
148
100
AcDbEntity
  8
S-COLS
100
AcDbLine
 10
-162.3320867317853
 20
41.71889154521431
 30
0.0
 11
-162.3334137937864
 21
41.72167548807841
 31
0.0
1001
REVIT
1002
{
1070
     2
1000
-2001330
1002
}
  0
ENDBLK
  5
15A
330
148
100
AcDbEntity
  8
0
100
AcDbBlockEnd
  0
ENDSEC
  0
SECTION
  2
ENTITIES
  0
LINE
  5
55F9
330
6C
100
AcDbEntity
  8
0
 62
     0
370
     0
100
AcDbLine
 10
-161.6519828630572
 20
41.69846374157503
 30
0.0
 11
-161.6504828630572
 21
41.69932976697881
 31
0.0
  0
LINE
  5
55FA
330
6C
100
AcDbEntity
  8
0
 62
     0
370
     0
100
AcDbLine
 10
-161.6504828630572
 20
41.69586566536368
 30
0.0
 11
-161.6519828630572
 21
41.69846374157503
 31
0.0
  0
LINE
  5
55FB
330
6C
100
AcDbEntity
  8
0
 62
     0
370
     0
100
AcDbLine
 10
-161.6489828630572
 20
41.69673169076747
 30
0.0
 11
-161.6504828630572
 21
41.69586566536368
 31
0.0
  0
LINE
  5
55FC
330
6C
100
AcDbEntity
  8
0
 62
     0
370
     0
100
AcDbLine
 10
-161.6504828630572
 20
41.69932976697881
 30
0.0
 11
-161.6489828630572
 21
41.69673169076747
 31
0.0
  0
LINE
  5
55FD
330
6C
100
AcDbEntity
  8
0
 62
     0
370
     0
100
AcDbLine
 10
-161.6867408946334
 20
41.68329516217359
 30
0.0
 11
-161.6852408946334
 21
41.68069708596223
 31
0.0
  0
LINE
  5
55FE
330
6C
100
AcDbEntity
  8
0
 62
     0
370
     0
100
AcDbLine
 10
-161.6852408946334
 20
41.68069708596223
 30
0.0
 11
-161.6867408946334
 21
41.67983106055845
 31
0.0
  0
LINE
  5
55FF
330
6C
100
AcDbEntity
  8
0
 62
     0
370
     0
100
AcDbLine
 10
-161.6867408946334
 20
41.67983106055845
 30
0.0
 11
-161.6882408946334
 21
41.6824291367698
 31
0.0
  0
LINE
  5
5600
330
6C
100
AcDbEntity
  8
0
 62
     0
370
     0
100
AcDbLine
 10
-161.6882408946334
 20
41.6824291367698
 30
0.0
 11
-161.6867408946334
 21
41.68329516217359
 31
0.0
  0
ELLIPSE
  5
5601
330
6C
100
AcDbEntity
  8
0
 62
     0
370
     0
100
AcDbEllipse
 10
-161.6447188114197
 20
41.7009255929358
 30
0.0
 11
0.00084375
 21
-0.0014614178688861
 31
0.0
210
0.0
220
0.0
230
1.0
 40
0.5773502691896358
 41
4.264993352663032
 42
5.159784608106123
  0
ELLIPSE
  5
5602
330
6C
100
AcDbEntity
  8
0
 62
     0
370
     0
100
AcDbEllipse
 10
-161.6462402223701
 20
41.70004720591403
 30
0.0
 11
-0.0008437499999999
 21
0.0014614178688861
 31
0.0
210
0.0
220
0.0
230
1.0
 40
0.5773502691896246
 41
0.0
 42
6.283185307179586
  0
ELLIPSE
  5
5603
330
6C
100
AcDbEntity
  8
0
 62
     0
370
     0
100
AcDbEllipse
 10
-161.653204092794
 20
41.69112763396467
 30
0.0
 11
0.00084375
 21
-0.0014614178688861
 31
0.0
210
0.0
220
0.0
230
1.0
 40
0.5773502691896359
 41
4.264993352663033
 42
5.159784608106108
  0
ELLIPSE
  5
5604
330
6C
100
AcDbEntity
  8
0
 62
     0
370
     0
100
AcDbEllipse
 10
-161.6547255037444
 20
41.6902492469429
 30
0.0
 11
-0.0008437499999999
 21
0.0014614178688861
 31
0.0
210
0.0
220
0.0
230
1.0
 40
0.5773502691896246
 41
0.0
 42
6.283185307179586
  0
ELLIPSE
  5
5605
330
6C
100
AcDbEntity
  8
0
 62
     0
370
     0
100
AcDbEllipse
 10
-161.6867408946334
 20
41.69136107033715
 30
0.0
 11
-0.0008437499999999
 21
0.0014614178688861
 31
0.0
210
0.0
220
0.0
230
0.9999999999999998
 40
0.5773502691896253
 41
0.0
 42
6.283185307179586
  0
ELLIPSE
  5
5606
330
6C
100
AcDbEntity
  8
0
 62
     0
370
     0
100
AcDbEllipse
 10
-161.685219483683
 20
41.69223945735891
 30
0.0
 11
0.00084375
 21
-0.0014614178688861
 31
0.0
210
0.0
220
0.0
230
1.0
 40
0.5773502691896259
 41
4.264993352663012
 42
5.159784608106104
  0
LINE
  5
562C
330
6C
100
AcDbEntity
  8
0
 62
     0
370
     0
100
AcDbLine
 10
-161.6033946569841
 20
41.70687221087913
 30
0.0
 11
-161.6018946569841
 21
41.70947028709048
 31
0.0
  0
LINE
  5
562D
330
6C
100
AcDbEntity
  8
0
 62
     0
370
     0
100
AcDbLine
 10
-161.6018946569841
 20
41.70600618547534
 30
0.0
 11
-161.6033946569841
 21
41.70687221087913
 31
0.0
  0
LINE
  5
562E
330
6C
100
AcDbEntity
  8
0
 62
     0
370
     0
100
AcDbLine
 10
-161.6003946569841
 20
41.7086042616867
 30
0.0
 11
-161.6018946569841
 21
41.70600618547534
 31
0.0
  0
LINE
  5
562F
330
6C
100
AcDbEntity
  8
0
 62
     0
370
     0
100
AcDbLine
 10
-161.6018946569841
 20
41.70947028709048
 30
0.0
 11
-161.6003946569841
 21
41.7086042616867
 31
0.0
  0
LINE
  5
5630
330
6C
100
AcDbEntity
  8
0
 62
     0
370
     0
100
AcDbLine
 10
-161.5714702563527
 20
41.69190475119601
 30
0.0
 11
-161.5699702563527
 21
41.69103872579222
 31
0.0
  0
LINE
  5
5631
330
6C
100
AcDbEntity
  8
0
 62
     0
370
     0
100
AcDbLine
 10
-161.5699702563527
 20
41.69103872579222
 30
0.0
 11
-161.5714702563527
 21
41.68844064958087
 31
0.0
  0
LINE
  5
5632
330
6C
100
AcDbEntity
  8
0
 62
     0
370
     0
100
AcDbLine
 10
-161.5714702563527
 20
41.68844064958087
 30
0.0
 11
-161.5729702563527
 21
41.68930667498465
 31
0.0
  0
LINE
  5
5633
330
6C
100
AcDbEntity
  8
0
 62
     0
370
     0
100
AcDbLine
 10
-161.5729702563527
 20
41.68930667498465
 30
0.0
 11
-161.5714702563527
 21
41.69190475119601
 31
0.0
  0
ELLIPSE
  5
5634
330
6C
100
AcDbEntity
  8
0
 62
     0
370
     0
100
AcDbEllipse
 10
-161.5991734272474
 20
41.70126815407633
 30
0.0
 11
0.0008437499999998
 21
0.0014614178688861
 31
0.0
210
0.0
220
0.0
230
0.9999999999999998
 40
0.5773502691896259
 41
4.264993352662918
 42
5.159784608106283
  0
ELLIPSE
  5
5635
330
6C
100
AcDbEntity
  8
0
 62
     0
370
     0
100
AcDbEllipse
 10
-161.597652016297
 20
41.70038976705456
 30
0.0
 11
-0.0008437499999999
 21
-0.0014614178688862
 31
0.0
210
0.0
220
0.0
230
1.0
 40
0.577350269189626
 41
0.0
 42
6.283185307179586
  0
ELLIPSE
  5
5636
330
6C
100
AcDbEntity
  8
0
 62
     0
370
     0
100
AcDbEllipse
 10
-161.6076587086216
 20
41.71106611304746
 30
0.0
 11
0.0008437499999998
 21
0.0014614178688862
 31
0.0
210
0.0
220
0.0
230
0.9999999999999998
 40
0.577350269189626
 41
4.264993352662918
 42
5.15978460810624
  0
ELLIPSE
  5
5637
330
6C
100
AcDbEntity
  8
0
 62
     0
370
     0
100
AcDbEllipse
 10
-161.6061372976712
 20
41.7101877260257
 30
0.0
 11
-0.0008437499999999
 21
-0.0014614178688861
 31
0.0
210
0.0
220
0.0
230
0.9999999999999998
 40
0.5773502691896258
 41
0.0
 42
6.283185307179586
  0
ELLIPSE
  5
5638
330
6C
100
AcDbEntity
  8
0
 62
     0
370
     0
100
AcDbEllipse
 10
-161.5799555377269
 20
41.68037474141731
 30
0.0
 11
0.0008437499999999
 21
0.0014614178688861
 31
0.0
210
0.0
220
0.0
230
1.0
 40
0.5773502691896189
 41
5.203271658673947
 42
7.363098955685432
  0
ELLIPSE
  5
5639
330
6C
100
AcDbEntity
  8
0
 62
     0
370
     0
100
AcDbEllipse
 10
-161.5714702563527
 20
41.69997065935958
 30
0.0
 11
-0.0008437499999999
 21
-0.0014614178688861
 31
0.0
210
0.0
220
0.0
230
1.0
 40
0.5773502691896208
 41
0.0
 42
6.283185307179586
  0
ELLIPSE
  5
563A
330
6C
100
AcDbEntity
  8
0
 62
     0
370
     0
100
AcDbEllipse
 10
-161.5729916673031
 20
41.70084904638133
 30
0.0
 11
0.0008437499999999
 21
0.0014614178688862
 31
0.0
210
0.0
220
0.0
230
1.0
 40
0.5773502691896465
 41
4.264993352662894
 42
5.15978460810614
  0
ELLIPSE
  5
563B
330
6C
100
AcDbEntity
  8
0
 62
     0
370
     0
100
AcDbEllipse
 10
-161.568749026616
 20
41.64634789960441
 30
0.0
 11
0.0025757999999997
 21
-0.0044614164701355
 31
0.0
210
0.0
220
0.0
230
1.0
 40
0.5773502691896257
 41
0.0
 42
0.7853981633974199
  0
LINE
  5
563C
330
6C
100
AcDbEntity
  8
0
 62
     0
370
     0
100
AcDbLine
 10
-161.6005688317694
 20
41.69319439093514
 30
0.0
 11
-161.5666277062724
 21
41.7127903088774
 31
0.0
  0
LINE
  5
563D
330
6C
100
AcDbEntity
  8
0
 62
     0
370
     0
100
AcDbLine
 10
-161.565106295322
 20
41.71191192185564
 30
0.0
 11
-161.5666277062724
 21
41.7127903088774
 31
0.0
  0
LINE
  5
563E
330
6C
100
AcDbEntity
  8
0
 62
     0
370
     0
100
AcDbLine
 10
-161.565106295322
 20
41.64424476771126
 30
0.0
 11
-161.565106295322
 21
41.71191192185564
 31
0.0
  0
LINE
  5
563F
330
6C
100
AcDbEntity
  8
0
 62
     0
370
     0
100
AcDbLine
 10
-161.599047420819
 20
41.69231600391337
 30
0.0
 11
-161.565106295322
 21
41.71191192185564
 31
0.0
  0
LINE
  5
5640
330
6C
100
AcDbEntity
  8
0
 62
     0
370
     0
100
AcDbLine
 10
-161.5912880552663
 20
41.69855264974748
 30
0.0
 11
-161.5912880552663
 21
41.72702796800733
 31
0.0
  0
LINE
  5
5641
330
6C
100
AcDbEntity
  8
0
 62
     0
370
     0
100
AcDbLine
 10
-161.5912880552663
 20
41.72702796800733
 30
0.0
 11
-161.6252291807632
 21
41.70743205006506
 31
0.0
  0
LINE
  5
5642
330
6C
100
AcDbEntity
  8
0
 62
     0
370
     0
100
AcDbLine
 10
-161.5928094662167
 20
41.72790635502908
 30
0.0
 11
-161.5912880552663
 21
41.72702796800733
 31
0.0
  0
LINE
  5
5643
330
6C
100
AcDbEntity
  8
0
 62
     0
370
     0
100
AcDbLine
 10
-161.6267505917136
 20
41.70831043708683
 30
0.0
 11
-161.5928094662167
 21
41.72790635502908
 31
0.0
  0
LINE
  5
5644
330
6C
100
AcDbEntity
  8
0
 62
     0
370
     0
100
AcDbLine
 10
-161.566173226616
 20
41.64188648313428
 30
0.0
 11
-161.566229958708
 21
41.64185372884568
 31
0.0
  0
LINE
  5
5684
330
6C
100
AcDbEntity
  8
0
 62
     0
370
     0
100
AcDbLine
 10
-161.6005688317694
 20
41.69319439093514
 30
0.0
 11
-161.6252291807632
 21
41.70743205006506
 31
0.0
  0
LINE
  5
5685
330
6C
100
AcDbEntity
  8
0
 62
     0
370
     0
100
AcDbLine
 10
-161.6267505917136
 20
41.70831043708683
 30
0.0
 11
-161.6595680538246
 21
41.72725760767071
 31
0.0
  0
LINE
  5
5686
330
6C
100
AcDbEntity
  8
0
 62
     0
370
     0
100
AcDbLine
 10
-161.566229958708
 20
41.67336883332949
 30
0.0
 11
-161.599047420819
 21
41.69231600391337
 31
0.0
  0
LINE
  5
5687
330
6C
100
AcDbEntity
  8
0
 62
     0
370
     0
100
AcDbLine
 10
-161.566229958708
 20
41.60172125835308
 30
0.0
 11
-161.566229958708
 21
41.67336883332949
 31
0.0
  0
LINE
  5
5688
330
6C
100
AcDbEntity
  8
0
 62
     0
370
     0
100
AcDbLine
 10
-161.6602873935531
 20
41.68894795551705
 30
0.0
 11
-161.6931048556641
 21
41.70789512610094
 31
0.0
  0
LINE
  5
5689
330
6C
100
AcDbEntity
  8
0
 62
     0
370
     0
100
AcDbLine
 10
-161.6931048556641
 20
41.70789512610094
 30
0.0
 11
-161.6931048556641
 21
41.67000078493316
 31
0.0
  0
LINE
  5
568A
330
6C
100
AcDbEntity
  8
0
 62
     0
370
     0
100
AcDbLine
 10
-161.6341056336088
 20
41.67383190936535
 30
0.0
 11
-161.6587659826027
 21
41.68806956849529
 31
0.0
  0
LINE
  5
568B
330
6C
100
AcDbEntity
  8
0
 62
     0
370
     0
100
AcDbLine
 10
-161.5997667605475
 20
41.65400635175971
 30
0.0
 11
-161.5997667605475
 21
41.58235877678332
 31
0.0
  0
LINE
  5
568C
330
6C
100
AcDbEntity
  8
0
 62
     0
370
     0
100
AcDbLine
 10
-161.5997667605475
 20
41.65400635175971
 30
0.0
 11
-161.6325842226584
 21
41.6729535223436
 31
0.0
  0
LINE
  5
568D
330
6C
100
AcDbEntity
  8
0
 62
     0
370
     0
100
AcDbLine
 10
-161.661089464775
 20
41.69116780559645
 30
0.0
 11
-161.661089464775
 21
41.72637922064896
 31
0.0
  0
LINE
  5
568E
330
6C
100
AcDbEntity
  8
0
 62
     0
370
     0
100
AcDbLine
 10
-161.6595680538246
 20
41.72725760767071
 30
0.0
 11
-161.661089464775
 21
41.72637922064896
 31
0.0
  0
LINE
  5
568F
330
6C
100
AcDbEntity
  8
0
 62
     0
370
     0
100
AcDbLine
 10
-161.5677513696584
 20
41.67249044630772
 30
0.0
 11
-161.5677513696584
 21
41.60084287133133
 31
0.0
  0
LINE
  5
5690
330
6C
100
AcDbEntity
  8
0
 62
     0
370
     0
100
AcDbLine
 10
-161.661089464775
 20
41.72637922064896
 30
0.0
 11
-161.5677513696584
 21
41.67249044630772
 31
0.0
  0
LINE
  5
5691
330
6C
100
AcDbEntity
  8
0
 62
     0
370
     0
100
AcDbLine
 10
-161.566229958708
 20
41.67336883332949
 30
0.0
 11
-161.5677513696584
 21
41.67249044630772
 31
0.0
  0
LINE
  5
5692
330
6C
100
AcDbEntity
  8
0
 62
     0
370
     0
100
AcDbLine
 10
-161.569872690002
 20
41.59716863671715
 30
0.0
 11
-161.5961240292535
 21
41.58201241893368
 31
0.0
  0
LINE
  5
5693
330
6C
100
AcDbEntity
  8
0
 62
     0
370
     0
100
AcDbLine
 10
-161.5982453495971
 20
41.65488473878148
 30
0.0
 11
-161.6915834447137
 21
41.70877351312269
 31
0.0
  0
LINE
  5
5694
330
6C
100
AcDbEntity
  8
0
 62
     0
370
     0
100
AcDbLine
 10
-161.5982453495971
 20
41.58323716380507
 30
0.0
 11
-161.5982453495971
 21
41.65488473878148
 31
0.0
  0
LINE
  5
5695
330
6C
100
AcDbEntity
  8
0
 62
     0
370
     0
100
AcDbLine
 10
-161.5961240292535
 20
41.58025564489015
 30
0.0
 11
-161.569872690002
 21
41.59541186267363
 31
0.0
  0
LINE
  5
5696
330
6C
100
AcDbEntity
  8
0
 62
     0
370
     0
100
AcDbLine
 10
-161.6931048556641
 20
41.70789512610094
 30
0.0
 11
-161.6915834447137
 21
41.70877351312269
 31
0.0
  0
LINE
  5
5697
330
6C
100
AcDbEntity
  8
0
 62
     0
370
     0
100
AcDbLine
 10
-161.5997667605475
 20
41.65400635175971
 30
0.0
 11
-161.5982453495971
 21
41.65488473878148
 31
0.0
  0
ELLIPSE
  5
569E
330
6C
100
AcDbEntity
  8
0
 62
     0
370
     0
100
AcDbEllipse
 10
-161.5810792011129
 20
41.66418324679405
 30
0.0
 11
0.00084375
 21
-0.0014614178688861
 31
0.0
210
0.0
220
0.0
230
1.0
 40
0.5773502691896359
 41
4.264993352663002
 42
5.159784608106108
  0
ELLIPSE
  5
569F
330
6C
100
AcDbEntity
  8
0
 62
     0
370
     0
100
AcDbEllipse
 10
-161.5725939197387
 20
41.64458732885178
 30
0.0
 11
0.00084375
 21
-0.0014614178688861
 31
0.0
210
0.0
220
0.0
230
1.0
 40
0.5773502691896358
 41
4.26499335266298
 42
5.159784608106116
  0
ELLIPSE
  5
56A0
330
6C
100
AcDbEntity
  8
0
 62
     0
370
     0
100
AcDbEllipse
 10
-161.5810792011129
 20
41.63478936988066
 30
0.0
 11
0.00084375
 21
-0.0014614178688861
 31
0.0
210
0.0
220
0.0
230
1.0
 40
0.577350269189636
 41
4.26499335266298
 42
5.159784608106116
  0
ELLIPSE
  5
56A1
330
6C
100
AcDbEntity
  8
0
 62
     0
370
     0
100
AcDbEllipse
 10
-161.5725939197387
 20
41.61519345193839
 30
0.0
 11
0.00084375
 21
-0.0014614178688861
 31
0.0
210
0.0
220
0.0
230
1.0
 40
0.5773502691896358
 41
4.26499335266298
 42
5.159784608106116
  0
ELLIPSE
  5
56A2
330
6C
100
AcDbEntity
  8
0
 62
     0
370
     0
100
AcDbEllipse
 10
-161.5741153306891
 20
41.61431506491663
 30
0.0
 11
-0.0008437499999999
 21
0.0014614178688861
 31
0.0
210
0.0
220
0.0
230
1.0
 40
0.5773502691896246
 41
0.0
 42
6.283185307179586
  0
ELLIPSE
  5
56A3
330
6C
100
AcDbEntity
  8
0
 62
     0
370
     0
100
AcDbEllipse
 10
-161.5826006120633
 20
41.6339109828589
 30
0.0
 11
-0.0008437499999999
 21
0.0014614178688861
 31
0.0
210
0.0
220
0.0
230
1.0
 40
0.5773502691896246
 41
0.0
 42
6.283185307179586
  0
ELLIPSE
  5
56A4
330
6C
100
AcDbEntity
  8
0
 62
     0
370
     0
100
AcDbEllipse
 10
-161.5741153306891
 20
41.64370894183003
 30
0.0
 11
-0.0008437499999999
 21
0.0014614178688861
 31
0.0
210
0.0
220
0.0
230
1.0
 40
0.5773502691896246
 41
0.0
 42
6.283185307179586
  0
ELLIPSE
  5
56A5
330
6C
100
AcDbEntity
  8
0
 62
     0
370
     0
100
AcDbEllipse
 10
-161.5826006120633
 20
41.66330485977229
 30
0.0
 11
-0.0008437499999999
 21
0.0014614178688861
 31
0.0
210
0.0
220
0.0
230
1.0
 40
0.5773502691896246
 41
0.0
 42
6.283185307179586
  0
LINE
  5
56B6
330
6C
100
AcDbEntity
  8
0
 62
     0
370
     0
100
AcDbLine
 10
-161.5783579713762
 20
41.65768844135151
 30
0.0
 11
-161.5768579713762
 21
41.65509036514015
 31
0.0
  0
LINE
  5
56B7
330
6C
100
AcDbEntity
  8
0
 62
     0
370
     0
100
AcDbLine
 10
-161.5768579713762
 20
41.65509036514015
 30
0.0
 11
-161.5783579713762
 21
41.65422433973637
 31
0.0
  0
LINE
  5
56B8
330
6C
100
AcDbEntity
  8
0
 62
     0
370
     0
100
AcDbLine
 10
-161.5783579713762
 20
41.65422433973637
 30
0.0
 11
-161.5798579713762
 21
41.65682241594772
 31
0.0
  0
LINE
  5
56B9
330
6C
100
AcDbEntity
  8
0
 62
     0
370
     0
100
AcDbLine
 10
-161.5798579713762
 20
41.65682241594772
 30
0.0
 11
-161.5783579713762
 21
41.65768844135151
 31
0.0
  0
LINE
  5
56BA
330
6C
100
AcDbEntity
  8
0
 62
     0
370
     0
100
AcDbLine
 10
-161.6419345784688
 20
41.57797089994303
 30
0.0
 11
-161.6404345784688
 21
41.57710487453925
 31
0.0
  0
LINE
  5
56BB
330
6C
100
AcDbEntity
  8
0
 62
     0
370
     0
100
AcDbLine
 10
-161.6404345784688
 20
41.57710487453925
 30
0.0
 11
-161.6419345784688
 21
41.57450679832789
 31
0.0
  0
LINE
  5
56BC
330
6C
100
AcDbEntity
  8
0
 62
     0
370
     0
100
AcDbLine
 10
-161.6419345784688
 20
41.57450679832789
 30
0.0
 11
-161.6434345784688
 21
41.57537282373167
 31
0.0
  0
LINE
  5
56BD
330
6C
100
AcDbEntity
  8
0
 62
     0
370
     0
100
AcDbLine
 10
-161.6434345784688
 20
41.57537282373167
 30
0.0
 11
-161.6419345784688
 21
41.57797089994303
 31
0.0
  0
LINE
  5
56C6
330
6C
100
AcDbEntity
  8
0
 62
     0
370
     0
100
AcDbLine
 10
-161.6179787343461
 20
41.5487346227789
 30
0.0
 11
-161.6164787343461
 21
41.55133269899025
 31
0.0
  0
LINE
  5
56C7
330
6C
100
AcDbEntity
  8
0
 62
     0
370
     0
100
AcDbLine
 10
-161.6164787343461
 20
41.54786859737511
 30
0.0
 11
-161.6179787343461
 21
41.5487346227789
 31
0.0
  0
LINE
  5
56C8
330
6C
100
AcDbEntity
  8
0
 62
     0
370
     0
100
AcDbLine
 10
-161.6149787343461
 20
41.55046667358647
 30
0.0
 11
-161.6164787343461
 21
41.54786859737511
 31
0.0
  0
LINE
  5
56C9
330
6C
100
AcDbEntity
  8
0
 62
     0
370
     0
100
AcDbLine
 10
-161.6164787343461
 20
41.55133269899025
 30
0.0
 11
-161.6149787343461
 21
41.55046667358647
 31
0.0
  0
LINE
  5
56CE
330
6C
100
AcDbEntity
  8
0
 62
     0
370
     0
100
AcDbLine
 10
-161.6076307215782
 20
41.63588883165693
 30
0.0
 11
-161.6061307215782
 21
41.63675485706071
 31
0.0
  0
LINE
  5
56CF
330
6C
100
AcDbEntity
  8
0
 62
     0
370
     0
100
AcDbLine
 10
-161.6061307215782
 20
41.63329075544558
 30
0.0
 11
-161.6076307215782
 21
41.63588883165693
 31
0.0
  0
LINE
  5
56D0
330
6C
100
AcDbEntity
  8
0
 62
     0
370
     0
100
AcDbLine
 10
-161.6046307215781
 20
41.63415678084936
 30
0.0
 11
-161.6061307215782
 21
41.63329075544558
 31
0.0
  0
LINE
  5
56D1
330
6C
100
AcDbEntity
  8
0
 62
     0
370
     0
100
AcDbLine
 10
-161.6061307215782
 20
41.63675485706071
 30
0.0
 11
-161.6046307215781
 21
41.63415678084936
 31
0.0
  0
LINE
  5
56D2
330
6C
100
AcDbEntity
  8
0
 62
     0
370
     0
100
AcDbLine
 10
-161.6821005063819
 20
41.66316341835009
 30
0.0
 11
-161.6806005063819
 21
41.66229739294631
 31
0.0
  0
LINE
  5
56D3
330
6C
100
AcDbEntity
  8
0
 62
     0
370
     0
100
AcDbLine
 10
-161.6806005063819
 20
41.66229739294631
 30
0.0
 11
-161.6821005063819
 21
41.65969931673496
 31
0.0
  0
LINE
  5
56D4
330
6C
100
AcDbEntity
  8
0
 62
     0
370
     0
100
AcDbLine
 10
-161.6821005063819
 20
41.65969931673496
 30
0.0
 11
-161.6836005063819
 21
41.66056534213874
 31
0.0
  0
LINE
  5
56D5
330
6C
100
AcDbEntity
  8
0
 62
     0
370
     0
100
AcDbLine
 10
-161.6836005063819
 20
41.66056534213874
 30
0.0
 11
-161.6821005063819
 21
41.66316341835009
 31
0.0
  0
LINE
  5
56DE
330
6C
100
AcDbEntity
  8
0
 62
     0
370
     0
100
AcDbLine
 10
-161.6616613871247
 20
41.6381008267587
 30
0.0
 11
-161.6601613871247
 21
41.64069890297006
 31
0.0
  0
LINE
  5
56DF
330
6C
100
AcDbEntity
  8
0
 62
     0
370
     0
100
AcDbLine
 10
-161.6601613871247
 20
41.63723480135492
 30
0.0
 11
-161.6616613871247
 21
41.6381008267587
 31
0.0
  0
LINE
  5
56E0
330
6C
100
AcDbEntity
  8
0
 62
     0
370
     0
100
AcDbLine
 10
-161.6586613871247
 20
41.63983287756627
 30
0.0
 11
-161.6601613871247
 21
41.63723480135492
 31
0.0
  0
LINE
  5
56E1
330
6C
100
AcDbEntity
  8
0
 62
     0
370
     0
100
AcDbLine
 10
-161.6601613871247
 20
41.64069890297006
 30
0.0
 11
-161.6586613871247
 21
41.63983287756627
 31
0.0
  0
ELLIPSE
  5
56E2
330
6C
100
AcDbEntity
  8
0
 62
     0
370
     0
100
AcDbEllipse
 10
-161.6878645580194
 20
41.62066842893698
 30
0.0
 11
0.0008437499999998
 21
0.0014614178688861
 31
0.0
210
0.0
220
0.0
230
0.9999999999999998
 40
0.5773502691896259
 41
4.264993352662918
 42
5.159784608106306
  0
ELLIPSE
  5
56E3
330
6C
100
AcDbEntity
  8
0
 62
     0
370
     0
100
AcDbEllipse
 10
-161.686343147069
 20
41.61979004191521
 30
0.0
 11
-0.00084375
 21
-0.0014614178688862
 31
0.0
210
0.0
220
0.0
230
1.0
 40
0.5773502691896258
 41
0.0
 42
6.283185307179586
  0
ELLIPSE
  5
56E4
330
6C
100
AcDbEntity
  8
0
 62
     0
370
     0
100
AcDbEllipse
 10
-161.6793792766451
 20
41.64026434687924
 30
0.0
 11
0.0008437499999998
 21
0.0014614178688861
 31
0.0
210
0.0
220
0.0
230
0.9999999999999998
 40
0.5773502691896259
 41
4.264993352662918
 42
5.159784608106306
  0
ELLIPSE
  5
56E5
330
6C
100
AcDbEntity
  8
0
 62
     0
370
     0
100
AcDbEllipse
 10
-161.6778578656948
 20
41.63938595985747
 30
0.0
 11
-0.0008437499999999
 21
-0.0014614178688862
 31
0.0
210
0.0
220
0.0
230
0.9999999999999998
 40
0.5773502691896258
 41
0.0
 42
6.283185307179586
  0
ELLIPSE
  5
56E6
330
6C
100
AcDbEntity
  8
0
 62
     0
370
     0
100
AcDbEllipse
 10
-161.6878645580194
 20
41.65006230585038
 30
0.0
 11
0.0008437499999998
 21
0.0014614178688861
 31
0.0
210
0.0
220
0.0
230
0.9999999999999998
 40
0.5773502691896259
 41
4.264993352662918
 42
5.159784608106306
  0
ELLIPSE
  5
56E7
330
6C
100
AcDbEntity
  8
0
 62
     0
370
     0
100
AcDbEllipse
 10
-161.686343147069
 20
41.64918391882861
 30
0.0
 11
-0.0008437499999999
 21
-0.0014614178688862
 31
0.0
210
0.0
220
0.0
230
1.0
 40
0.577350269189626
 41
0.0
 42
6.283185307179586
  0
ELLIPSE
  5
56E8
330
6C
100
AcDbEntity
  8
0
 62
     0
370
     0
100
AcDbEllipse
 10
-161.6793792766451
 20
41.66965822379263
 30
0.0
 11
0.0008437499999998
 21
0.0014614178688862
 31
0.0
210
0.0
220
0.0
230
0.9999999999999998
 40
0.577350269189626
 41
4.264993352662918
 42
5.15978460810624
  0
ELLIPSE
  5
56E9
330
6C
100
AcDbEntity
  8
0
 62
     0
370
     0
100
AcDbEllipse
 10
-161.6778578656948
 20
41.66877983677087
 30
0.0
 11
-0.0008437499999999
 21
-0.0014614178688861
 31
0.0
210
0.0
220
0.0
230
0.9999999999999998
 40
0.5773502691896258
 41
0.0
 42
6.283185307179586
  0
ELLIPSE
  5
56F6
330
6C
100
AcDbEntity
  8
0
 62
     0
370
     0
100
AcDbEllipse
 10
-161.6516761057505
 20
41.60957297524909
 30
0.0
 11
-0.0008437499999999
 21
-0.0014614178688861
 31
0.0
210
0.0
220
0.0
230
1.0
 40
0.5773502691896208
 41
0.0
 42
6.283185307179586
  0
ELLIPSE
  5
56F7
330
6C
100
AcDbEntity
  8
0
 62
     0
370
     0
100
AcDbEllipse
 10
-161.6531975167009
 20
41.61045136227086
 30
0.0
 11
0.0008437499999999
 21
0.0014614178688862
 31
0.0
210
0.0
220
0.0
230
1.0
 40
0.5773502691896462
 41
4.264993352662894
 42
5.159784608106118
  0
ELLIPSE
  5
56F8
330
6C
100
AcDbEntity
  8
0
 62
     0
370
     0
100
AcDbEllipse
 10
-161.6601613871247
 20
41.61937093422023
 30
0.0
 11
-0.0008437499999999
 21
-0.0014614178688861
 31
0.0
210
0.0
220
0.0
230
1.0
 40
0.5773502691896208
 41
0.0
 42
6.283185307179586
  0
ELLIPSE
  5
56F9
330
6C
100
AcDbEntity
  8
0
 62
     0
370
     0
100
AcDbEllipse
 10
-161.6616827980751
 20
41.62024932124198
 30
0.0
 11
0.0008437499999999
 21
0.0014614178688862
 31
0.0
210
0.0
220
0.0
230
1.0
 40
0.5773502691896466
 41
4.264993352662894
 42
5.159784608106162
  0
ELLIPSE
  5
56FA
330
6C
100
AcDbEntity
  8
0
 62
     0
370
     0
100
AcDbEllipse
 10
-161.6516761057505
 20
41.63896685216249
 30
0.0
 11
-0.0008437499999999
 21
-0.0014614178688861
 31
0.0
210
0.0
220
0.0
230
1.0
 40
0.5773502691896208
 41
0.0
 42
6.283185307179586
  0
ELLIPSE
  5
56FB
330
6C
100
AcDbEntity
  8
0
 62
     0
370
     0
100
AcDbEllipse
 10
-161.6531975167009
 20
41.63984523918425
 30
0.0
 11
0.0008437499999999
 21
0.0014614178688862
 31
0.0
210
0.0
220
0.0
230
1.0
 40
0.5773502691896463
 41
4.264993352662894
 42
5.15978460810614
  0
ELLIPSE
  5
56FC
330
6C
100
AcDbEntity
  8
0
 62
     0
370
     0
100
AcDbEllipse
 10
-161.6601613871247
 20
41.64876481113362
 30
0.0
 11
-0.0008437499999999
 21
-0.0014614178688861
 31
0.0
210
0.0
220
0.0
230
1.0
 40
0.5773502691896208
 41
0.0
 42
6.283185307179586
  0
ELLIPSE
  5
56FD
330
6C
100
AcDbEntity
  8
0
 62
     0
370
     0
100
AcDbEllipse
 10
-161.6616827980751
 20
41.64964319815537
 30
0.0
 11
0.0008437499999999
 21
0.0014614178688862
 31
0.0
210
0.0
220
0.0
230
1.0
 40
0.5773502691896465
 41
4.264993352662894
 42
5.159784608106162
  0
ELLIPSE
  5
570A
330
6C
100
AcDbEntity
  8
0
 62
     0
370
     0
100
AcDbEllipse
 10
-161.6196607148614
 20
41.58067854929424
 30
0.0
 11
-0.0008437499999999
 21
-0.0014614178688861
 31
0.0
210
0.0
220
0.0
230
1.0
 40
0.5773502691896257
 41
0.0
 42
6.283185307179586
  0
ELLIPSE
  5
570B
330
6C
100
AcDbEntity
  8
0
 62
     0
370
     0
100
AcDbEllipse
 10
-161.6211821258118
 20
41.58155693631601
 30
0.0
 11
0.0008437499999998
 21
0.0014614178688862
 31
0.0
210
0.0
220
0.0
230
1.0
 40
0.5773502691896259
 41
4.264993352662919
 42
5.159784608106195
  0
ELLIPSE
  5
570C
330
6C
100
AcDbEntity
  8
0
 62
     0
370
     0
100
AcDbEllipse
 10
-161.6069327928
 20
41.57838215266038
 30
0.0
 11
-0.0008437499999999
 21
-0.0014614178688861
 31
0.0
210
0.0
220
0.0
230
1.0
 40
0.5773502691896257
 41
0.0
 42
6.283185307179586
  0
ELLIPSE
  5
570D
330
6C
100
AcDbEntity
  8
0
 62
     0
370
     0
100
AcDbEllipse
 10
-161.6084542037505
 20
41.57926053968215
 30
0.0
 11
0.0008437499999999
 21
0.0014614178688862
 31
0.0
210
0.0
220
0.0
230
1.0
 40
0.5773502691896261
 41
4.26499335266291
 42
5.159784608106195
  0
ELLIPSE
  5
570E
330
6C
100
AcDbEntity
  8
0
 62
     0
370
     0
100
AcDbEllipse
 10
-161.6175393945179
 20
41.5624604693323
 30
0.0
 11
-0.0008437499999999
 21
-0.0014614178688861
 31
0.0
210
0.0
220
0.0
230
1.0
 40
0.5773502691896257
 41
0.0
 42
6.283185307179586
  0
ELLIPSE
  5
570F
330
6C
100
AcDbEntity
  8
0
 62
     0
370
     0
100
AcDbEllipse
 10
-161.6190608054683
 20
41.56333885635406
 30
0.0
 11
0.0008437499999999
 21
0.0014614178688862
 31
0.0
210
0.0
220
0.0
230
1.0
 40
0.5773502691896258
 41
4.26499335266291
 42
5.159784608106195
  0
ELLIPSE
  5
5710
330
6C
100
AcDbEntity
  8
0
 62
     0
370
     0
100
AcDbEllipse
 10
-161.6090541131436
 20
41.55756148984673
 30
0.0
 11
-0.0008437499999999
 21
-0.0014614178688861
 31
0.0
210
0.0
220
0.0
230
1.0
 40
0.5773502691896257
 41
0.0
 42
6.283185307179586
  0
ELLIPSE
  5
5711
330
6C
100
AcDbEntity
  8
0
 62
     0
370
     0
100
AcDbEllipse
 10
-161.610575524094
 20
41.55843987686849
 30
0.0
 11
0.0008437499999999
 21
0.0014614178688862
 31
0.0
210
0.0
220
0.0
230
1.0
 40
0.5773502691896259
 41
4.26499335266291
 42
5.159784608106173
  0
ELLIPSE
  5
5712
330
6C
100
AcDbEntity
  8
0
 62
     0
370
     0
100
AcDbEllipse
 10
-161.6196607148614
 20
41.54163980651865
 30
0.0
 11
-0.0008437499999999
 21
-0.0014614178688861
 31
0.0
210
0.0
220
0.0
230
1.0
 40
0.5773502691896257
 41
0.0
 42
6.283185307179586
  0
ELLIPSE
  5
5713
330
6C
100
AcDbEntity
  8
0
 62
     0
370
     0
100
AcDbEllipse
 10
-161.6211821258118
 20
41.5425181935404
 30
0.0
 11
0.0008437499999998
 21
0.0014614178688861
 31
0.0
210
0.0
220
0.0
230
1.0
 40
0.577350269189626
 41
4.264993352662926
 42
5.159784608106195
  0
ELLIPSE
  5
5714
330
6C
100
AcDbEntity
  8
0
 62
     0
370
     0
100
AcDbEllipse
 10
-161.6069327928
 20
41.53919031677586
 30
0.0
 11
-0.0008437499999999
 21
-0.0014614178688861
 31
0.0
210
0.0
220
0.0
230
1.0
 40
0.5773502691896257
 41
0.0
 42
6.283185307179586
  0
ELLIPSE
  5
5715
330
6C
100
AcDbEntity
  8
0
 62
     0
370
     0
100
AcDbEllipse
 10
-161.6084542037505
 20
41.54006870379762
 30
0.0
 11
0.0008437499999998
 21
0.0014614178688861
 31
0.0
210
0.0
220
0.0
230
1.0
 40
0.577350269189626
 41
4.264993352662934
 42
5.15978460810624
  0
ELLIPSE
  5
5716
330
6C
100
AcDbEntity
  8
0
 62
     0
370
     0
100
AcDbEllipse
 10
-161.6175393945179
 20
41.52326863344778
 30
0.0
 11
-0.0008437499999999
 21
-0.0014614178688861
 31
0.0
210
0.0
220
0.0
230
1.0
 40
0.5773502691896257
 41
0.0
 42
6.283185307179586
  0
ELLIPSE
  5
5717
330
6C
100
AcDbEntity
  8
0
 62
     0
370
     0
100
AcDbEllipse
 10
-161.6190608054683
 20
41.52414702046953
 30
0.0
 11
0.0008437499999998
 21
0.0014614178688861
 31
0.0
210
0.0
220
0.0
230
1.0
 40
0.5773502691896259
 41
4.264993352662926
 42
5.159784608106195
  0
ELLIPSE
  5
5743
330
6C
100
AcDbEntity
  8
0
 62
     0
370
     0
100
AcDbEllipse
 10
-161.6530019309652
 20
41.59028324352468
 30
0.0
 11
0.000796875
 21
0.0013802279872814
 31
0.0
210
0.0
220
0.0
230
1.0
 40
0.5773502691896258
 41
4.409942989903093
 42
5.014834970866277
  0
ELLIPSE
  5
5744
330
6C
100
AcDbEntity
  8
0
 62
     0
370
     0
100
AcDbEllipse
 10
-161.6514805200148
 20
41.58940485650291
 30
0.0
 11
-0.0007968749999999
 21
-0.0013802279872813
 31
0.0
210
0.0
220
0.0
230
1.0
 40
0.5773502691896259
 41
0.0
 42
6.283185307179586
  0
ELLIPSE
  5
5745
330
6C
100
AcDbEntity
  8
0
 62
     0
370
     0
100
AcDbEllipse
 10
-161.6423953292474
 20
41.5866090089105
 30
0.0
 11
0.000796875
 21
0.0013802279872814
 31
0.0
210
0.0
220
0.0
230
1.0
 40
0.5773502691896258
 41
4.409942989903093
 42
5.014834970866277
  0
ELLIPSE
  5
5746
330
6C
100
AcDbEntity
  8
0
 62
     0
370
     0
100
AcDbEllipse
 10
-161.640873918297
 20
41.58573062188874
 30
0.0
 11
-0.0007968749999999
 21
-0.0013802279872813
 31
0.0
210
0.0
220
0.0
230
1.0
 40
0.5773502691896259
 41
0.0
 42
6.283185307179586
  0
ELLIPSE
  5
5747
330
6C
100
AcDbEntity
  8
0
 62
     0
370
     0
100
AcDbEllipse
 10
-161.6508806106216
 20
41.5719120704538
 30
0.0
 11
0.000796875
 21
0.0013802279872814
 31
0.0
210
0.0
220
0.0
230
1.0
 40
0.577350269189626
 41
4.409942989903093
 42
5.014834970866277
  0
ELLIPSE
  5
5748
330
6C
100
AcDbEntity
  8
0
 62
     0
370
     0
100
AcDbEllipse
 10
-161.6493591996712
 20
41.57103368343204
 30
0.0
 11
-0.0007968749999999
 21
-0.0013802279872813
 31
0.0
210
0.0
220
0.0
230
1.0
 40
0.5773502691896259
 41
0.0
 42
6.283185307179586
  0
ELLIPSE
  5
5749
330
6C
100
AcDbEntity
  8
0
 62
     0
370
     0
100
AcDbEllipse
 10
-161.6402740089039
 20
41.56823783583963
 30
0.0
 11
0.0007968749999999
 21
0.0013802279872813
 31
0.0
210
0.0
220
0.0
230
1.0
 40
0.5773502691896259
 41
4.409942989903115
 42
5.014834970866343
  0
ELLIPSE
  5
574A
330
6C
100
AcDbEntity
  8
0
 62
     0
370
     0
100
AcDbEllipse
 10
-161.6387525979535
 20
41.56735944881787
 30
0.0
 11
-0.0007968749999999
 21
-0.0013802279872813
 31
0.0
210
0.0
220
0.0
230
1.0
 40
0.5773502691896259
 41
0.0
 42
6.283185307179586
  0
ELLIPSE
  5
574B
330
6C
100
AcDbEntity
  8
0
 62
     0
370
     0
100
AcDbEllipse
 10
-161.6530019309652
 20
41.55109140764015
 30
0.0
 11
0.0007968749999999
 21
0.0013802279872813
 31
0.0
210
0.0
220
0.0
230
0.9999999999999998
 40
0.577350269189626
 41
4.409942989903104
 42
5.014834970866321
  0
ELLIPSE
  5
574C
330
6C
100
AcDbEntity
  8
0
 62
     0
370
     0
100
AcDbEllipse
 10
-161.6514805200148
 20
41.55021302061839
 30
0.0
 11
-0.0007968749999999
 21
-0.0013802279872813
 31
0.0
210
0.0
220
0.0
230
1.0
 40
0.5773502691896259
 41
0.0
 42
6.283185307179586
  0
ELLIPSE
  5
574D
330
6C
100
AcDbEntity
  8
0
 62
     0
370
     0
100
AcDbEllipse
 10
-161.6423953292474
 20
41.54741717302598
 30
0.0
 11
0.0007968749999999
 21
0.0013802279872813
 31
0.0
210
0.0
220
0.0
230
0.9999999999999998
 40
0.577350269189626
 41
4.409942989903104
 42
5.014834970866321
  0
ELLIPSE
  5
574E
330
6C
100
AcDbEntity
  8
0
 62
     0
370
     0
100
AcDbEllipse
 10
-161.640873918297
 20
41.54653878600421
 30
0.0
 11
-0.0007968749999999
 21
-0.0013802279872813
 31
0.0
210
0.0
220
0.0
230
1.0
 40
0.5773502691896259
 41
0.0
 42
6.283185307179586
  0
LINE
  5
574F
330
6C
100
AcDbEntity
  8
0
 62
     0
370
     0
100
AcDbLine
 10
-161.6602873935531
 20
41.68894795551705
 30
0.0
 11
-161.6942285190501
 21
41.66935203757478
 31
0.0
  0
LINE
  5
5750
330
6C
100
AcDbEntity
  8
0
 62
     0
370
     0
100
AcDbLine
 10
-161.6942285190501
 20
41.66935203757478
 30
0.0
 11
-161.6927071080997
 21
41.66847365055303
 31
0.0
  0
LINE
  5
5751
330
6C
100
AcDbEntity
  8
0
 62
     0
370
     0
100
AcDbLine
 10
-161.6927071080997
 20
41.66847365055303
 30
0.0
 11
-161.6587659826027
 21
41.68806956849529
 31
0.0
  0
LINE
  5
5752
330
6C
100
AcDbEntity
  8
0
 62
     0
370
     0
100
AcDbLine
 10
-161.6341056336088
 20
41.67383190936535
 30
0.0
 11
-161.6680467591058
 21
41.6542359914231
 31
0.0
  0
LINE
  5
5753
330
6C
100
AcDbEntity
  8
0
 62
     0
370
     0
100
AcDbLine
 10
-161.6665253481554
 20
41.65335760440133
 30
0.0
 11
-161.6680467591058
 21
41.6542359914231
 31
0.0
  0
LINE
  5
5754
330
6C
100
AcDbEntity
  8
0
 62
     0
370
     0
100
AcDbLine
 10
-161.6325842226584
 20
41.6729535223436
 30
0.0
 11
-161.6665253481554
 21
41.65335760440133
 31
0.0
  0
LINE
  5
5755
330
6C
100
AcDbEntity
  8
0
 62
     0
370
     0
100
AcDbLine
 10
-161.6680467591058
 20
41.6542359914231
 30
0.0
 11
-161.6680467591058
 21
41.58656883727871
 31
0.0
  0
LINE
  5
5756
330
6C
100
AcDbEntity
  8
0
 62
     0
370
     0
100
AcDbLine
 10
-161.6665253481554
 20
41.58569045025696
 30
0.0
 11
-161.6665253481554
 21
41.65335760440133
 31
0.0
  0
LINE
  5
5757
330
6C
100
AcDbEntity
  8
0
 62
     0
370
     0
100
AcDbLine
 10
-161.6701680794494
 20
41.58534409240733
 30
0.0
 11
-161.6905857877561
 21
41.59713226179447
 31
0.0
  0
LINE
  5
5759
330
6C
100
AcDbEntity
  8
0
 62
     0
370
     0
100
AcDbLine
 10
-161.6587659826027
 20
41.68806956849529
 30
0.0
 11
-161.6587659826027
 21
41.65959425023543
 31
0.0
  0
LINE
  5
575A
330
6C
100
AcDbEntity
  8
0
 62
     0
370
     0
100
AcDbLine
 10
-161.6927071080997
 20
41.60080649640864
 30
0.0
 11
-161.6927071080997
 21
41.66847365055303
 31
0.0
  0
LINE
  5
575B
330
6C
100
AcDbEntity
  8
0
 62
     0
370
     0
100
AcDbLine
 10
-161.6905857877561
 20
41.59537548775094
 30
0.0
 11
-161.6701680794494
 21
41.5835873183638
 31
0.0
  0
LINE
  5
575C
330
6C
100
AcDbEntity
  8
0
 62
     0
370
     0
100
AcDbLine
 10
-161.6942285190501
 20
41.66935203757478
 30
0.0
 11
-161.6942285190501
 21
41.60168488343041
 31
0.0
  0
ELLIPSE
  5
5765
330
6C
100
AcDbEntity
  8
0
 62
     0
370
     0
100
AcDbEllipse
 10
-161.6146160029524
 20
41.60562892933975
 30
0.0
 11
-0.0008437499999999
 21
0.0014614178688861
 31
0.0
210
0.0
220
0.0
230
0.9999999999999998
 40
0.5773502691896253
 41
0.0
 42
6.283185307179586
  0
ELLIPSE
  5
5766
330
6C
100
AcDbEntity
  8
0
 62
     0
370
     0
100
AcDbEllipse
 10
-161.613094592002
 20
41.60650731636152
 30
0.0
 11
0.00084375
 21
-0.0014614178688861
 31
0.0
210
0.0
220
0.0
230
1.0
 40
0.5773502691896258
 41
4.264993352662989
 42
5.159784608106104
  0
ELLIPSE
  5
5767
330
6C
100
AcDbEntity
  8
0
 62
     0
370
     0
100
AcDbEllipse
 10
-161.6061307215782
 20
41.61542688831088
 30
0.0
 11
-0.0008437499999999
 21
0.0014614178688861
 31
0.0
210
0.0
220
0.0
230
0.9999999999999998
 40
0.5773502691896253
 41
0.0
 42
6.283185307179586
  0
ELLIPSE
  5
5768
330
6C
100
AcDbEntity
  8
0
 62
     0
370
     0
100
AcDbEllipse
 10
-161.6046093106278
 20
41.61630527533264
 30
0.0
 11
0.00084375
 21
-0.001461417868886
 31
0.0
210
0.0
220
0.0
230
0.9999999999999998
 40
0.5773502691896259
 41
4.264993352662989
 42
5.159784608106104
  0
ELLIPSE
  5
5769
330
6C
100
AcDbEntity
  8
0
 62
     0
370
     0
100
AcDbEllipse
 10
-161.6146160029524
 20
41.63502280625315
 30
0.0
 11
-0.0008437499999999
 21
0.0014614178688861
 31
0.0
210
0.0
220
0.0
230
0.9999999999999998
 40
0.5773502691896253
 41
0.0
 42
6.283185307179586
  0
ELLIPSE
  5
576A
330
6C
100
AcDbEntity
  8
0
 62
     0
370
     0
100
AcDbEllipse
 10
-161.613094592002
 20
41.63590119327491
 30
0.0
 11
0.00084375
 21
-0.001461417868886
 31
0.0
210
0.0
220
0.0
230
1.0
 40
0.5773502691896258
 41
4.264993352662989
 42
5.159784608106104
  0
ELLIPSE
  5
576B
330
6C
100
AcDbEntity
  8
0
 62
     0
370
     0
100
AcDbEllipse
 10
-161.6061307215782
 20
41.64482076522427
 30
0.0
 11
-0.0008437499999999
 21
0.0014614178688861
 31
0.0
210
0.0
220
0.0
230
0.9999999999999998
 40
0.5773502691896253
 41
0.0
 42
6.283185307179586
  0
ELLIPSE
  5
576C
330
6C
100
AcDbEntity
  8
0
 62
     0
370
     0
100
AcDbEllipse
 10
-161.6046093106278
 20
41.64569915224603
 30
0.0
 11
0.00084375
 21
-0.0014614178688861
 31
0.0
210
0.0
220
0.0
230
1.0
 40
0.577350269189626
 41
4.264993352662989
 42
5.159784608106104
  0
LINE
  5
5779
330
6C
100
AcDbEntity
  8
0
 62
     0
370
     0
100
AcDbLine
 10
-161.6207213750332
 20
41.51745109530867
 30
0.0
 11
-161.6239033555485
 21
41.51928821261575
 31
0.0
  0
LINE
  5
577A
330
6C
100
AcDbEntity
  8
0
 62
     0
370
     0
100
AcDbLine
 10
-161.6239033555485
 20
41.51928821261575
 30
0.0
 11
-161.6254247664989
 21
41.52016659963751
 31
0.0
  0
LINE
  5
577B
330
6C
100
AcDbEntity
  8
0
 62
     0
370
     0
100
AcDbLine
 10
-161.6026901521129
 20
41.53153566132966
 30
0.0
 11
-161.6058721326283
 21
41.52602430940841
 31
0.0
  0
LINE
  5
577C
330
6C
100
AcDbEntity
  8
0
 62
     0
370
     0
100
AcDbLine
 10
-161.6345099572663
 20
41.54990683440053
 30
0.0
 11
-161.6376919377817
 21
41.54439548247927
 31
0.0
  0
LINE
  5
577D
330
6C
100
AcDbEntity
  8
0
 62
     0
370
     0
100
AcDbLine
 10
-161.6525411801866
 20
41.53582226837953
 30
0.0
 11
-161.6557231607019
 21
41.53765938568662
 31
0.0
  0
LINE
  5
577E
330
6C
100
AcDbEntity
  8
0
 62
     0
370
     0
100
AcDbLine
 10
-161.6557231607019
 20
41.53765938568662
 30
0.0
 11
-161.6572445716523
 21
41.53853777270838
 31
0.0
  0
LINE
  5
5786
330
6C
100
AcDbEntity
  8
Hiden
 48
0.2
100
AcDbLine
 10
-161.6254247664989
 20
41.60008120249581
 30
0.0
 11
-161.6254247664989
 21
41.59543014191904
 31
0.0
  0
LINE
  5
5787
330
6C
100
AcDbEntity
  8
Hiden
 48
0.2
100
AcDbLine
 10
-161.6042115630633
 20
41.61232865120972
 30
0.0
 11
-161.6254247664989
 21
41.60008120249581
 31
0.0
  0
LINE
  5
5789
330
6C
100
AcDbEntity
  8
Hiden
 48
0.2
100
AcDbLine
 10
-161.6026901521129
 20
41.61145026418796
 30
0.0
 11
-161.6042115630633
 21
41.61232865120972
 31
0.0
  0
LINE
  5
578A
330
6C
100
AcDbEntity
  8
Hiden
 48
0.2
100
AcDbLine
 10
-161.6026901521129
 20
41.61145026418796
 30
0.0
 11
-161.6026901521129
 21
41.58230430618337
 31
0.0
  0
LINE
  5
578B
330
6C
100
AcDbEntity
  8
Hiden
 48
0.2
100
AcDbLine
 10
-161.6239033555485
 20
41.59455175489728
 30
0.0
 11
-161.6239033555485
 21
41.59920281547404
 31
0.0
  0
LINE
  5
578C
330
6C
100
AcDbEntity
  8
Hiden
 48
0.2
100
AcDbLine
 10
-161.6254247664989
 20
41.60008120249581
 30
0.0
 11
-161.6239033555485
 21
41.59920281547404
 31
0.0
  0
LINE
  5
578D
330
6C
100
AcDbEntity
  8
Hiden
 48
0.2
100
AcDbLine
 10
-161.6239033555485
 20
41.59920281547404
 30
0.0
 11
-161.6026901521129
 21
41.61145026418796
 31
0.0
  0
LINE
  5
578E
330
6C
100
AcDbEntity
  8
0
 62
     0
370
     0
100
AcDbLine
 10
-161.6058721326283
 20
41.52602430940841
 30
0.0
 11
-161.6207213750332
 21
41.51745109530867
 31
0.0
  0
LINE
  5
578F
330
6C
100
AcDbEntity
  8
0
 62
     0
370
     0
100
AcDbLine
 10
-161.6254247664989
 20
41.59543014191904
 30
0.0
 11
-161.6254247664989
 21
41.52016659963751
 31
0.0
  0
LINE
  5
5790
330
6C
100
AcDbEntity
  8
0
 62
     0
370
     0
100
AcDbLine
 10
-161.6026901521129
 20
41.58230430618337
 30
0.0
 11
-161.6026901521129
 21
41.53153566132966
 31
0.0
  0
LINE
  5
5791
330
6C
100
AcDbEntity
  8
0
 62
     0
370
     0
100
AcDbLine
 10
-161.6239033555485
 20
41.51928821261575
 30
0.0
 11
-161.6239033555485
 21
41.59455175489728
 31
0.0
  0
LINE
  5
5793
330
6C
100
AcDbEntity
  8
Hiden
 48
0.2
100
AcDbLine
 10
-161.6345099572663
 20
41.62982143725883
 30
0.0
 11
-161.6360313682167
 21
41.63069982428059
 31
0.0
  0
LINE
  5
5794
330
6C
100
AcDbEntity
  8
Hiden
 48
0.2
100
AcDbLine
 10
-161.6345099572663
 20
41.62982143725883
 30
0.0
 11
-161.6345099572663
 21
41.60067547925424
 31
0.0
  0
LINE
  5
5796
330
6C
100
AcDbEntity
  8
Hiden
 48
0.2
100
AcDbLine
 10
-161.6572445716523
 20
41.61845237556668
 30
0.0
 11
-161.6572445716523
 21
41.58930641756209
 31
0.0
  0
LINE
  5
5797
330
6C
100
AcDbEntity
  8
Hiden
 48
0.2
100
AcDbLine
 10
-161.6360313682167
 20
41.63069982428059
 30
0.0
 11
-161.6572445716523
 21
41.61845237556668
 31
0.0
  0
LINE
  5
5798
330
6C
100
AcDbEntity
  8
Hiden
 48
0.2
100
AcDbLine
 10
-161.6557231607019
 20
41.59018480458384
 30
0.0
 11
-161.6557231607019
 21
41.61757398854492
 31
0.0
  0
LINE
  5
5799
330
6C
100
AcDbEntity
  8
Hiden
 48
0.2
100
AcDbLine
 10
-161.6572445716523
 20
41.61845237556668
 30
0.0
 11
-161.6557231607019
 21
41.61757398854492
 31
0.0
  0
LINE
  5
579A
330
6C
100
AcDbEntity
  8
Hiden
 48
0.2
100
AcDbLine
 10
-161.6557231607019
 20
41.61757398854492
 30
0.0
 11
-161.6345099572663
 21
41.62982143725883
 31
0.0
  0
LINE
  5
579B
330
6C
100
AcDbEntity
  8
0
 62
     0
370
     0
100
AcDbLine
 10
-161.6345099572663
 20
41.60067547925424
 30
0.0
 11
-161.6345099572663
 21
41.54990683440053
 31
0.0
  0
LINE
  5
579C
330
6C
100
AcDbEntity
  8
0
 62
     0
370
     0
100
AcDbLine
 10
-161.6572445716523
 20
41.58930641756209
 30
0.0
 11
-161.6572445716523
 21
41.53853777270838
 31
0.0
  0
LINE
  5
579D
330
6C
100
AcDbEntity
  8
0
 62
     0
370
     0
100
AcDbLine
 10
-161.6557231607019
 20
41.53765938568662
 30
0.0
 11
-161.6557231607019
 21
41.59018480458384
 31
0.0
  0
LINE
  5
579E
330
6C
100
AcDbEntity
  8
0
 62
     0
370
     0
100
AcDbLine
 10
-161.6376919377817
 20
41.54439548247927
 30
0.0
 11
-161.6525411801866
 21
41.53582226837953
 31
0.0
  0
ELLIPSE
  5
57A6
330
6C
100
AcDbEntity
  8
0
 62
     0
370
     0
100
AcDbEllipse
 10
-161.6701680794494
 20
41.58779358215011
 30
0.0
 11
0.0025757999999998
 21
-0.0044614164701355
 31
0.0
210
0.0
220
0.0
230
1.0
 40
0.5773502691896258
 41
5.497787143782137
 42
7.068583470577022
  0
ELLIPSE
  5
57A7
330
6C
100
AcDbEntity
  8
0
 62
     0
370
     0
100
AcDbEllipse
 10
-161.6362269539524
 20
41.60738950009237
 30
0.0
 11
0.0025757999999998
 21
-0.0044614164701355
 31
0.0
210
0.0
220
0.0
230
1.0
 40
0.5773502691896257
 41
0.0
 42
0.7853981633974439
  0
ELLIPSE
  5
57A8
330
6C
100
AcDbEntity
  8
0
 62
     0
370
     0
100
AcDbEllipse
 10
-161.6701680794494
 20
41.58779358215011
 30
0.0
 11
0.0014999999999999
 21
-0.0025980762113531
 31
0.0
210
0.0
220
0.0
230
0.9999999999999996
 40
0.5773502691896259
 41
5.497787143782137
 42
7.068583470576967
  0
ELLIPSE
  5
57A9
330
6C
100
AcDbEntity
  8
0
 62
     0
370
     0
100
AcDbEllipse
 10
-161.6905857877561
 20
41.59958175153725
 30
0.0
 11
0.0025758000000001
 21
-0.0044614164701354
 31
0.0
210
0.0
220
0.0
230
1.0
 40
0.5773502691896258
 41
3.926990816986988
 42
5.497787143781894
  0
ELLIPSE
  5
57AA
330
6C
100
AcDbEntity
  8
0
 62
     0
370
     0
100
AcDbEllipse
 10
-161.6905857877561
 20
41.59958175153725
 30
0.0
 11
-0.0014999999999997
 21
0.0025980762113532
 31
0.0
210
0.0
220
0.0
230
0.9999999999999998
 40
0.5773502691896258
 41
0.7853981633976588
 42
2.356194490192638
  0
LINE
  5
57AB
330
6C
100
AcDbEntity
  8
0
 62
     0
370
     0
100
AcDbLine
 10
-161.6336511539524
 20
41.60292808362224
 30
0.0
 11
-161.6675922794494
 21
41.58333216567998
 31
0.0
  0
ELLIPSE
  5
57AC
330
6C
100
AcDbEntity
  8
0
 62
     0
370
     0
100
AcDbEllipse
 10
-161.569872690002
 20
41.59961812645994
 30
0.0
 11
0.0025757999999995
 21
0.0044614164701357
 31
0.0
210
0.0
220
0.0
230
0.9999999999999998
 40
0.5773502691896258
 41
3.926990816986997
 42
5.497787143781907
  0
ELLIPSE
  5
57AD
330
6C
100
AcDbEntity
  8
0
 62
     0
370
     0
100
AcDbEllipse
 10
-161.569872690002
 20
41.59961812645994
 30
0.0
 11
-0.0015
 21
-0.002598076211353
 31
0.0
210
0.0
220
0.0
230
1.0
 40
0.577350269189626
 41
0.7853981633977414
 42
2.356194490192649
  0
ELLIPSE
  5
57AE
330
6C
100
AcDbEntity
  8
0
 62
     0
370
     0
100
AcDbEllipse
 10
-161.5961240292535
 20
41.58446190867646
 30
0.0
 11
-0.0025757999999998
 21
-0.0044614164701355
 31
0.0
210
0.0
220
0.0
230
1.0
 40
0.5773502691896258
 41
5.49778714378215
 42
7.068583470577034
  0
ELLIPSE
  5
57AF
330
6C
100
AcDbEntity
  8
0
 62
     0
370
     0
100
AcDbEllipse
 10
-161.5961240292535
 20
41.58446190867646
 30
0.0
 11
-0.0014999999999999
 21
-0.0025980762113531
 31
0.0
210
0.0
220
0.0
230
1.0
 40
0.5773502691896258
 41
5.497787143782165
 42
7.068583470577034
  0
LINE
  5
57B0
330
6C
100
AcDbEntity
  8
0
 62
     0
370
     0
100
AcDbLine
 10
-161.6360313682167
 20
41.601553866276
 30
0.0
 11
-161.5986998292535
 21
41.58000049220633
 31
0.0
  0
LINE
  5
57B8
330
6C
100
AcDbEntity
  8
0
100
AcDbLine
 10
-161.6252291807632
 20
41.70743205006506
 30
0.0
 11
-161.6267505917136
 21
41.70831043708683
 31
0.0
  0
LINE
  5
57B9
330
6C
100
AcDbEntity
  8
0
100
AcDbLine
 10
-161.599047420819
 20
41.69231600391337
 30
0.0
 11
-161.6005688317694
 21
41.69319439093514
 31
0.0
  0
LINE
  5
57BA
330
6C
100
AcDbEntity
  8
0
100
AcDbLine
 10
-161.6602873935531
 20
41.68894795551705
 30
0.0
 11
-161.6587659826027
 21
41.68806956849529
 31
0.0
  0
LINE
  5
57BB
330
6C
100
AcDbEntity
  8
0
100
AcDbLine
 10
-161.6341056336088
 20
41.67383190936535
 30
0.0
 11
-161.6325842226584
 21
41.6729535223436
 31
0.0
  0
MTEXT
  5
57BC
102
{ACAD_XDICTIONARY
360
6241
102
}
330
6C
100
AcDbEntity
  8
A-ANNO-TEXT
 62
     7
100
AcDbMText
 10
-161.5396266234355
 20
41.54632779194741
 30
0.0
 40
0.0096
 41
0.3079696359949211
 71
     2
 72
     1
  1
\A1;{\fArial|b1|i0|c0|p34;CCCQ-SDS2.5}
 73
     2
 44
0.9385317878468564
1001
REVIT
1002
{
1070
     1
1000
332280
1002
}
1002
{
1070
     5
1000
332282
1002
}
1002
{
1070
     2
1000
-2000300
1002
}
1001
ACAD
1000
MTEXTBEGIN
1070
    73
1070
     2
1070
    44
1040
0.9385317878468564
1070
    74
1070
     0
1000
MTEXTEND
1000
ACAD_MTEXT_DEFINED_HEIGHT_BEGIN
1070
    46
1040
0.0182129625928056
1000
ACAD_MTEXT_DEFINED_HEIGHT_END
  0
LINE
  5
581D
330
6C
100
AcDbEntity
  8
0
 62
     0
370
     0
100
AcDbLine
 10
-161.5635848843716
 20
41.71279030887741
 30
0.0
 11
-161.5404977982353
 21
41.726119644273
 31
0.0
  0
LINE
  5
581E
330
6C
100
AcDbEntity
  8
0
 62
     0
370
     0
100
AcDbLine
 10
-161.565106295322
 20
41.64250247620405
 30
0.0
 11
-161.5420192091857
 21
41.65583181159965
 31
0.0
  0
LINE
  5
581F
330
6C
100
AcDbEntity
  8
0
100
AcDbLine
 10
-161.5465051938109
 20
41.72265127282034
 30
0.0
 11
-161.5465051938109
 21
41.69266209336742
 31
0.0
  0
LINE
  5
5820
330
6C
100
AcDbEntity
  8
0
100
AcDbLine
 10
-161.5465051938109
 20
41.67713632713724
 30
0.0
 11
-161.5465051938109
 21
41.65324182716874
 31
0.0
  0
HATCH
  5
5821
330
6C
100
AcDbEntity
  8
Layer1
100
AcDbHatch
 10
0.0
 20
0.0
 30
0.0
210
0.0
220
0.0
230
1.0
  2
SOLID
 70
     1
 71
     0
 91
        1
 92
        1
 93
        3
 72
     1
 10
-161.5483193136448
 20
41.71720431918453
 11
-161.5465051938108
 21
41.72265127282031
 72
     1
 10
-161.5465051938108
 20
41.72265127282031
 11
-161.545269330654
 21
41.71896735030623
 72
     1
 10
-161.545269330654
 20
41.71896735030623
 11
-161.5483193136448
 21
41.71720431918453
 97
        0
 75
     1
 76
     1
 98
        1
 10
-161.5469943741151
 20
41.71917923546433
1001
GradientColor1ACI
1070
     5
1001
GradientColor2ACI
1070
     2
1001
ACAD
1010
0.0
1020
0.0
1030
0.0
  0
LINE
  5
5822
330
6C
100
AcDbEntity
  8
Layer1
100
AcDbLine
 10
-161.5483193136448
 20
41.71720431918456
 30
0.0
 11
-161.5465051938109
 21
41.72265127282034
 31
0.0
  0
LINE
  5
5823
330
6C
100
AcDbEntity
  8
0
100
AcDbLine
 10
-161.545269330654
 20
41.71896735030625
 30
0.0
 11
-161.5465051938109
 21
41.72265127282034
 31
0.0
  0
LINE
  5
5824
330
6C
100
AcDbEntity
  8
0
100
AcDbLine
 10
-161.5483193136448
 20
41.71720431918456
 30
0.0
 11
-161.545269330654
 21
41.71896735030625
 31
0.0
  0
HATCH
  5
5825
330
6C
100
AcDbEntity
  8
Layer1
100
AcDbHatch
 10
0.0
 20
0.0
 30
0.0
210
0.0
220
0.0
230
1.0
  2
SOLID
 70
     1
 71
     0
 91
        1
 92
        1
 93
        3
 72
     1
 10
-161.5477231768112
 20
41.6568988606282
 11
-161.5465051938109
 21
41.65324182716877
 72
     1
 10
-161.5465051938109
 20
41.65324182716877
 11
-161.544691073977
 21
41.65864944601572
 72
     1
 10
-161.544691073977
 20
41.65864944601572
 11
-161.5477231768112
 21
41.6568988606282
 97
        0
 75
     1
 76
     1
 98
        1
 10
-161.5469943741151
 20
41.65671386452475
1001
GradientColor1ACI
1070
     5
1001
GradientColor2ACI
1070
     2
1001
ACAD
1010
0.0
1020
0.0
1030
0.0
  0
LINE
  5
5826
330
6C
100
AcDbEntity
  8
Layer1
100
AcDbLine
 10
-161.5477231768112
 20
41.65689886062817
 30
0.0
 11
-161.5465051938109
 21
41.65324182716874
 31
0.0
  0
LINE
  5
5827
330
6C
100
AcDbEntity
  8
0
100
AcDbLine
 10
-161.544691073977
 20
41.65864944601568
 30
0.0
 11
-161.5465051938109
 21
41.65324182716874
 31
0.0
  0
LINE
  5
5828
330
6C
100
AcDbEntity
  8
0
100
AcDbLine
 10
-161.5477231768112
 20
41.65689886062817
 30
0.0
 11
-161.544691073977
 21
41.65864944601568
 31
0.0
  0
MTEXT
  5
5829
102
{ACAD_XDICTIONARY
360
6243
102
}
330
6C
100
AcDbEntity
  8
A-ANNO-TEXT
 62
     7
100
AcDbMText
 10
-161.5409291181648
 20
41.68961169598412
 30
0.0
 40
0.006912
 41
0.0203659014665603
 71
     2
 72
     1
  1
\A1;{\fArial|b0|i0|c0|p34;H  }
 73
     2
 44
0.9385317878468564
1001
REVIT
1002
{
1070
     1
1000
332280
1002
}
1002
{
1070
     5
1000
332282
1002
}
1002
{
1070
     2
1000
-2000300
1002
}
1001
ACAD
1000
MTEXTBEGIN
1070
    73
1070
     2
1070
    44
1040
0.9385317878468564
1070
    74
1070
     0
1000
MTEXTEND
1000
ACAD_MTEXT_DEFINED_HEIGHT_BEGIN
1070
    46
1040
0.014367773750822
1000
ACAD_MTEXT_DEFINED_HEIGHT_END
  0
MTEXT
  5
582A
102
{ACAD_XDICTIONARY
360
6245
102
}
330
6C
100
AcDbEntity
  8
A-ANNO-TEXT
 62
     7
100
AcDbMText
 10
-161.5378812959404
 20
41.68578092268049
 30
0.0
 40
0.006912
 41
0.0122763356372089
 71
     2
 72
     1
  1
\A1;{\fArial|b0|i0|c0|p34;3}
 73
     2
 44
0.9385317878468564
1001
REVIT
1002
{
1070
     1
1000
332280
1002
}
1002
{
1070
     5
1000
332282
1002
}
1002
{
1070
     2
1000
-2000300
1002
}
1001
ACAD
1000
MTEXTBEGIN
1070
    73
1070
     2
1070
    44
1040
0.9385317878468564
1070
    74
1070
     0
1000
MTEXTEND
1000
ACAD_MTEXT_DEFINED_HEIGHT_BEGIN
1070
    46
1040
0.014367046408497
1000
ACAD_MTEXT_DEFINED_HEIGHT_END
  0
LINE
  5
5891
330
6C
100
AcDbEntity
  8
0
 62
     0
370
     0
100
AcDbLine
 10
-161.5677513696584
 20
41.74101166365719
 30
0.0
 11
-161.5677513696584
 21
41.6739003142934
 31
0.0
  0
LINE
  5
5892
330
6C
100
AcDbEntity
  8
0
 62
     0
370
     0
100
AcDbLine
 10
-161.6610894647749
 20
41.78913851653635
 30
0.0
 11
-161.6197278119995
 21
41.7652583551724
 31
0.0
  0
LINE
  5
5893
330
6C
100
AcDbEntity
  8
0
 62
     0
370
     0
100
AcDbLine
 10
-161.6097957036936
 20
41.75952404976837
 30
0.0
 11
-161.5677513696582
 21
41.73524974219513
 31
0.0
  0
LINE
  5
5894
330
6C
100
AcDbEntity
  8
0
 62
     0
370
     0
100
AcDbLine
 10
-161.6610894647751
 20
41.79490043799841
 30
0.0
 11
-161.661089464775
 21
41.72778908863462
 31
0.0
  0
HATCH
  5
5895
330
6C
100
AcDbEntity
  8
Layer1
100
AcDbHatch
 10
0.0
 20
0.0
 30
0.0
210
0.0
220
0.0
230
1.0
  2
SOLID
 70
     1
 71
     0
 91
        1
 92
        1
 93
        3
 72
     1
 10
-161.6572793244701
 20
41.78484396585676
 11
-161.6610894647749
 21
41.78913851653635
 72
     1
 10
-161.6610894647749
 20
41.78913851653635
 11
-161.6572793244701
 21
41.78836647168734
 72
     1
 10
-161.6572793244701
 20
41.78836647168734
 11
-161.6572793244701
 21
41.78484396585676
 97
        0
 75
     1
 76
     1
 98
        1
 10
-161.6583271823739
 20
41.78697885528785
1001
GradientColor1ACI
1070
     5
1001
GradientColor2ACI
1070
     2
1001
ACAD
1010
0.0
1020
0.0
1030
0.0
  0
LINE
  5
5896
330
6C
100
AcDbEntity
  8
Layer1
100
AcDbLine
 10
-161.6572793244701
 20
41.78484396585676
 30
0.0
 11
-161.6610894647749
 21
41.78913851653635
 31
0.0
  0
LINE
  5
5897
330
6C
100
AcDbEntity
  8
0
100
AcDbLine
 10
-161.6572793244701
 20
41.78836647168736
 30
0.0
 11
-161.6610894647749
 21
41.78913851653635
 31
0.0
  0
LINE
  5
5898
330
6C
100
AcDbEntity
  8
0
100
AcDbLine
 10
-161.6572793244701
 20
41.78484396585676
 30
0.0
 11
-161.6572793244701
 21
41.78836647168736
 31
0.0
  0
HATCH
  5
5899
330
6C
100
AcDbEntity
  8
Layer1
100
AcDbHatch
 10
0.0
 20
0.0
 30
0.0
210
0.0
220
0.0
230
1.0
  2
SOLID
 70
     1
 71
     0
 91
        1
 92
        1
 93
        3
 72
     1
 10
-161.5715615099631
 20
41.73954429287473
 11
-161.5677513696583
 21
41.73524974219514
 72
     1
 10
-161.5677513696583
 20
41.73524974219514
 11
-161.5715615099631
 21
41.73602178704416
 72
     1
 10
-161.5715615099631
 20
41.73602178704416
 11
-161.5715615099631
 21
41.73954429287473
 97
        0
 75
     1
 76
     1
 98
        1
 10
-161.5705136520593
 20
41.73740940344364
1001
GradientColor1ACI
1070
     5
1001
GradientColor2ACI
1070
     2
1001
ACAD
1010
0.0
1020
0.0
1030
0.0
  0
LINE
  5
589A
330
6C
100
AcDbEntity
  8
Layer1
100
AcDbLine
 10
-161.5715615099631
 20
41.73954429287473
 30
0.0
 11
-161.5677513696583
 21
41.73524974219514
 31
0.0
  0
LINE
  5
589B
330
6C
100
AcDbEntity
  8
0
100
AcDbLine
 10
-161.5715615099631
 20
41.73602178704412
 30
0.0
 11
-161.5677513696583
 21
41.73524974219514
 31
0.0
  0
LINE
  5
589C
330
6C
100
AcDbEntity
  8
0
100
AcDbLine
 10
-161.5715615099631
 20
41.73954429287473
 30
0.0
 11
-161.5715615099631
 21
41.73602178704412
 31
0.0
  0
MTEXT
  5
589D
102
{ACAD_XDICTIONARY
360
6247
102
}
330
6C
100
AcDbEntity
  8
A-ANNO-TEXT
 62
     7
100
AcDbMText
 10
-161.6108407659429
 20
41.76753762135304
 30
0.0
 40
0.006912
 41
0.0122763356372089
 71
     2
 72
     1
  1
\A1;{\fArial|b0|i0|c0|p34;L}
 73
     2
 44
0.9385317878468564
1001
REVIT
1002
{
1070
     1
1000
332280
1002
}
1002
{
1070
     5
1000
332282
1002
}
1002
{
1070
     2
1000
-2000300
1002
}
1001
ACAD
1000
MTEXTBEGIN
1070
    73
1070
     2
1070
    44
1040
0.9385317878468564
1070
    74
1070
     0
1000
MTEXTEND
1000
ACAD_MTEXT_DEFINED_HEIGHT_BEGIN
1070
    46
1040
0.014367046408497
1000
ACAD_MTEXT_DEFINED_HEIGHT_END
  0
LINE
  5
589F
330
6C
100
AcDbEntity
  8
0
 62
     0
370
     0
100
AcDbLine
 10
-161.6252291807632
 20
41.75475784774885
 30
0.0
 11
-161.6252291807632
 21
41.70884191805073
 31
0.0
  0
LINE
  5
58A0
330
6C
100
AcDbEntity
  8
0
 62
     0
370
     0
100
AcDbLine
 10
-161.6005688317694
 20
41.74052018861893
 30
0.0
 11
-161.6005688317693
 21
41.6946042589208
 31
0.0
  0
LINE
  5
58A1
330
6C
100
AcDbEntity
  8
0
 62
     0
370
     0
100
AcDbLine
 10
-161.6252291807632
 20
41.74987781867328
 30
0.0
 11
-161.620027953227
 21
41.74687488855513
 31
0.0
  0
HATCH
  5
58A3
330
6C
100
AcDbEntity
  8
Layer1
100
AcDbHatch
 10
0.0
 20
0.0
 30
0.0
210
0.0
220
0.0
230
1.0
  2
SOLID
 70
     1
 71
     0
 91
        1
 92
        1
 93
        3
 72
     1
 10
-161.6214190404582
 20
41.74558326799367
 11
-161.6252291807631
 21
41.74987781867326
 72
     1
 10
-161.6252291807631
 20
41.74987781867326
 11
-161.6214190404583
 21
41.74910577382425
 72
     1
 10
-161.6214190404583
 20
41.74910577382425
 11
-161.6214190404582
 21
41.74558326799367
 97
        0
 75
     1
 76
     1
 98
        1
 10
-161.622466898362
 20
41.74771815742476
1001
GradientColor1ACI
1070
     5
1001
GradientColor2ACI
1070
     2
1001
ACAD
1010
0.0
1020
0.0
1030
0.0
  0
LINE
  5
58A4
330
6C
100
AcDbEntity
  8
Layer1
100
AcDbLine
 10
-161.6214190404583
 20
41.74558326799367
 30
0.0
 11
-161.6252291807631
 21
41.74987781867326
 31
0.0
  0
LINE
  5
58A5
330
6C
100
AcDbEntity
  8
0
100
AcDbLine
 10
-161.6214190404583
 20
41.74910577382427
 30
0.0
 11
-161.6252291807631
 21
41.74987781867326
 31
0.0
  0
LINE
  5
58A6
330
6C
100
AcDbEntity
  8
0
100
AcDbLine
 10
-161.6214190404583
 20
41.74558326799367
 30
0.0
 11
-161.6214190404583
 21
41.74910577382427
 31
0.0
  0
HATCH
  5
58A7
330
6C
100
AcDbEntity
  8
Layer1
100
AcDbHatch
 10
0.0
 20
0.0
 30
0.0
210
0.0
220
0.0
230
1.0
  2
SOLID
 70
     1
 71
     0
 91
        1
 92
        1
 93
        3
 72
     1
 10
-161.6043789720743
 20
41.73993471022298
 11
-161.6005688317694
 21
41.73564015954339
 72
     1
 10
-161.6005688317694
 20
41.73564015954339
 11
-161.6043789720742
 21
41.73641220439241
 72
     1
 10
-161.6043789720742
 20
41.73641220439241
 11
-161.6043789720743
 21
41.73993471022298
 97
        0
 75
     1
 76
     1
 98
        1
 10
-161.6033311141705
 20
41.7377998207919
1001
GradientColor1ACI
1070
     5
1001
GradientColor2ACI
1070
     2
1001
ACAD
1010
0.0
1020
0.0
1030
0.0
  0
LINE
  5
58A8
330
6C
100
AcDbEntity
  8
Layer1
100
AcDbLine
 10
-161.6043789720742
 20
41.73993471022298
 30
0.0
 11
-161.6005688317694
 21
41.73564015954339
 31
0.0
  0
LINE
  5
58A9
330
6C
100
AcDbEntity
  8
0
100
AcDbLine
 10
-161.6043789720742
 20
41.73641220439239
 30
0.0
 11
-161.6005688317694
 21
41.73564015954339
 31
0.0
  0
LINE
  5
58AA
330
6C
100
AcDbEntity
  8
0
100
AcDbLine
 10
-161.6043789720742
 20
41.73993471022298
 30
0.0
 11
-161.6043789720742
 21
41.73641220439239
 31
0.0
  0
MTEXT
  5
58AB
102
{ACAD_XDICTIONARY
360
6249
102
}
330
6C
100
AcDbEntity
  8
A-ANNO-TEXT
 62
     7
100
AcDbMText
 10
-161.6123689030794
 20
41.7476320600974
 30
0.0
 40
0.006912
 41
0.0122763356372089
 71
     2
 72
     1
  1
\A1;{\fArial|b0|i0|c0|p34;W}
 73
     2
 44
0.9385317878468564
1001
REVIT
1002
{
1070
     1
1000
332280
1002
}
1002
{
1070
     5
1000
332282
1002
}
1002
{
1070
     2
1000
-2000300
1002
}
1001
ACAD
1000
MTEXTBEGIN
1070
    73
1070
     2
1070
    44
1040
0.9385317878468564
1070
    74
1070
     0
1000
MTEXTEND
1000
ACAD_MTEXT_DEFINED_HEIGHT_BEGIN
1070
    46
1040
0.014367046408497
1000
ACAD_MTEXT_DEFINED_HEIGHT_END
  0
MTEXT
  5
58AC
102
{ACAD_XDICTIONARY
360
624B
102
}
330
6C
100
AcDbEntity
  8
A-ANNO-TEXT
 62
     7
100
AcDbMText
 10
-161.6059725481242
 20
41.74160717753736
 30
0.0
 40
0.006912
 41
0.0122763356372089
 71
     2
 72
     1
  1
\A1;{\fArial|b0|i0|c0|p34;4}
 73
     2
 44
0.9385317878468564
1001
REVIT
1002
{
1070
     1
1000
332280
1002
}
1002
{
1070
     5
1000
332282
1002
}
1002
{
1070
     2
1000
-2000300
1002
}
1001
ACAD
1000
MTEXTBEGIN
1070
    73
1070
     2
1070
    44
1040
0.9385317878468564
1070
    74
1070
     0
1000
MTEXTEND
1000
ACAD_MTEXT_DEFINED_HEIGHT_BEGIN
1070
    46
1040
0.014367046408497
1000
ACAD_MTEXT_DEFINED_HEIGHT_END
  0
LINE
  5
58AF
330
6C
100
AcDbEntity
  8
0
 62
     0
370
     0
100
AcDbLine
 10
-161.6062745601754
 20
41.73893436337457
 30
0.0
 11
-161.6005688317694
 21
41.73564015954339
 31
0.0
  0
LINE
  5
591A
330
6C
100
AcDbEntity
  8
0
 62
     0
370
     0
100
AcDbLine
 10
-161.6587659826028
 20
41.76660651962951
 30
0.0
 11
-161.6587659826027
 21
41.68947943648095
 31
0.0
  0
LINE
  5
5927
330
6C
100
AcDbEntity
  8
0
 62
     0
370
     0
100
AcDbLine
 10
-161.6319843132654
 20
41.75114411562815
 30
0.0
 11
-161.6319843132652
 21
41.67401703247963
 31
0.0
  0
LINE
  5
5929
330
6C
100
AcDbEntity
  8
0
 62
     0
370
     0
100
AcDbLine
 10
-161.6319843132653
 20
41.7454667566
 30
0.0
 11
-161.6379329038905
 21
41.74890117699878
 31
0.0
  0
LINE
  5
592A
330
6C
100
AcDbEntity
  8
0
 62
     0
370
     0
100
AcDbLine
 10
-161.6527698431579
 20
41.75746728787873
 30
0.0
 11
-161.6587659826028
 21
41.76092916060133
 31
0.0
  0
HATCH
  5
592B
330
6C
100
AcDbEntity
  8
Layer1
100
AcDbHatch
 10
0.0
 20
0.0
 30
0.0
210
0.0
220
0.0
230
1.0
  2
SOLID
 70
     1
 71
     0
 91
        1
 92
        1
 93
        3
 72
     1
 10
-161.6549558422979
 20
41.75663460992175
 11
-161.6587659826028
 21
41.76092916060134
 72
     1
 10
-161.6587659826028
 20
41.76092916060134
 11
-161.6549558422979
 21
41.76015711575232
 72
     1
 10
-161.6549558422979
 20
41.76015711575232
 11
-161.6549558422979
 21
41.75663460992175
 97
        0
 75
     1
 76
     1
 98
        1
 10
-161.6560037002017
 20
41.75876949935283
1001
GradientColor1ACI
1070
     5
1001
GradientColor2ACI
1070
     2
1001
ACAD
1010
0.0
1020
0.0
1030
0.0
  0
LINE
  5
592C
330
6C
100
AcDbEntity
  8
Layer1
100
AcDbLine
 10
-161.6549558422979
 20
41.75663460992175
 30
0.0
 11
-161.6587659826028
 21
41.76092916060134
 31
0.0
  0
LINE
  5
592D
330
6C
100
AcDbEntity
  8
0
100
AcDbLine
 10
-161.6549558422979
 20
41.76015711575234
 30
0.0
 11
-161.6587659826028
 21
41.76092916060134
 31
0.0
  0
LINE
  5
592E
330
6C
100
AcDbEntity
  8
0
100
AcDbLine
 10
-161.6549558422979
 20
41.75663460992175
 30
0.0
 11
-161.6549558422979
 21
41.76015711575234
 31
0.0
  0
HATCH
  5
592F
330
6C
100
AcDbEntity
  8
Layer1
100
AcDbHatch
 10
0.0
 20
0.0
 30
0.0
210
0.0
220
0.0
230
1.0
  2
SOLID
 70
     1
 71
     0
 91
        1
 92
        1
 93
        3
 72
     1
 10
-161.6357944535702
 20
41.74976130727959
 11
-161.6319843132654
 21
41.7454667566
 72
     1
 10
-161.6319843132654
 20
41.7454667566
 11
-161.6357944535702
 21
41.74623880144902
 72
     1
 10
-161.6357944535702
 20
41.74623880144902
 11
-161.6357944535702
 21
41.74976130727959
 97
        0
 75
     1
 76
     1
 98
        1
 10
-161.6347465956664
 20
41.7476264178485
1001
GradientColor1ACI
1070
     5
1001
GradientColor2ACI
1070
     2
1001
ACAD
1010
0.0
1020
0.0
1030
0.0
  0
LINE
  5
5930
330
6C
100
AcDbEntity
  8
Layer1
100
AcDbLine
 10
-161.6357944535702
 20
41.74976130727959
 30
0.0
 11
-161.6319843132653
 21
41.7454667566
 31
0.0
  0
LINE
  5
5931
330
6C
100
AcDbEntity
  8
0
100
AcDbLine
 10
-161.6357944535702
 20
41.74623880144898
 30
0.0
 11
-161.6319843132653
 21
41.7454667566
 31
0.0
  0
LINE
  5
5932
330
6C
100
AcDbEntity
  8
0
100
AcDbLine
 10
-161.6357944535702
 20
41.74976130727959
 30
0.0
 11
-161.6357944535702
 21
41.74623880144898
 31
0.0
  0
MTEXT
  5
5933
102
{ACAD_XDICTIONARY
360
624D
102
}
330
6C
100
AcDbEntity
  8
A-ANNO-TEXT
 62
     7
100
AcDbMText
 10
-161.6451567470066
 20
41.7583029118034
 30
0.0
 40
0.006912
 41
0.0122763356372089
 71
     2
 72
     1
  1
\A1;{\fArial|b0|i0|c0|p34;W}
 73
     2
 44
0.9385317878468564
1001
REVIT
1002
{
1070
     1
1000
332280
1002
}
1002
{
1070
     5
1000
332282
1002
}
1002
{
1070
     2
1000
-2000300
1002
}
1001
ACAD
1000
MTEXTBEGIN
1070
    73
1070
     2
1070
    44
1040
0.9385317878468564
1070
    74
1070
     0
1000
MTEXTEND
1000
ACAD_MTEXT_DEFINED_HEIGHT_BEGIN
1070
    46
1040
0.014367046408497
1000
ACAD_MTEXT_DEFINED_HEIGHT_END
  0
MTEXT
  5
5934
102
{ACAD_XDICTIONARY
360
624F
102
}
330
6C
100
AcDbEntity
  8
A-ANNO-TEXT
 62
     7
100
AcDbMText
 10
-161.637692675785
 20
41.75202693550374
 30
0.0
 40
0.006912
 41
0.0122763356372089
 71
     2
 72
     1
  1
\A1;{\fArial|b0|i0|c0|p34;3}
 73
     2
 44
0.9385317878468564
1001
REVIT
1002
{
1070
     1
1000
332280
1002
}
1002
{
1070
     5
1000
332282
1002
}
1002
{
1070
     2
1000
-2000300
1002
}
1001
ACAD
1000
MTEXTBEGIN
1070
    73
1070
     2
1070
    44
1040
0.9385317878468564
1070
    74
1070
     0
1000
MTEXTEND
1000
ACAD_MTEXT_DEFINED_HEIGHT_BEGIN
1070
    46
1040
0.014367046408497
1000
ACAD_MTEXT_DEFINED_HEIGHT_END
  0
LINE
  5
59A3
330
6C
100
AcDbEntity
  8
0
 62
     0
370
     0
100
AcDbLine
 10
-161.7167566820519
 20
41.65458862255778
 30
0.0
 11
-161.6936695959156
 21
41.66791795795338
 31
0.0
  0
LINE
  5
59A4
330
6C
100
AcDbEntity
  8
0
 62
     0
370
     0
100
AcDbLine
 10
-161.7167566820519
 20
41.58447197867062
 30
0.0
 11
-161.6936695959156
 21
41.59780131406622
 31
0.0
  0
LINE
  5
59A5
330
6C
100
AcDbEntity
  8
0
100
AcDbLine
 10
-161.7112201935026
 20
41.65778511571209
 30
0.0
 11
-161.7112201935026
 21
41.62839843939528
 31
0.0
  0
LINE
  5
59A6
330
6C
100
AcDbEntity
  8
0
100
AcDbLine
 10
-161.7112201935026
 20
41.61082297344779
 30
0.0
 11
-161.7112201935026
 21
41.58766847182493
 31
0.0
  0
HATCH
  5
59A7
330
6C
100
AcDbEntity
  8
Layer1
100
AcDbHatch
 10
0.0
 20
0.0
 30
0.0
210
0.0
220
0.0
230
1.0
  2
SOLID
 70
     1
 71
     0
 91
        1
 92
        1
 93
        3
 72
     1
 10
-161.7130343133365
 20
41.65233816207629
 11
-161.7112201935026
 21
41.65778511571207
 72
     1
 10
-161.7112201935026
 20
41.65778511571207
 11
-161.7099843303457
 21
41.65410119319798
 72
     1
 10
-161.7099843303457
 20
41.65410119319798
 11
-161.7130343133365
 21
41.65233816207629
 97
        0
 75
     1
 76
     1
 98
        1
 10
-161.7117093738068
 20
41.6543130783561
1001
GradientColor1ACI
1070
     5
1001
GradientColor2ACI
1070
     2
1001
ACAD
1010
0.0
1020
0.0
1030
0.0
  0
LINE
  5
59A8
330
6C
100
AcDbEntity
  8
Layer1
100
AcDbLine
 10
-161.7130343133365
 20
41.65233816207631
 30
0.0
 11
-161.7112201935026
 21
41.6577851157121
 31
0.0
  0
LINE
  5
59A9
330
6C
100
AcDbEntity
  8
0
100
AcDbLine
 10
-161.7099843303457
 20
41.65410119319801
 30
0.0
 11
-161.7112201935026
 21
41.6577851157121
 31
0.0
  0
LINE
  5
59AA
330
6C
100
AcDbEntity
  8
0
100
AcDbLine
 10
-161.7130343133365
 20
41.65233816207631
 30
0.0
 11
-161.7099843303457
 21
41.65410119319801
 31
0.0
  0
HATCH
  5
59AB
330
6C
100
AcDbEntity
  8
Layer1
100
AcDbHatch
 10
0.0
 20
0.0
 30
0.0
210
0.0
220
0.0
230
1.0
  2
SOLID
 70
     1
 71
     0
 91
        1
 92
        1
 93
        3
 72
     1
 10
-161.7124381765029
 20
41.59132550528439
 11
-161.7112201935026
 21
41.58766847182495
 72
     1
 10
-161.7112201935026
 20
41.58766847182495
 11
-161.7094060736687
 21
41.5930760906719
 72
     1
 10
-161.7094060736687
 20
41.5930760906719
 11
-161.7124381765029
 21
41.59132550528439
 97
        0
 75
     1
 76
     1
 98
        1
 10
-161.7117093738068
 20
41.59114050918093
1001
GradientColor1ACI
1070
     5
1001
GradientColor2ACI
1070
     2
1001
ACAD
1010
0.0
1020
0.0
1030
0.0
  0
LINE
  5
59AC
330
6C
100
AcDbEntity
  8
Layer1
100
AcDbLine
 10
-161.7124381765029
 20
41.59132550528435
 30
0.0
 11
-161.7112201935026
 21
41.58766847182493
 31
0.0
  0
LINE
  5
59AD
330
6C
100
AcDbEntity
  8
0
100
AcDbLine
 10
-161.7094060736687
 20
41.59307609067186
 30
0.0
 11
-161.7112201935026
 21
41.58766847182493
 31
0.0
  0
LINE
  5
59AE
330
6C
100
AcDbEntity
  8
0
100
AcDbLine
 10
-161.7124381765029
 20
41.59132550528435
 30
0.0
 11
-161.7094060736687
 21
41.59307609067186
 31
0.0
  0
MTEXT
  5
59AF
102
{ACAD_XDICTIONARY
360
6251
102
}
330
6C
100
AcDbEntity
  8
A-ANNO-TEXT
 62
     7
100
AcDbMText
 10
-161.7108169773792
 20
41.62469838169793
 30
0.0
 40
0.006912
 41
0.0122763356372089
 71
     2
 72
     1
  1
\A1;{\fArial|b0|i0|c0|p34;H}
 73
     2
 44
0.9385317878468564
1001
REVIT
1002
{
1070
     1
1000
332280
1002
}
1002
{
1070
     5
1000
332282
1002
}
1002
{
1070
     2
1000
-2000300
1002
}
1001
ACAD
1000
MTEXTBEGIN
1070
    73
1070
     2
1070
    44
1040
0.9385317878468564
1070
    74
1070
     0
1000
MTEXTEND
1000
ACAD_MTEXT_DEFINED_HEIGHT_BEGIN
1070
    46
1040
0.014367046408497
1000
ACAD_MTEXT_DEFINED_HEIGHT_END
  0
MTEXT
  5
59B0
102
{ACAD_XDICTIONARY
360
6253
102
}
330
6C
100
AcDbEntity
  8
A-ANNO-TEXT
 62
     7
100
AcDbMText
 10
-161.7037243722401
 20
41.62086833573662
 30
0.0
 40
0.006912
 41
0.0122763356372089
 71
     2
 72
     1
  1
\A1;{\fArial|b0|i0|c0|p34;2}
 73
     2
 44
0.9385317878468564
1001
REVIT
1002
{
1070
     1
1000
332280
1002
}
1002
{
1070
     5
1000
332282
1002
}
1002
{
1070
     2
1000
-2000300
1002
}
1001
ACAD
1000
MTEXTBEGIN
1070
    73
1070
     2
1070
    44
1040
0.9385317878468564
1070
    74
1070
     0
1000
MTEXTEND
1000
ACAD_MTEXT_DEFINED_HEIGHT_BEGIN
1070
    46
1040
0.014367046408497
1000
ACAD_MTEXT_DEFINED_HEIGHT_END
  0
LINE
  5
59B2
330
6C
100
AcDbEntity
  8
0
 62
     0
370
     0
100
AcDbLine
 10
-161.6927071080997
 20
41.73334372267983
 30
0.0
 11
-161.6823660437006
 21
41.73931413899437
 31
0.0
  0
LINE
  5
59B3
330
6C
100
AcDbEntity
  8
0
 62
     0
370
     0
100
AcDbLine
 10
-161.6691871397145
 20
41.74692298275837
 30
0.0
 11
-161.6587659826028
 21
41.75293964062209
 31
0.0
  0
MTEXT
  5
59B4
102
{ACAD_XDICTIONARY
360
6255
102
}
330
6C
100
AcDbEntity
  8
A-ANNO-TEXT
 62
     7
100
AcDbMText
 10
-161.6736195694114
 20
41.74633799782003
 30
0.0
 40
0.006912
 41
0.0122763356372089
 71
     2
 72
     1
  1
\A1;{\fArial|b0|i0|c0|p34;4"}
 73
     2
 44
0.9385317878468564
1001
REVIT
1002
{
1070
     1
1000
332280
1002
}
1002
{
1070
     5
1000
332282
1002
}
1002
{
1070
     2
1000
-2000300
1002
}
1001
ACAD
1000
MTEXTBEGIN
1070
    73
1070
     2
1070
    44
1040
0.9385317878468564
1070
    74
1070
     0
1000
MTEXTEND
1000
ACAD_MTEXT_DEFINED_HEIGHT_BEGIN
1070
    46
1040
0.014367046408497
1000
ACAD_MTEXT_DEFINED_HEIGHT_END
  0
HATCH
  5
59B5
330
6C
100
AcDbEntity
  8
Layer1
100
AcDbHatch
 10
0.0
 20
0.0
 30
0.0
210
0.0
220
0.0
230
1.0
  2
SOLID
 70
     1
 71
     0
 91
        1
 92
        1
 93
        3
 72
     1
 10
-161.6889310327212
 20
41.73411743518988
 11
-161.6927071080997
 21
41.73334372267986
 72
     1
 10
-161.6927071080997
 20
41.73334372267986
 11
-161.6889310327212
 21
41.73761860596502
 72
     1
 10
-161.6889310327212
 20
41.73761860596502
 11
-161.6889310327212
 21
41.73411743518988
 97
        0
 75
     1
 76
     1
 98
        1
 10
-161.6894556453944
 20
41.73465609878735
1001
GradientColor1ACI
1070
     5
1001
GradientColor2ACI
1070
     2
1001
ACAD
1010
0.0
1020
0.0
1030
0.0
  0
LINE
  5
59B6
330
6C
100
AcDbEntity
  8
Layer1
100
AcDbLine
 10
-161.6889310327212
 20
41.73411743518985
 30
0.0
 11
-161.6927071080997
 21
41.73334372267984
 31
0.0
  0
LINE
  5
59B7
330
6C
100
AcDbEntity
  8
0
100
AcDbLine
 10
-161.6889310327212
 20
41.73761860596502
 30
0.0
 11
-161.6927071080997
 21
41.73334372267984
 31
0.0
  0
LINE
  5
59B8
330
6C
100
AcDbEntity
  8
0
100
AcDbLine
 10
-161.6889310327212
 20
41.73411743518985
 30
0.0
 11
-161.6889310327212
 21
41.73761860596502
 31
0.0
  0
LINE
  5
59B9
330
6C
100
AcDbEntity
  8
0
100
AcDbLine
 10
-161.6624821214016
 20
41.74856349538804
 30
0.0
 11
-161.6624821214015
 21
41.75210237931891
 31
0.0
  0
HATCH
  5
59BA
330
6C
100
AcDbEntity
  8
Layer1
100
AcDbHatch
 10
0.0
 20
0.0
 30
0.0
210
0.0
220
0.0
230
1.0
  2
SOLID
 70
     1
 71
     0
 91
        1
 92
        1
 93
        3
 72
     1
 10
-161.6624821214016
 20
41.74856349538804
 11
-161.6587659826028
 21
41.7529396406221
 72
     1
 10
-161.6587659826028
 20
41.7529396406221
 11
-161.6624821214016
 21
41.75210237931888
 72
     1
 10
-161.6624821214016
 20
41.75210237931888
 11
-161.6624821214016
 21
41.74856349538804
 97
        0
 75
     1
 76
     1
 98
        1
 10
-161.6614807942453
 20
41.75072060062321
1001
GradientColor1ACI
1070
     5
1001
GradientColor2ACI
1070
     2
1001
ACAD
1010
0.0
1020
0.0
1030
0.0
  0
LINE
  5
59BB
330
6C
100
AcDbEntity
  8
Layer1
100
AcDbLine
 10
-161.6624821214016
 20
41.74856349538804
 30
0.0
 11
-161.6587659826027
 21
41.7529396406221
 31
0.0
  0
LINE
  5
59BC
330
6C
100
AcDbEntity
  8
0
100
AcDbLine
 10
-161.6624821214016
 20
41.75210237931891
 30
0.0
 11
-161.6587659826027
 21
41.7529396406221
 31
0.0
  0
LINE
  5
59BD
330
6C
100
AcDbEntity
  8
0
 62
     0
370
     0
100
AcDbLine
 10
-161.6927292016967
 20
41.73921766137642
 30
0.0
 11
-161.6927071080996
 21
41.66988351853869
 31
0.0
  0
LINE
  5
59BE
330
6C
100
AcDbEntity
  8
0
 62
     0
370
     0
100
AcDbLine
 10
-161.6915834447137
 20
41.77729473047214
 30
0.0
 11
-161.6915834447137
 21
41.71018338110836
 31
0.0
  0
LINE
  5
59BF
330
6C
100
AcDbEntity
  8
0
100
AcDbLine
 10
-161.6915834447135
 20
41.77153280901008
 30
0.0
 11
-161.6827192384669
 21
41.77665056087267
 31
0.0
  0
LINE
  5
59C0
330
6C
100
AcDbEntity
  8
0
100
AcDbLine
 10
-161.6701444772338
 20
41.7839106026556
 30
0.0
 11
-161.6610894647748
 21
41.78913851653634
 31
0.0
  0
HATCH
  5
59C1
330
6C
100
AcDbEntity
  8
Layer1
100
AcDbHatch
 10
0.0
 20
0.0
 30
0.0
210
0.0
220
0.0
230
1.0
  2
SOLID
 70
     1
 71
     0
 91
        1
 92
        1
 93
        3
 72
     1
 10
-161.687807369335
 20
41.77230652152013
 11
-161.6915834447135
 21
41.77153280901012
 72
     1
 10
-161.6915834447135
 20
41.77153280901012
 11
-161.687807369335
 21
41.77580769229527
 72
     1
 10
-161.687807369335
 20
41.77580769229527
 11
-161.687807369335
 21
41.77230652152013
 97
        0
 75
     1
 76
     1
 98
        1
 10
-161.6883319820082
 20
41.77284518511759
1001
GradientColor1ACI
1070
     5
1001
GradientColor2ACI
1070
     2
1001
ACAD
1010
0.0
1020
0.0
1030
0.0
  0
LINE
  5
59C2
330
6C
100
AcDbEntity
  8
Layer1
100
AcDbLine
 10
-161.687807369335
 20
41.7723065215201
 30
0.0
 11
-161.6915834447135
 21
41.77153280901008
 31
0.0
  0
LINE
  5
59C3
330
6C
100
AcDbEntity
  8
0
100
AcDbLine
 10
-161.687807369335
 20
41.77580769229527
 30
0.0
 11
-161.6915834447135
 21
41.77153280901008
 31
0.0
  0
LINE
  5
59C4
330
6C
100
AcDbEntity
  8
0
100
AcDbLine
 10
-161.687807369335
 20
41.7723065215201
 30
0.0
 11
-161.687807369335
 21
41.77580769229527
 31
0.0
  0
HATCH
  5
59C5
330
6C
100
AcDbEntity
  8
Layer1
100
AcDbHatch
 10
0.0
 20
0.0
 30
0.0
210
0.0
220
0.0
230
1.0
  2
SOLID
 70
     1
 71
     0
 91
        1
 92
        1
 93
        3
 72
     1
 10
-161.6648655401533
 20
41.7883648040263
 11
-161.6610894647748
 21
41.78913851653631
 72
     1
 10
-161.6610894647748
 20
41.78913851653631
 11
-161.6648655401533
 21
41.78486363325116
 72
     1
 10
-161.6648655401533
 20
41.78486363325116
 11
-161.6648655401533
 21
41.7883648040263
 97
        0
 75
     1
 76
     1
 98
        1
 10
-161.6643409274801
 20
41.78782614042883
1001
GradientColor1ACI
1070
     5
1001
GradientColor2ACI
1070
     2
1001
ACAD
1010
0.0
1020
0.0
1030
0.0
  0
LINE
  5
59C6
330
6C
100
AcDbEntity
  8
Layer1
100
AcDbLine
 10
-161.6648655401532
 20
41.78836480402632
 30
0.0
 11
-161.6610894647748
 21
41.78913851653634
 31
0.0
  0
LINE
  5
59C7
330
6C
100
AcDbEntity
  8
0
100
AcDbLine
 10
-161.6648655401532
 20
41.78486363325116
 30
0.0
 11
-161.6610894647748
 21
41.78913851653634
 31
0.0
  0
LINE
  5
59C8
330
6C
100
AcDbEntity
  8
0
100
AcDbLine
 10
-161.6648655401532
 20
41.78836480402632
 30
0.0
 11
-161.6648655401532
 21
41.78486363325116
 31
0.0
  0
MTEXT
  5
59C9
102
{ACAD_XDICTIONARY
360
6257
102
}
330
6C
100
AcDbEntity
  8
A-ANNO-TEXT
 62
     7
100
AcDbMText
 10
-161.6762400114652
 20
41.78570487757323
 30
0.0
 40
0.006912
 41
0.0122763356372089
 71
     2
 72
     1
  1
\A1;{\fArial|b0|i0|c0|p34;W}
 73
     2
 44
0.9385317878468564
1001
REVIT
1002
{
1070
     1
1000
332280
1002
}
1002
{
1070
     5
1000
332282
1002
}
1002
{
1070
     2
1000
-2000300
1002
}
1001
ACAD
1000
MTEXTBEGIN
1070
    73
1070
     2
1070
    44
1040
0.9385317878468564
1070
    74
1070
     0
1000
MTEXTEND
1000
ACAD_MTEXT_DEFINED_HEIGHT_BEGIN
1070
    46
1040
0.014367046408497
1000
ACAD_MTEXT_DEFINED_HEIGHT_END
  0
MTEXT
  5
59CA
102
{ACAD_XDICTIONARY
360
6259
102
}
330
6C
100
AcDbEntity
  8
A-ANNO-TEXT
 62
     7
100
AcDbMText
 10
-161.6677077550496
 20
41.78179291774978
 30
0.0
 40
0.006912
 41
0.0122763356372089
 71
     2
 72
     1
  1
\A1;{\fArial|b0|i0|c0|p34;1}
 73
     2
 44
0.9385317878468564
1001
REVIT
1002
{
1070
     1
1000
332280
1002
}
1002
{
1070
     5
1000
332282
1002
}
1002
{
1070
     2
1000
-2000300
1002
}
1001
ACAD
1000
MTEXTBEGIN
1070
    73
1070
     2
1070
    44
1040
0.9385317878468564
1070
    74
1070
     0
1000
MTEXTEND
1000
ACAD_MTEXT_DEFINED_HEIGHT_BEGIN
1070
    46
1040
0.014367046408497
1000
ACAD_MTEXT_DEFINED_HEIGHT_END
  0
LWPOLYLINE
  5
5A46
330
6C
100
AcDbEntity
  8
A-ANNO-TEXT
 62
     7
100
AcDbPolyline
 90
        4
 70
     1
 43
0.0
 10
-161.7686707776918
 20
41.78306649401508
 10
-161.7134597196496
 20
41.78306649401508
 10
-161.7134597196496
 20
41.75286912559402
 10
-161.7686707776918
 20
41.75286912559402
1001
REVIT
1002
{
1070
     1
1000
332279
1002
}
1002
{
1070
     5
1000
332286
1002
}
1002
{
1070
     2
1000
-2000300
1002
}
  0
MTEXT
  5
5A47
330
6C
100
AcDbEntity
  8
A-ANNO-TEXT
 62
     7
100
AcDbMText
 10
-161.7405571613525
 20
41.77812941371146
 30
0.0
 40
0.0174664911248931
 41
0.0361434262948207
 71
     2
 72
     1
  1
{\fArial|b1|i0|c163|p34;D\fArial|b1|i0|c0|p34;81}
 73
     2
 44
0.9385317878468564
1001
REVIT
1002
{
1070
     1
1000
332279
1002
}
1002
{
1070
     5
1000
332286
1002
}
1002
{
1070
     2
1000
-2000300
1002
}
1001
ACAD
1000
MTEXTBEGIN
1070
    73
1070
     2
1070
    44
1040
0.9385317878468564
1070
    74
1070
     0
1000
MTEXTEND
  0
LINE
  5
5A48
330
6C
100
AcDbEntity
  8
0
 62
     0
370
     0
100
AcDbLine
 10
-161.6557231607019
 20
41.51003733826121
 30
0.0
 11
-161.655723160702
 21
41.53609270475906
 31
0.0
  0
LINE
  5
5A49
330
6C
100
AcDbEntity
  8
0
 62
     0
370
     0
100
AcDbLine
 10
-161.6254247664989
 20
41.4925445522121
 30
0.0
 11
-161.625424766499
 21
41.51859991870995
 31
0.0
  0
LINE
  5
5A4A
330
6C
100
AcDbEntity
  8
0
 62
     0
370
     0
100
AcDbLine
 10
-161.6254247664989
 20
41.49835837517302
 30
0.0
 11
-161.6327256256499
 21
41.50257352816917
 31
0.0
  0
LINE
  5
5A4B
330
6C
100
AcDbEntity
  8
0
 62
     0
370
     0
100
AcDbLine
 10
-161.6476721291575
 20
41.51120289599275
 30
0.0
 11
-161.655723160702
 21
41.51585116122218
 31
0.0
  0
HATCH
  5
5A4C
330
6C
100
AcDbEntity
  8
Layer1
100
AcDbHatch
 10
0.0
 20
0.0
 30
0.0
210
0.0
220
0.0
230
1.0
  2
SOLID
 70
     1
 71
     0
 91
        1
 92
        1
 93
        3
 72
     1
 10
-161.6519130203971
 20
41.5115566105426
 11
-161.655723160702
 21
41.51585116122219
 72
     1
 10
-161.655723160702
 20
41.51585116122219
 11
-161.6519130203971
 21
41.51507911637317
 72
     1
 10
-161.6519130203971
 20
41.51507911637317
 11
-161.6519130203971
 21
41.5115566105426
 97
        0
 75
     1
 76
     1
 98
        1
 10
-161.6529608783009
 20
41.51369149997369
1001
GradientColor1ACI
1070
     5
1001
GradientColor2ACI
1070
     2
1001
ACAD
1010
0.0
1020
0.0
1030
0.0
  0
LINE
  5
5A4D
330
6C
100
AcDbEntity
  8
Layer1
100
AcDbLine
 10
-161.6519130203971
 20
41.5115566105426
 30
0.0
 11
-161.655723160702
 21
41.51585116122219
 31
0.0
  0
LINE
  5
5A4E
330
6C
100
AcDbEntity
  8
0
100
AcDbLine
 10
-161.6519130203971
 20
41.51507911637319
 30
0.0
 11
-161.655723160702
 21
41.51585116122219
 31
0.0
  0
LINE
  5
5A4F
330
6C
100
AcDbEntity
  8
0
100
AcDbLine
 10
-161.6519130203971
 20
41.5115566105426
 30
0.0
 11
-161.6519130203971
 21
41.51507911637319
 31
0.0
  0
HATCH
  5
5A50
330
6C
100
AcDbEntity
  8
Layer1
100
AcDbHatch
 10
0.0
 20
0.0
 30
0.0
210
0.0
220
0.0
230
1.0
  2
SOLID
 70
     1
 71
     0
 91
        1
 92
        1
 93
        3
 72
     1
 10
-161.6292349068038
 20
41.50265292585262
 11
-161.625424766499
 21
41.49835837517303
 72
     1
 10
-161.625424766499
 20
41.49835837517303
 11
-161.6292349068038
 21
41.49913042002205
 72
     1
 10
-161.6292349068038
 20
41.49913042002205
 11
-161.6292349068038
 21
41.50265292585262
 97
        0
 75
     1
 76
     1
 98
        1
 10
-161.6281870489
 20
41.50051803642154
1001
GradientColor1ACI
1070
     5
1001
GradientColor2ACI
1070
     2
1001
ACAD
1010
0.0
1020
0.0
1030
0.0
  0
LINE
  5
5A51
330
6C
100
AcDbEntity
  8
Layer1
100
AcDbLine
 10
-161.6292349068038
 20
41.50265292585262
 30
0.0
 11
-161.6254247664989
 21
41.49835837517303
 31
0.0
  0
LINE
  5
5A52
330
6C
100
AcDbEntity
  8
0
100
AcDbLine
 10
-161.6292349068038
 20
41.49913042002203
 30
0.0
 11
-161.6254247664989
 21
41.49835837517303
 31
0.0
  0
LINE
  5
5A53
330
6C
100
AcDbEntity
  8
0
100
AcDbLine
 10
-161.6292349068038
 20
41.50265292585262
 30
0.0
 11
-161.6292349068038
 21
41.49913042002203
 31
0.0
  0
MTEXT
  5
5A54
102
{ACAD_XDICTIONARY
360
625B
102
}
330
6C
100
AcDbEntity
  8
A-ANNO-TEXT
 62
     7
100
AcDbMText
 10
-161.6401869925839
 20
41.51287013805119
 30
0.0
 40
0.006912
 41
0.0122763356372089
 71
     2
 72
     1
  1
\A1;{\fArial|b0|i0|c0|p34;W}
 73
     2
 44
0.9385317878468564
1001
REVIT
1002
{
1070
     1
1000
332280
1002
}
1002
{
1070
     5
1000
332282
1002
}
1002
{
1070
     2
1000
-2000300
1002
}
1001
ACAD
1000
MTEXTBEGIN
1070
    73
1070
     2
1070
    44
1040
0.9385317878468564
1070
    74
1070
     0
1000
MTEXTEND
1000
ACAD_MTEXT_DEFINED_HEIGHT_BEGIN
1070
    46
1040
0.014367046408497
1000
ACAD_MTEXT_DEFINED_HEIGHT_END
  0
MTEXT
  5
5A55
102
{ACAD_XDICTIONARY
360
625D
102
}
330
6C
100
AcDbEntity
  8
A-ANNO-TEXT
 62
     7
100
AcDbMText
 10
-161.6318998118698
 20
41.50769106141331
 30
0.0
 40
0.006912
 41
0.0122763356372089
 71
     2
 72
     1
  1
\A1;{\fArial|b0|i0|c0|p34;2}
 73
     2
 44
0.9385317878468564
1001
REVIT
1002
{
1070
     1
1000
332280
1002
}
1002
{
1070
     5
1000
332282
1002
}
1002
{
1070
     2
1000
-2000300
1002
}
1001
ACAD
1000
MTEXTBEGIN
1070
    73
1070
     2
1070
    44
1040
0.9385317878468564
1070
    74
1070
     0
1000
MTEXTEND
1000
ACAD_MTEXT_DEFINED_HEIGHT_BEGIN
1070
    46
1040
0.014367046408497
1000
ACAD_MTEXT_DEFINED_HEIGHT_END
  0
LINE
  5
5AD2
330
6C
100
AcDbEntity
  8
0
 62
     0
370
     0
100
AcDbLine
 10
-161.5666613685186
 20
41.67186113385623
 30
0.0
 11
-161.5319812981536
 21
41.65183858589549
 31
0.0
  0
LINE
  5
5AD3
330
6C
100
AcDbEntity
  8
0
 62
     0
370
     0
100
AcDbLine
 10
-161.5666613685186
 20
41.59776406913704
 30
0.0
 11
-161.5319812981536
 21
41.57774152117631
 31
0.0
  0
LINE
  5
5AD5
330
6C
100
AcDbEntity
  8
0
100
AcDbLine
 10
-161.5363556252698
 20
41.65436410483362
 30
0.0
 11
-161.5363556252698
 21
41.62878356045232
 31
0.0
  0
LINE
  5
5AD6
330
6C
100
AcDbEntity
  8
0
100
AcDbLine
 10
-161.5363556252698
 20
41.60513531425372
 30
0.0
 11
-161.5363556252698
 21
41.58026704011434
 31
0.0
  0
HATCH
  5
5AD7
330
6C
100
AcDbEntity
  8
Layer1
100
AcDbHatch
 10
0.0
 20
0.0
 30
0.0
210
0.0
220
0.0
230
1.0
  2
SOLID
 70
     1
 71
     0
 91
        1
 92
        1
 93
        3
 72
     1
 10
-161.5345415054359
 20
41.64891715119781
 11
-161.5363556252698
 21
41.6543641048336
 72
     1
 10
-161.5363556252698
 20
41.6543641048336
 11
-161.5375914884267
 21
41.65068018231951
 72
     1
 10
-161.5375914884267
 20
41.65068018231951
 11
-161.5345415054359
 21
41.64891715119781
 97
        0
 75
     1
 76
     1
 98
        1
 10
-161.5358664449656
 20
41.65089206747762
1001
GradientColor1ACI
1070
     5
1001
GradientColor2ACI
1070
     2
1001
ACAD
1010
0.0
1020
0.0
1030
0.0
  0
LINE
  5
5AD8
330
6C
100
AcDbEntity
  8
Layer1
100
AcDbLine
 10
-161.5345415054359
 20
41.64891715119785
 30
0.0
 11
-161.5363556252698
 21
41.65436410483363
 31
0.0
  0
LINE
  5
5AD9
330
6C
100
AcDbEntity
  8
0
100
AcDbLine
 10
-161.5375914884267
 20
41.65068018231955
 30
0.0
 11
-161.5363556252698
 21
41.65436410483363
 31
0.0
  0
LINE
  5
5ADA
330
6C
100
AcDbEntity
  8
0
100
AcDbLine
 10
-161.5345415054359
 20
41.64891715119785
 30
0.0
 11
-161.5375914884267
 21
41.65068018231955
 31
0.0
  0
HATCH
  5
5ADB
330
6C
100
AcDbEntity
  8
Layer1
100
AcDbHatch
 10
0.0
 20
0.0
 30
0.0
210
0.0
220
0.0
230
1.0
  2
SOLID
 70
     1
 71
     0
 91
        1
 92
        1
 93
        3
 72
     1
 10
-161.5351376422694
 20
41.5839240735739
 11
-161.5363556252698
 21
41.58026704011446
 72
     1
 10
-161.5363556252698
 20
41.58026704011446
 11
-161.5381697451037
 21
41.58567465896141
 72
     1
 10
-161.5381697451037
 20
41.58567465896141
 11
-161.5351376422694
 21
41.5839240735739
 97
        0
 75
     1
 76
     1
 98
        1
 10
-161.5358664449656
 20
41.58373907747044
1001
GradientColor1ACI
1070
     5
1001
GradientColor2ACI
1070
     2
1001
ACAD
1010
0.0
1020
0.0
1030
0.0
  0
LINE
  5
5ADC
330
6C
100
AcDbEntity
  8
Layer1
100
AcDbLine
 10
-161.5351376422694
 20
41.58392407357387
 30
0.0
 11
-161.5363556252698
 21
41.58026704011444
 31
0.0
  0
LINE
  5
5ADD
330
6C
100
AcDbEntity
  8
0
100
AcDbLine
 10
-161.5381697451037
 20
41.58567465896139
 30
0.0
 11
-161.5363556252698
 21
41.58026704011444
 31
0.0
  0
LINE
  5
5ADE
330
6C
100
AcDbEntity
  8
0
100
AcDbLine
 10
-161.5351376422694
 20
41.58392407357387
 30
0.0
 11
-161.5381697451037
 21
41.58567465896139
 31
0.0
  0
MTEXT
  5
5AE1
102
{ACAD_XDICTIONARY
360
625F
102
}
330
6C
100
AcDbEntity
  8
A-ANNO-TEXT
 62
     7
100
AcDbMText
 10
-161.5307795496237
 20
41.62693742090488
 30
0.0
 40
0.006912
 41
0.0203659014665603
 71
     2
 72
     1
  1
\A1;{\fArial|b0|i0|c0|p34;H  =}
 73
     2
 44
0.9385317878468564
1001
REVIT
1002
{
1070
     1
1000
332280
1002
}
1002
{
1070
     5
1000
332282
1002
}
1002
{
1070
     2
1000
-2000300
1002
}
1001
ACAD
1000
MTEXTBEGIN
1070
    73
1070
     2
1070
    44
1040
0.9385317878468564
1070
    74
1070
     0
1000
MTEXTEND
1000
ACAD_MTEXT_DEFINED_HEIGHT_BEGIN
1070
    46
1040
0.014367773750822
1000
ACAD_MTEXT_DEFINED_HEIGHT_END
  0
MTEXT
  5
5AE2
102
{ACAD_XDICTIONARY
360
6261
102
}
330
6C
100
AcDbEntity
  8
A-ANNO-TEXT
 62
     7
100
AcDbMText
 10
-161.5277317273993
 20
41.62310664760125
 30
0.0
 40
0.006912
 41
0.0122763356372089
 71
     2
 72
     1
  1
\A1;{\fArial|b0|i0|c0|p34;1}
 73
     2
 44
0.9385317878468564
1001
REVIT
1002
{
1070
     1
1000
332280
1002
}
1002
{
1070
     5
1000
332282
1002
}
1002
{
1070
     2
1000
-2000300
1002
}
1001
ACAD
1000
MTEXTBEGIN
1070
    73
1070
     2
1070
    44
1040
0.9385317878468564
1070
    74
1070
     0
1000
MTEXTEND
1000
ACAD_MTEXT_DEFINED_HEIGHT_BEGIN
1070
    46
1040
0.014367046408497
1000
ACAD_MTEXT_DEFINED_HEIGHT_END
  0
MTEXT
  5
5AE3
102
{ACAD_XDICTIONARY
360
6263
102
}
330
6C
100
AcDbEntity
  8
A-ANNO-TEXT
 62
     7
100
AcDbMText
 10
-161.5307795496237
 20
41.61434747983284
 30
0.0
 40
0.006912
 41
0.0203659014665603
 71
     2
 72
     1
  1
\A1;{\fArial|b0|i0|c0|p34;7"}
 73
     2
 44
0.9385317878468564
1001
REVIT
1002
{
1070
     1
1000
332280
1002
}
1002
{
1070
     5
1000
332282
1002
}
1002
{
1070
     2
1000
-2000300
1002
}
1001
ACAD
1000
MTEXTBEGIN
1070
    73
1070
     2
1070
    44
1040
0.9385317878468564
1070
    74
1070
     0
1000
MTEXTEND
1000
ACAD_MTEXT_DEFINED_HEIGHT_BEGIN
1070
    46
1040
0.014367773750822
1000
ACAD_MTEXT_DEFINED_HEIGHT_END
  0
ARC
  5
5C4D
330
6C
100
AcDbEntity
  8
0
100
AcDbCircle
 10
-161.6325842226588
 20
41.66215319284289
 30
0.0
 40
0.0015104756557974
100
AcDbArc
 50
59.1670168111521
 51
120.8329831879221
  0
ARC
  5
5C4E
330
6C
100
AcDbEntity
  8
0
100
AcDbCircle
 10
-161.6325842226588
 20
41.66148447748578
 30
0.0
 40
0.0015104756557974
100
AcDbArc
 50
59.1670168111521
 51
120.8329831879221
  0
ARC
  5
5C4F
330
6C
100
AcDbEntity
  8
0
100
AcDbCircle
 10
-161.6325842226589
 20
41.66081576212867
 30
0.0
 40
0.0015104756557974
100
AcDbArc
 50
59.1670168111521
 51
120.8329831879221
  0
ARC
  5
5C50
330
6C
100
AcDbEntity
  8
0
100
AcDbCircle
 10
-161.6325842226589
 20
41.66014704677157
 30
0.0
 40
0.0015104756557974
100
AcDbArc
 50
59.1670168111521
 51
120.8329831879221
  0
ARC
  5
5C51
330
6C
100
AcDbEntity
  8
0
100
AcDbCircle
 10
-161.6325842226589
 20
41.65947833141446
 30
0.0
 40
0.0015104756557974
100
AcDbArc
 50
59.1670168111521
 51
120.8329831879221
  0
ARC
  5
5C52
330
6C
100
AcDbEntity
  8
0
100
AcDbCircle
 10
-161.632584222659
 20
41.65880961605735
 30
0.0
 40
0.0015104756557974
100
AcDbArc
 50
59.1670168111521
 51
120.8329831879221
  0
ARC
  5
5C53
330
6C
100
AcDbEntity
  8
0
100
AcDbCircle
 10
-161.632584222659
 20
41.65814090070024
 30
0.0
 40
0.0015104756557974
100
AcDbArc
 50
59.1670168111521
 51
120.8329831879221
  0
ARC
  5
5C54
330
6C
100
AcDbEntity
  8
0
100
AcDbCircle
 10
-161.632584222659
 20
41.65747218534313
 30
0.0
 40
0.0015104756557974
100
AcDbArc
 50
59.1670168111521
 51
120.8329831879221
  0
ARC
  5
5C55
330
6C
100
AcDbEntity
  8
0
100
AcDbCircle
 10
-161.632584222659
 20
41.65680346998603
 30
0.0
 40
0.0015104756557974
100
AcDbArc
 50
59.1670168111521
 51
120.8329831879221
  0
ARC
  5
5C56
330
6C
100
AcDbEntity
  8
0
100
AcDbCircle
 10
-161.6325842226591
 20
41.65613475462892
 30
0.0
 40
0.0015104756557974
100
AcDbArc
 50
59.1670168111521
 51
120.8329831879221
  0
ARC
  5
5C57
330
6C
100
AcDbEntity
  8
0
100
AcDbCircle
 10
-161.6325842226591
 20
41.65546603927182
 30
0.0
 40
0.0015104756557974
100
AcDbArc
 50
59.1670168111521
 51
120.8329831879221
  0
ARC
  5
5C58
330
6C
100
AcDbEntity
  8
0
100
AcDbCircle
 10
-161.6325842226591
 20
41.6547973239147
 30
0.0
 40
0.0015104756557974
100
AcDbArc
 50
59.1670168111521
 51
120.8329831879221
  0
ARC
  5
5C59
330
6C
100
AcDbEntity
  8
0
100
AcDbCircle
 10
-161.6325842226592
 20
41.65412860855759
 30
0.0
 40
0.0015104756557974
100
AcDbArc
 50
59.1670168111521
 51
120.8329831879221
  0
ARC
  5
5C5A
330
6C
100
AcDbEntity
  8
0
100
AcDbCircle
 10
-161.6325842226592
 20
41.65345989320049
 30
0.0
 40
0.0015104756557974
100
AcDbArc
 50
59.1670168111521
 51
120.8329831879221
  0
ARC
  5
5C5B
330
6C
100
AcDbEntity
  8
0
100
AcDbCircle
 10
-161.6325842226592
 20
41.65279117784338
 30
0.0
 40
0.0015104756557974
100
AcDbArc
 50
59.1670168111521
 51
120.8329831879221
  0
ARC
  5
5C5C
330
6C
100
AcDbEntity
  8
0
100
AcDbCircle
 10
-161.6325842226592
 20
41.65212246248628
 30
0.0
 40
0.0015104756557974
100
AcDbArc
 50
59.1670168111521
 51
120.8329831879221
  0
ARC
  5
5C5D
330
6C
100
AcDbEntity
  8
0
100
AcDbCircle
 10
-161.6325842226593
 20
41.65145374712916
 30
0.0
 40
0.0015104756557974
100
AcDbArc
 50
59.1670168111521
 51
120.8329831879221
  0
ARC
  5
5C5E
330
6C
100
AcDbEntity
  8
0
100
AcDbCircle
 10
-161.6325842226593
 20
41.65078503177205
 30
0.0
 40
0.0015104756557974
100
AcDbArc
 50
59.1670168111521
 51
120.8329831879221
  0
ARC
  5
5C5F
330
6C
100
AcDbEntity
  8
0
100
AcDbCircle
 10
-161.6325842226593
 20
41.65011631641495
 30
0.0
 40
0.0015104756557974
100
AcDbArc
 50
59.1670168111521
 51
120.8329831879221
  0
ARC
  5
5C60
330
6C
100
AcDbEntity
  8
0
100
AcDbCircle
 10
-161.6325842226594
 20
41.64944760105784
 30
0.0
 40
0.0015104756557974
100
AcDbArc
 50
59.1670168111521
 51
120.8329831879221
  0
ARC
  5
5C61
330
6C
100
AcDbEntity
  8
0
100
AcDbCircle
 10
-161.6325842226594
 20
41.64877888570074
 30
0.0
 40
0.0015104756557974
100
AcDbArc
 50
59.1670168111521
 51
120.8329831879221
  0
ARC
  5
5C62
330
6C
100
AcDbEntity
  8
0
100
AcDbCircle
 10
-161.6325842226594
 20
41.64811017034362
 30
0.0
 40
0.0015104756557974
100
AcDbArc
 50
59.1670168111521
 51
120.8329831879221
  0
ARC
  5
5C63
330
6C
100
AcDbEntity
  8
0
100
AcDbCircle
 10
-161.6325842226595
 20
41.64744145498652
 30
0.0
 40
0.0015104756557974
100
AcDbArc
 50
59.1670168111521
 51
120.8329831879221
  0
ARC
  5
5C64
330
6C
100
AcDbEntity
  8
0
100
AcDbCircle
 10
-161.6325842226596
 20
41.64677273962941
 30
0.0
 40
0.0015104756557974
100
AcDbArc
 50
59.1670168111521
 51
120.8329831879221
  0
ARC
  5
5C65
330
6C
100
AcDbEntity
  8
0
100
AcDbCircle
 10
-161.6325842226596
 20
41.6461040242723
 30
0.0
 40
0.0015104756557974
100
AcDbArc
 50
59.1670168111521
 51
120.8329831879221
  0
ARC
  5
5C66
330
6C
100
AcDbEntity
  8
0
100
AcDbCircle
 10
-161.6325842226596
 20
41.6454353089152
 30
0.0
 40
0.0015104756557974
100
AcDbArc
 50
59.1670168111521
 51
120.8329831879221
  0
ARC
  5
5C67
330
6C
100
AcDbEntity
  8
0
100
AcDbCircle
 10
-161.6325842226597
 20
41.64476659355808
 30
0.0
 40
0.0015104756557974
100
AcDbArc
 50
59.1670168111521
 51
120.8329831879221
  0
ARC
  5
5C68
330
6C
100
AcDbEntity
  8
0
100
AcDbCircle
 10
-161.6325842226597
 20
41.64409787820098
 30
0.0
 40
0.0015104756557974
100
AcDbArc
 50
59.1670168111521
 51
120.8329831879221
  0
ARC
  5
5C69
330
6C
100
AcDbEntity
  8
0
100
AcDbCircle
 10
-161.6325842226597
 20
41.64342916284387
 30
0.0
 40
0.0015104756557974
100
AcDbArc
 50
59.1670168111521
 51
120.8329831879221
  0
ARC
  5
5C6A
330
6C
100
AcDbEntity
  8
0
100
AcDbCircle
 10
-161.6325842226598
 20
41.64276044748676
 30
0.0
 40
0.0015104756557974
100
AcDbArc
 50
59.1670168111521
 51
120.8329831879221
  0
ARC
  5
5C6B
330
6C
100
AcDbEntity
  8
0
100
AcDbCircle
 10
-161.6325842226598
 20
41.64209173212966
 30
0.0
 40
0.0015104756557974
100
AcDbArc
 50
59.1670168111521
 51
120.8329831879221
  0
ARC
  5
5C6C
330
6C
100
AcDbEntity
  8
0
100
AcDbCircle
 10
-161.6325842226598
 20
41.64142301677254
 30
0.0
 40
0.0015104756557974
100
AcDbArc
 50
59.1670168111521
 51
120.8329831879221
  0
ARC
  5
5C6D
330
6C
100
AcDbEntity
  8
0
100
AcDbCircle
 10
-161.6325842226598
 20
41.64075430141544
 30
0.0
 40
0.0015104756557974
100
AcDbArc
 50
59.1670168111521
 51
120.8329831879221
  0
ARC
  5
5C6E
330
6C
100
AcDbEntity
  8
0
100
AcDbCircle
 10
-161.6325842226599
 20
41.64008558605833
 30
0.0
 40
0.0015104756557974
100
AcDbArc
 50
59.1670168111521
 51
120.8329831879221
  0
ARC
  5
5C6F
330
6C
100
AcDbEntity
  8
0
100
AcDbCircle
 10
-161.6325842226599
 20
41.63941687070122
 30
0.0
 40
0.0015104756557974
100
AcDbArc
 50
59.1670168111521
 51
120.8329831879221
  0
ARC
  5
5C70
330
6C
100
AcDbEntity
  8
0
100
AcDbCircle
 10
-161.6325842226599
 20
41.63874815534412
 30
0.0
 40
0.0015104756557974
100
AcDbArc
 50
59.1670168111521
 51
120.8329831879221
  0
ARC
  5
5C71
330
6C
100
AcDbEntity
  8
0
100
AcDbCircle
 10
-161.63258422266
 20
41.638079439987
 30
0.0
 40
0.0015104756557974
100
AcDbArc
 50
59.1670168111521
 51
120.8329831879221
  0
ARC
  5
5C72
330
6C
100
AcDbEntity
  8
0
100
AcDbCircle
 10
-161.63258422266
 20
41.6374107246299
 30
0.0
 40
0.0015104756557974
100
AcDbArc
 50
59.1670168111521
 51
120.8329831879221
  0
ARC
  5
5C73
330
6C
100
AcDbEntity
  8
0
100
AcDbCircle
 10
-161.63258422266
 20
41.63674200927279
 30
0.0
 40
0.0015104756557974
100
AcDbArc
 50
59.1670168111521
 51
120.8329831879221
  0
ARC
  5
5C74
330
6C
100
AcDbEntity
  8
0
100
AcDbCircle
 10
-161.63258422266
 20
41.63607329391568
 30
0.0
 40
0.0015104756557974
100
AcDbArc
 50
59.1670168111521
 51
120.8329831879221
  0
ARC
  5
5C75
330
6C
100
AcDbEntity
  8
0
100
AcDbCircle
 10
-161.6325842226601
 20
41.63540457855858
 30
0.0
 40
0.0015104756557974
100
AcDbArc
 50
59.1670168111521
 51
120.8329831879221
  0
ARC
  5
5C76
330
6C
100
AcDbEntity
  8
0
100
AcDbCircle
 10
-161.6325842226601
 20
41.63473586320146
 30
0.0
 40
0.0015104756557974
100
AcDbArc
 50
59.1670168111521
 51
120.8329831879221
  0
ARC
  5
5C77
330
6C
100
AcDbEntity
  8
0
100
AcDbCircle
 10
-161.6325842226601
 20
41.63406714784436
 30
0.0
 40
0.0015104756557974
100
AcDbArc
 50
59.1670168111521
 51
120.8329831879221
  0
ARC
  5
5C78
330
6C
100
AcDbEntity
  8
0
100
AcDbCircle
 10
-161.6325842226602
 20
41.63339843248725
 30
0.0
 40
0.0015104756557974
100
AcDbArc
 50
59.1670168111521
 51
120.8329831879221
  0
ARC
  5
5C79
330
6C
100
AcDbEntity
  8
0
100
AcDbCircle
 10
-161.6325842226602
 20
41.63272971713015
 30
0.0
 40
0.0015104756557974
100
AcDbArc
 50
59.1670168111521
 51
120.8329831879221
  0
ARC
  5
5C7A
330
6C
100
AcDbEntity
  8
0
100
AcDbCircle
 10
-161.6325842226602
 20
41.63206100177304
 30
0.0
 40
0.0015104756557974
100
AcDbArc
 50
59.1670168111521
 51
120.8329831879221
  0
ARC
  5
5C7B
330
6C
100
AcDbEntity
  8
0
100
AcDbCircle
 10
-161.6325842226602
 20
41.63139228641592
 30
0.0
 40
0.0015104756557974
100
AcDbArc
 50
59.1670168111521
 51
120.8329831879221
  0
ARC
  5
5C7C
330
6C
100
AcDbEntity
  8
0
100
AcDbCircle
 10
-161.6325842226603
 20
41.63072357105882
 30
0.0
 40
0.0015104756557974
100
AcDbArc
 50
59.1670168111521
 51
120.8329831879221
  0
ARC
  5
5C7D
330
6C
100
AcDbEntity
  8
0
100
AcDbCircle
 10
-161.6325842226603
 20
41.63005485570171
 30
0.0
 40
0.0015104756557974
100
AcDbArc
 50
59.1670168111521
 51
120.8329831879221
  0
ARC
  5
5C7E
330
6C
100
AcDbEntity
  8
0
100
AcDbCircle
 10
-161.6325842226603
 20
41.62938614034461
 30
0.0
 40
0.0015104756557974
100
AcDbArc
 50
59.1670168111521
 51
120.8329831879221
  0
ARC
  5
5C7F
330
6C
100
AcDbEntity
  8
0
100
AcDbCircle
 10
-161.6325842226603
 20
41.6287174249875
 30
0.0
 40
0.0015104756557974
100
AcDbArc
 50
59.1670168111521
 51
120.8329831879221
  0
ARC
  5
5C80
330
6C
100
AcDbEntity
  8
0
100
AcDbCircle
 10
-161.6325842226604
 20
41.62804870963038
 30
0.0
 40
0.0015104756557974
100
AcDbArc
 50
59.1670168111521
 51
120.8329831879221
  0
ARC
  5
5C81
330
6C
100
AcDbEntity
  8
0
100
AcDbCircle
 10
-161.6325842226605
 20
41.62737999427328
 30
0.0
 40
0.0015104756557974
100
AcDbArc
 50
59.1670168111521
 51
120.8329831879221
  0
ARC
  5
5C82
330
6C
100
AcDbEntity
  8
0
100
AcDbCircle
 10
-161.6325842226606
 20
41.62671127891617
 30
0.0
 40
0.0015104756557974
100
AcDbArc
 50
59.1670168111521
 51
120.8329831879221
  0
ARC
  5
5C83
330
6C
100
AcDbEntity
  8
0
100
AcDbCircle
 10
-161.6325842226606
 20
41.62604256355907
 30
0.0
 40
0.0015104756557974
100
AcDbArc
 50
59.1670168111521
 51
120.8329831879221
  0
ARC
  5
5C84
330
6C
100
AcDbEntity
  8
0
100
AcDbCircle
 10
-161.6325842226606
 20
41.62537384820196
 30
0.0
 40
0.0015104756557974
100
AcDbArc
 50
59.1670168111521
 51
120.8329831879221
  0
ARC
  5
5C85
330
6C
100
AcDbEntity
  8
0
100
AcDbCircle
 10
-161.6325842226606
 20
41.62470513284485
 30
0.0
 40
0.0015104756557974
100
AcDbArc
 50
59.1670168111521
 51
120.8329831879221
  0
ARC
  5
5C86
330
6C
100
AcDbEntity
  8
0
100
AcDbCircle
 10
-161.6325842226607
 20
41.62403641748774
 30
0.0
 40
0.0015104756557974
100
AcDbArc
 50
59.1670168111521
 51
120.8329831879221
  0
ARC
  5
5C87
330
6C
100
AcDbEntity
  8
0
100
AcDbCircle
 10
-161.6325842226607
 20
41.62336770213063
 30
0.0
 40
0.0015104756557974
100
AcDbArc
 50
59.1670168111521
 51
120.8329831879221
  0
ARC
  5
5C88
330
6C
100
AcDbEntity
  8
0
100
AcDbCircle
 10
-161.6325842226607
 20
41.62269898677353
 30
0.0
 40
0.0015104756557974
100
AcDbArc
 50
59.1670168111521
 51
120.8329831879221
  0
ARC
  5
5C89
330
6C
100
AcDbEntity
  8
0
100
AcDbCircle
 10
-161.6325842226608
 20
41.62203027141642
 30
0.0
 40
0.0015104756557974
100
AcDbArc
 50
59.1670168111521
 51
120.8329831879221
  0
ARC
  5
5C8A
330
6C
100
AcDbEntity
  8
0
100
AcDbCircle
 10
-161.6325842226608
 20
41.62136155605931
 30
0.0
 40
0.0015104756557974
100
AcDbArc
 50
59.1670168111521
 51
120.8329831879221
  0
ARC
  5
5C8B
330
6C
100
AcDbEntity
  8
0
100
AcDbCircle
 10
-161.6325842226608
 20
41.6206928407022
 30
0.0
 40
0.0015104756557974
100
AcDbArc
 50
59.1670168111521
 51
120.8329831879221
  0
ARC
  5
5C8C
330
6C
100
AcDbEntity
  8
0
100
AcDbCircle
 10
-161.6325842226608
 20
41.62002412534509
 30
0.0
 40
0.0015104756557974
100
AcDbArc
 50
59.1670168111521
 51
120.8329831879221
  0
ARC
  5
5C8D
330
6C
100
AcDbEntity
  8
0
100
AcDbCircle
 10
-161.6325842226609
 20
41.61935540998799
 30
0.0
 40
0.0015104756557974
100
AcDbArc
 50
59.1670168111521
 51
120.8329831879221
  0
ARC
  5
5C8E
330
6C
100
AcDbEntity
  8
0
100
AcDbCircle
 10
-161.6325842226609
 20
41.61868669463088
 30
0.0
 40
0.0015104756557974
100
AcDbArc
 50
59.1670168111521
 51
120.8329831879221
  0
ARC
  5
5C8F
330
6C
100
AcDbEntity
  8
0
100
AcDbCircle
 10
-161.6325842226609
 20
41.61801797927377
 30
0.0
 40
0.0015104756557974
100
AcDbArc
 50
59.1670168111521
 51
120.8329831879221
  0
ARC
  5
5C90
330
6C
100
AcDbEntity
  8
0
100
AcDbCircle
 10
-161.632584222661
 20
41.61734926391666
 30
0.0
 40
0.0015104756557974
100
AcDbArc
 50
59.1670168111521
 51
120.8329831879221
  0
ARC
  5
5C91
330
6C
100
AcDbEntity
  8
0
100
AcDbCircle
 10
-161.632584222661
 20
41.61668054855955
 30
0.0
 40
0.0015104756557974
100
AcDbArc
 50
59.1670168111521
 51
120.8329831879221
  0
ARC
  5
5C92
330
6C
100
AcDbEntity
  8
0
100
AcDbCircle
 10
-161.632584222661
 20
41.61601183320245
 30
0.0
 40
0.0015104756557974
100
AcDbArc
 50
59.1670168111521
 51
120.8329831879221
  0
ARC
  5
5C93
330
6C
100
AcDbEntity
  8
0
100
AcDbCircle
 10
-161.632584222661
 20
41.61534311784534
 30
0.0
 40
0.0015104756557974
100
AcDbArc
 50
59.1670168111521
 51
120.8329831879221
  0
ARC
  5
5C94
330
6C
100
AcDbEntity
  8
0
100
AcDbCircle
 10
-161.6325842226611
 20
41.61467440248823
 30
0.0
 40
0.0015104756557974
100
AcDbArc
 50
59.1670168111521
 51
120.8329831879221
  0
ARC
  5
5C95
330
6C
100
AcDbEntity
  8
0
100
AcDbCircle
 10
-161.6325842226611
 20
41.61400568713112
 30
0.0
 40
0.0015104756557974
100
AcDbArc
 50
59.1670168111521
 51
120.8329831879221
  0
ARC
  5
5C96
330
6C
100
AcDbEntity
  8
0
100
AcDbCircle
 10
-161.6325842226611
 20
41.61333697177401
 30
0.0
 40
0.0015104756557974
100
AcDbArc
 50
59.1670168111521
 51
120.8329831879221
  0
ARC
  5
5C97
330
6C
100
AcDbEntity
  8
0
100
AcDbCircle
 10
-161.6325842226611
 20
41.61266825641691
 30
0.0
 40
0.0015104756557974
100
AcDbArc
 50
59.1670168111521
 51
120.8329831879221
  0
ARC
  5
5C98
330
6C
100
AcDbEntity
  8
0
100
AcDbCircle
 10
-161.6325842226612
 20
41.6119995410598
 30
0.0
 40
0.0015104756557974
100
AcDbArc
 50
59.1670168111521
 51
120.8329831879221
  0
ARC
  5
5C99
330
6C
100
AcDbEntity
  8
0
100
AcDbCircle
 10
-161.6325842226612
 20
41.61133082570269
 30
0.0
 40
0.0015104756557974
100
AcDbArc
 50
59.1670168111521
 51
120.8329831879221
  0
ARC
  5
5C9A
330
6C
100
AcDbEntity
  8
0
100
AcDbCircle
 10
-161.6325842226612
 20
41.61066211034558
 30
0.0
 40
0.0015104756557974
100
AcDbArc
 50
59.1670168111521
 51
120.8329831879221
  0
ARC
  5
5C9B
330
6C
100
AcDbEntity
  8
0
100
AcDbCircle
 10
-161.6325842226613
 20
41.60999339498848
 30
0.0
 40
0.0015104756557974
100
AcDbArc
 50
59.1670168111521
 51
120.8329831879221
  0
ARC
  5
5C9C
330
6C
100
AcDbEntity
  8
0
100
AcDbCircle
 10
-161.6325842226613
 20
41.60932467963137
 30
0.0
 40
0.0015104756557974
100
AcDbArc
 50
59.1670168111521
 51
120.8329831879221
  0
ARC
  5
5C9D
330
6C
100
AcDbEntity
  8
0
100
AcDbCircle
 10
-161.6325842226613
 20
41.60865596427426
 30
0.0
 40
0.0015104756557974
100
AcDbArc
 50
59.1670168111521
 51
120.8329831879221
  0
ARC
  5
5C9E
330
6C
100
AcDbEntity
  8
0
100
AcDbCircle
 10
-161.6325842226613
 20
41.60798724891715
 30
0.0
 40
0.0015104756557974
100
AcDbArc
 50
59.1670168111521
 51
120.8329831879221
  0
ARC
  5
5C9F
330
6C
100
AcDbEntity
  8
0
100
AcDbCircle
 10
-161.6325842226611
 20
41.60731853356004
 30
0.0
 40
0.0015104756557974
100
AcDbArc
 50
59.1670168111521
 51
120.8329831879221
  0
ARC
  5
5CA0
330
6C
100
AcDbEntity
  8
0
100
AcDbCircle
 10
-161.6325842226611
 20
41.60664981820294
 30
0.0
 40
0.0015104756557974
100
AcDbArc
 50
59.1670168111521
 51
120.8329831879221
  0
ARC
  5
5CA1
330
6C
100
AcDbEntity
  8
0
100
AcDbCircle
 10
-161.6325842226612
 20
41.60598110284583
 30
0.0
 40
0.0015104756557974
100
AcDbArc
 50
59.1670168111521
 51
120.8329831879221
  0
ARC
  5
5CA2
330
6C
100
AcDbEntity
  8
0
100
AcDbCircle
 10
-161.6325842226612
 20
41.60531238748872
 30
0.0
 40
0.0015104756557974
100
AcDbArc
 50
59.1670168111521
 51
120.8329831879221
  0
ARC
  5
5CA3
330
6C
100
AcDbEntity
  8
0
100
AcDbCircle
 10
-161.6325842226612
 20
41.60464367213161
 30
0.0
 40
0.0015104756557974
100
AcDbArc
 50
59.1670168111521
 51
120.8329831879221
  0
ARC
  5
5CA4
330
6C
100
AcDbEntity
  8
0
100
AcDbCircle
 10
-161.6325842226613
 20
41.6039749567745
 30
0.0
 40
0.0015104756557974
100
AcDbArc
 50
59.1670168111521
 51
120.8329831879221
  0
ARC
  5
5CA5
330
6C
100
AcDbEntity
  8
0
100
AcDbCircle
 10
-161.6325842226586
 20
41.66817163105686
 30
0.0
 40
0.0015104756557974
100
AcDbArc
 50
59.1670168111521
 51
120.8329831879221
  0
ARC
  5
5CA6
330
6C
100
AcDbEntity
  8
0
100
AcDbCircle
 10
-161.6325842226586
 20
41.66750291569975
 30
0.0
 40
0.0015104756557974
100
AcDbArc
 50
59.1670168111521
 51
120.8329831879221
  0
ARC
  5
5CA7
330
6C
100
AcDbEntity
  8
0
100
AcDbCircle
 10
-161.6325842226586
 20
41.66683420034265
 30
0.0
 40
0.0015104756557974
100
AcDbArc
 50
59.1670168111521
 51
120.8329831879221
  0
ARC
  5
5CA8
330
6C
100
AcDbEntity
  8
0
100
AcDbCircle
 10
-161.6325842226586
 20
41.66616548498554
 30
0.0
 40
0.0015104756557974
100
AcDbArc
 50
59.1670168111521
 51
120.8329831879221
  0
ARC
  5
5CA9
330
6C
100
AcDbEntity
  8
0
100
AcDbCircle
 10
-161.6325842226587
 20
41.66549676962843
 30
0.0
 40
0.0015104756557974
100
AcDbArc
 50
59.1670168111521
 51
120.8329831879221
  0
ARC
  5
5CAA
330
6C
100
AcDbEntity
  8
0
100
AcDbCircle
 10
-161.6325842226587
 20
41.66482805427132
 30
0.0
 40
0.0015104756557974
100
AcDbArc
 50
59.1670168111521
 51
120.8329831879221
  0
ARC
  5
5CAB
330
6C
100
AcDbEntity
  8
0
100
AcDbCircle
 10
-161.6325842226587
 20
41.66415933891421
 30
0.0
 40
0.0015104756557974
100
AcDbArc
 50
59.1670168111521
 51
120.8329831879221
  0
ARC
  5
5CAC
330
6C
100
AcDbEntity
  8
0
100
AcDbCircle
 10
-161.6325842226587
 20
41.66349062355711
 30
0.0
 40
0.0015104756557974
100
AcDbArc
 50
59.1670168111521
 51
120.8329831879221
  0
ARC
  5
5CAD
330
6C
100
AcDbEntity
  8
0
100
AcDbCircle
 10
-161.6325842226588
 20
41.6628219082
 30
0.0
 40
0.0015104756557974
100
AcDbArc
 50
59.1670168111521
 51
120.8329831879221
  0
ARC
  5
5CAE
330
6C
100
AcDbEntity
  8
0
100
AcDbCircle
 10
-161.6325842226585
 20
41.67017777712819
 30
0.0
 40
0.0015104756557974
100
AcDbArc
 50
59.1670168111521
 51
120.8329831879221
  0
ARC
  5
5CAF
330
6C
100
AcDbEntity
  8
0
100
AcDbCircle
 10
-161.6325842226585
 20
41.66950906177108
 30
0.0
 40
0.0015104756557974
100
AcDbArc
 50
59.1670168111521
 51
120.8329831879221
  0
ARC
  5
5CB0
330
6C
100
AcDbEntity
  8
0
100
AcDbCircle
 10
-161.6325842226585
 20
41.66884034641397
 30
0.0
 40
0.0015104756557974
100
AcDbArc
 50
59.1670168111521
 51
120.8329831879221
  0
ARC
  5
5CB1
330
6C
100
AcDbEntity
  8
0
100
AcDbCircle
 10
-161.6325842226584
 20
41.67084649248529
 30
0.0
 40
0.0015104756557974
100
AcDbArc
 50
59.1670168111521
 51
120.8329831879221
  0
LINE
  5
612F
330
6C
100
AcDbEntity
  8
0
 62
     0
370
     0
100
AcDbLine
 10
-161.6910882158596
 20
41.60004901228705
 30
0.0
 11
-161.6680467591058
 21
41.6133520035464
 31
0.0
  0
LINE
  5
6130
330
6C
100
AcDbEntity
  8
0
 62
     0
370
     0
100
AcDbLine
 10
-161.6904047545115
 20
41.59892893337893
 30
0.0
 11
-161.6680467591058
 21
41.61183732804502
 31
0.0
  0
LINE
  5
6131
330
6C
100
AcDbEntity
  8
0
 62
     0
370
     0
100
AcDbLine
 10
-161.5982453495971
 20
41.61672397028313
 30
0.0
 11
-161.5689486520153
 21
41.59980951404795
 31
0.0
  0
LINE
  5
6132
330
6C
100
AcDbEntity
  8
0
 62
     0
370
     0
100
AcDbLine
 10
-161.5982453495971
 20
41.61518937921974
 30
0.0
 11
-161.5696235790585
 21
41.59866459229458
 31
0.0
  0
ENDSEC
  0
SECTION
  2
OBJECTS
  0
DICTIONARY
  5
C
330
0
100
AcDbDictionary
281
     1
  3
ACAD_CIP_PREVIOUS_PRODUCT_INFO
350
75
  3
ACAD_COLOR
350
63
  3
ACAD_GROUP
350
D
  3
ACAD_IMAGE_VARS
350
76
  3
ACAD_LAYOUT
350
62
  3
ACAD_MATERIAL
350
10
  3
ACAD_MLEADERSTYLE
350
66
  3
ACAD_MLINESTYLE
350
5F
  3
ACAD_PLOTSETTINGS
350
61
  3
ACAD_PLOTSTYLENAME
350
E
  3
ACAD_SCALELIST
350
42
  3
ACAD_TABLESTYLE
350
64
  3
ACAD_VISUALSTYLE
350
29
  3
ACDB_RECOMPOSE_DATA
350
6265
  3
AcDbVariableDictionary
350
4B8
  3
DWGPROPS
350
6266
  3
REVIT_DICTIONARY
350
4AE
  0
DICTIONARY
  5
49E7
330
8
100
AcDbDictionary
280
     1
281
     1
  0
DICTIONARY
  5
F67
330
2
100
AcDbDictionary
280
     1
281
     1
  3
ACAD_LAYERSTATES
360
F68
  0
DICTIONARY
  5
4B3
330
6C
100
AcDbDictionary
280
     1
281
     1
  3
ACAD_SORTENTS
360
4B4
  0
DICTIONARY
  5
6241
330
57BC
100
AcDbDictionary
280
     1
281
     1
  3
ACAD_MTEXT_2008_RT
360
6242
  0
DICTIONARY
  5
6243
330
5829
100
AcDbDictionary
280
     1
281
     1
  3
ACAD_MTEXT_2008_RT
360
6244
  0
DICTIONARY
  5
6245
330
582A
100
AcDbDictionary
280
     1
281
     1
  3
ACAD_MTEXT_2008_RT
360
6246
  0
DICTIONARY
  5
6247
330
589D
100
AcDbDictionary
280
     1
281
     1
  3
ACAD_MTEXT_2008_RT
360
6248
  0
DICTIONARY
  5
6249
330
58AB
100
AcDbDictionary
280
     1
281
     1
  3
ACAD_MTEXT_2008_RT
360
624A
  0
DICTIONARY
  5
624B
330
58AC
100
AcDbDictionary
280
     1
281
     1
  3
ACAD_MTEXT_2008_RT
360
624C
  0
DICTIONARY
  5
624D
330
5933
100
AcDbDictionary
280
     1
281
     1
  3
ACAD_MTEXT_2008_RT
360
624E
  0
DICTIONARY
  5
624F
330
5934
100
AcDbDictionary
280
     1
281
     1
  3
ACAD_MTEXT_2008_RT
360
6250
  0
DICTIONARY
  5
6251
330
59AF
100
AcDbDictionary
280
     1
281
     1
  3
ACAD_MTEXT_2008_RT
360
6252
  0
DICTIONARY
  5
6253
330
59B0
100
AcDbDictionary
280
     1
281
     1
  3
ACAD_MTEXT_2008_RT
360
6254
  0
DICTIONARY
  5
6255
330
59B4
100
AcDbDictionary
280
     1
281
     1
  3
ACAD_MTEXT_2008_RT
360
6256
  0
DICTIONARY
  5
6257
330
59C9
100
AcDbDictionary
280
     1
281
     1
  3
ACAD_MTEXT_2008_RT
360
6258
  0
DICTIONARY
  5
6259
330
59CA
100
AcDbDictionary
280
     1
281
     1
  3
ACAD_MTEXT_2008_RT
360
625A
  0
DICTIONARY
  5
625B
330
5A54
100
AcDbDictionary
280
     1
281
     1
  3
ACAD_MTEXT_2008_RT
360
625C
  0
DICTIONARY
  5
625D
330
5A55
100
AcDbDictionary
280
     1
281
     1
  3
ACAD_MTEXT_2008_RT
360
625E
  0
DICTIONARY
  5
625F
330
5AE1
100
AcDbDictionary
280
     1
281
     1
  3
ACAD_MTEXT_2008_RT
360
6260
  0
DICTIONARY
  5
6261
330
5AE2
100
AcDbDictionary
280
     1
281
     1
  3
ACAD_MTEXT_2008_RT
360
6262
  0
DICTIONARY
  5
6263
330
5AE3
100
AcDbDictionary
280
     1
281
     1
  3
ACAD_MTEXT_2008_RT
360
6264
  0
XRECORD
  5
75
102
{ACAD_REACTORS
330
C
102
}
330
C
100
AcDbXrecord
280
     1
300
ACD
300
2012
300
85730ACD_2012_0F
  0
DICTIONARY
  5
63
102
{ACAD_REACTORS
330
C
102
}
330
C
100
AcDbDictionary
281
     1
  0
DICTIONARY
  5
D
102
{ACAD_REACTORS
330
C
102
}
330
C
100
AcDbDictionary
281
     1
  0
RASTERVARIABLES
  5
76
102
{ACAD_REACTORS
330
C
102
}
330
C
100
AcDbRasterVariables
 90
        0
 70
     0
 71
     1
 72
     5
  0
DICTIONARY
  5
62
102
{ACAD_REACTORS
330
C
102
}
330
C
100
AcDbDictionary
281
     1
  3
Layout1
350
6B
  3
Layout2
350
73
  3
Model
350
6F
  0
DICTIONARY
  5
10
102
{ACAD_REACTORS
330
C
102
}
330
C
100
AcDbDictionary
281
     1
  3
ByBlock
350
19
  3
ByLayer
350
11
  3
Global
350
21
  0
DICTIONARY
  5
66
102
{ACAD_REACTORS
330
C
102
}
330
C
100
AcDbDictionary
281
     1
  3
Standard
350
67
  0
DICTIONARY
  5
5F
102
{ACAD_REACTORS
330
C
102
}
330
C
100
AcDbDictionary
281
     1
  3
Standard
350
60
  0
DICTIONARY
  5
61
102
{ACAD_REACTORS
330
C
102
}
330
C
100
AcDbDictionary
281
     1
  0
ACDBDICTIONARYWDFLT
  5
E
102
{ACAD_REACTORS
330
C
102
}
330
C
100
AcDbDictionary
281
     1
  3
Normal
350
F
100
AcDbDictionaryWithDefault
340
F
  0
DICTIONARY
  5
42
102
{ACAD_REACTORS
330
C
102
}
330
C
100
AcDbDictionary
281
     1
  3
A0
350
43
  3
A1
350
44
  3
A2
350
45
  3
A3
350
46
  3
A4
350
47
  3
A5
350
48
  3
A6
350
49
  3
A7
350
4A
  3
A8
350
4B
  3
A9
350
4C
  3
B0
350
4D
  3
B1
350
4E
  3
B2
350
4F
  3
B3
350
50
  3
B4
350
51
  3
B5
350
52
  3
B6
350
53
  0
DICTIONARY
  5
64
102
{ACAD_REACTORS
330
C
102
}
330
C
100
AcDbDictionary
281
     1
  3
Standard
350
65
  0
DICTIONARY
  5
29
102
{ACAD_REACTORS
330
C
102
}
330
C
100
AcDbDictionary
281
     1
  3
2dWireframe
350
2F
  3
Basic
350
2E
  3
Brighten
350
35
  3
ColorChange
350
39
  3
Conceptual
350
32
  3
Dim
350
34
  3
EdgeColorOff
350
41
  3
Facepattern
350
38
  3
Flat
350
2A
  3
FlatWithEdges
350
2B
  3
Gouraud
350
2C
  3
GouraudWithEdges
350
2D
  3
Hidden
350
31
  3
JitterOff
350
3F
  3
Linepattern
350
37
  3
OverhangOff
350
40
  3
Realistic
350
33
  3
Shaded
350
3E
  3
Shaded with edges
350
3D
  3
Shades of Gray
350
3A
  3
Sketchy
350
3B
  3
Thicken
350
36
  3
Wireframe
350
30
  3
X-Ray
350
3C
  0
XRECORD
  5
6265
102
{ACAD_REACTORS
330
C
102
}
330
C
100
AcDbXrecord
280
     1
 90
        1
330
65
330
57BC
330
5829
330
582A
330
589D
330
58AB
330
58AC
330
5933
330
5934
330
59AF
330
59B0
330
59B4
330
59C9
330
59CA
330
5A54
330
5A55
330
5AE1
330
5AE2
330
5AE3
  0
DICTIONARY
  5
4B8
102
{ACAD_REACTORS
330
C
102
}
330
C
100
AcDbDictionary
281
     1
  3
CANNOSCALE
350
4BB
  3
CMLEADERSTYLE
350
4BA
  3
CTABLESTYLE
350
4B9
  3
DIMASSOC
350
4A4F
  3
HIDETEXT
350
4A4E
  3
INDEXCTL
350
4A4D
  3
LATITUDE
350
61B9
  3
LAYEREVAL
350
4A4A
  3
LAYERNOTIFY
350
4A4B
  3
LIGHTINGUNITS
350
4A49
  3
LONGITUDE
350
61BA
  3
MSLTSCALE
350
4A48
  3
SORTENTS
350
4A4C
  3
TIMEZONE
350
61BB
  3
XCLIPFRAME
350
61BC
  0
XRECORD
  5
6266
102
{ACAD_REACTORS
330
C
102
}
330
C
100
AcDbXrecord
280
     1
  1
DWGPROPS COOKIE
  2

  3

  4

  6

  7

  8
VPhan
  9

300
=
301
=
302
=
303
=
304
=
305
=
306
=
307
=
308
=
309
=
 40
0.2682246990740741
 41
2456195.353039664
 42
2456197.437873392
  1

 90
        0
  0
DICTIONARY
  5
4AE
102
{ACAD_REACTORS
330
C
102
}
330
C
100
AcDbDictionary
281
     1
  3
DRAWING_TOOL
350
4B2
  3
REVIT_CATEGORY_MAPPING
350
4B0
  3
REVIT_SUB_CATEGORY_MAPPING
350
4B1
  3
REVIT_TYPE_MAPPING
350
4AF
  0
DICTIONARY
  5
F68
102
{ACAD_REACTORS
330
F67
102
}
330
F67
100
AcDbDictionary
281
     1
  0
SORTENTSTABLE
  5
4B4
102
{ACAD_REACTORS
330
4B3
102
}
330
4B3
100
AcDbSortentsTable
330
6C
331
576B
  5
576B
331
56FC
  5
56FC
331
5767
  5
5767
331
57AE
  5
57AE
331
56BD
  5
56BD
331
58A5
  5
58A6
331
56F8
  5
56F8
331
57AA
  5
57AA
331
56B9
  5
56B9
331
58A1
  5
58A1
331
589D
  5
589D
331
5643
  5
5643
331
5899
  5
5899
331
57A6
  5
57A6
331
575B
  5
575B
331
56A5
  5
56A5
331
5757
  5
5757
331
579E
  5
579E
331
563F
  5
563F
331
5895
  5
5895
331
56A1
  5
56A1
331
5753
  5
5753
331
579A
  5
579A
331
56E8
  5
56E8
331
563B
  5
563B
331
5891
  5
5891
331
5637
  5
5637
331
5829
  5
5829
331
5633
  5
5633
331
574F
  5
574F
331
5796
  5
5796
331
56E4
  5
56E4
331
574B
  5
574B
331
56E0
  5
56E0
331
5695
  5
5695
331
5825
  5
5825
331
5747
  5
5747
331
578E
  5
578E
331
562F
  5
562F
331
5691
  5
5691
331
5821
  5
5821
331
5743
  5
5743
331
578A
  5
578A
331
581D
  5
581D
331
5603
  5
5603
331
568D
  5
568D
331
5717
  5
5717
331
5786
  5
5786
331
56D4
  5
56D4
331
5713
  5
5713
331
5689
  5
5689
331
56D0
  5
56D0
331
5685
  5
5685
331
570F
  5
570F
331
55FF
  5
55FF
331
577E
  5
577E
331
570B
  5
570B
331
577A
  5
577A
331
55FB
  5
55FB
331
57B9
  5
57B9
331
56C8
  5
56C8
331
58AC
  5
58AD
331
58A8
  5
58A9
331
576A
  5
576A
331
56FB
  5
56FB
331
5766
  5
5766
331
57AD
  5
57AD
331
56BC
  5
56BC
331
58A4
  5
58A5
331
57A9
  5
57A9
331
56B8
  5
56B8
331
58A0
  5
58A0
331
589C
  5
589C
331
5642
  5
5642
331
5898
  5
5898
331
56F7
  5
56F7
331
575A
  5
575A
331
56A4
  5
56A4
331
5756
  5
5756
331
579D
  5
579D
331
563E
  5
563E
331
5894
  5
5894
331
56A0
  5
56A0
331
5752
  5
5752
331
5799
  5
5799
331
563A
  5
563A
331
5636
  5
5636
331
5828
  5
5828
331
5632
  5
5632
331
56E7
  5
56E7
331
574E
  5
574E
331
56E3
  5
56E3
331
574A
  5
574A
331
5791
  5
5791
331
56DF
  5
56DF
331
5694
  5
5694
331
5824
  5
5824
331
5746
  5
5746
331
578D
  5
578D
331
562E
  5
562E
331
5690
  5
5690
331
5820
  5
5820
331
5789
  5
5789
331
5606
  5
5606
331
5602
  5
5602
331
568C
  5
568C
331
56D3
  5
56D3
331
5716
  5
5716
331
5688
  5
5688
331
56CF
  5
56CF
331
5712
  5
5712
331
5684
  5
5684
331
577D
  5
577D
331
57BC
  5
57BC
331
570E
  5
570E
331
55FE
  5
55FE
331
5779
  5
5779
331
57B8
  5
57B8
331
58AF
  5
58A3
331
570A
  5
570A
331
55FA
  5
55FA
331
58AB
  5
58AC
331
57B0
  5
57B0
331
56C7
  5
56C7
331
5769
  5
5769
331
58A7
  5
58A8
331
57AC
  5
57AC
331
56BB
  5
56BB
331
56FA
  5
56FA
331
58A3
  5
58A4
331
5765
  5
5765
331
57A8
  5
57A8
331
589F
  5
589F
331
589B
  5
589B
331
5641
  5
5641
331
56F6
  5
56F6
331
56B7
  5
56B7
331
5897
  5
5897
331
5759
  5
5759
331
56A3
  5
56A3
331
5893
  5
5893
331
5755
  5
5755
331
579C
  5
579C
331
563D
  5
563D
331
5751
  5
5751
331
5798
  5
5798
331
5639
  5
5639
331
5635
  5
5635
331
5631
  5
5631
331
569F
  5
569F
331
56E6
  5
56E6
331
574D
  5
574D
331
5794
  5
5794
331
56E2
  5
56E2
331
5697
  5
5697
331
5827
  5
5827
331
5749
  5
5749
331
5790
  5
5790
331
56DE
  5
56DE
331
5693
  5
5693
331
5823
  5
5823
331
5745
  5
5745
331
578C
  5
578C
331
562D
  5
562D
331
581F
  5
581F
331
5605
  5
5605
331
5601
  5
5601
331
568F
  5
568F
331
5715
  5
5715
331
568B
  5
568B
331
56D2
  5
56D2
331
5711
  5
5711
331
5687
  5
5687
331
56CE
  5
56CE
331
570D
  5
570D
331
577C
  5
577C
331
55FD
  5
55FD
331
57BB
  5
57BB
331
55F9
  5
55F9
331
58AA
  5
58AB
331
56C6
  5
56C6
331
576C
  5
576C
331
56FD
  5
56FD
331
58A6
  5
58A7
331
5768
  5
5768
331
57AF
  5
57AF
331
56F9
  5
56F9
331
57AB
  5
57AB
331
56BA
  5
56BA
331
589A
  5
589A
331
5644
  5
5644
331
5640
  5
5640
331
57A7
  5
57A7
331
56B6
  5
56B6
331
575C
  5
575C
331
5896
  5
5896
331
56A2
  5
56A2
331
5754
  5
5754
331
579B
  5
579B
331
56E9
  5
56E9
331
563C
  5
563C
331
5892
  5
5892
331
5750
  5
5750
331
5638
  5
5638
331
582A
  5
582A
331
5634
  5
5634
331
5630
  5
5630
331
569E
  5
569E
331
5797
  5
5797
331
56E5
  5
56E5
331
574C
  5
574C
331
5793
  5
5793
331
56E1
  5
56E1
331
5696
  5
5696
331
5826
  5
5826
331
5748
  5
5748
331
578F
  5
578F
331
5692
  5
5692
331
5822
  5
5822
331
5744
  5
5744
331
578B
  5
578B
331
562C
  5
562C
331
581E
  5
581E
331
5604
  5
5604
331
5600
  5
5600
331
568E
  5
568E
331
5787
  5
5787
331
56D5
  5
56D5
331
5714
  5
5714
331
568A
  5
568A
331
56D1
  5
56D1
331
5710
  5
5710
331
5686
  5
5686
331
570C
  5
570C
331
577B
  5
577B
331
55FC
  5
55FC
331
57BA
  5
57BA
331
56C9
  5
56C9
331
58A9
  5
58AA
  0
XRECORD
  5
6242
102
{ACAD_REACTORS
330
6241
102
}
330
6241
100
AcDbXrecord
280
     1
 40
57795.0
  1
\A1;\pxqc;{\fArial|b1|i0|c0|p34;CCCQ-SDS2.5}
  0
XRECORD
  5
6244
102
{ACAD_REACTORS
330
6243
102
}
330
6243
100
AcDbXrecord
280
     1
 40
38006.0
  1
\A1;\pxql;{\fArial|b0|i0|c0|p34;H  }
  0
XRECORD
  5
6246
102
{ACAD_REACTORS
330
6245
102
}
330
6245
100
AcDbXrecord
280
     1
 40
35365.0
  1
\A1;\pxql;{\fArial|b0|i0|c0|p34;3}
  0
XRECORD
  5
6248
102
{ACAD_REACTORS
330
6247
102
}
330
6247
100
AcDbXrecord
280
     1
 40
36040.0
  1
\A1;\pxql;{\fArial|b0|i0|c0|p34;L}
  0
XRECORD
  5
624A
102
{ACAD_REACTORS
330
6249
102
}
330
6249
100
AcDbXrecord
280
     1
 40
36337.0
  1
\A1;\pxql;{\fArial|b0|i0|c0|p34;W}
  0
XRECORD
  5
624C
102
{ACAD_REACTORS
330
624B
102
}
330
624B
100
AcDbXrecord
280
     1
 40
35392.0
  1
\A1;\pxql;{\fArial|b0|i0|c0|p34;4}
  0
XRECORD
  5
624E
102
{ACAD_REACTORS
330
624D
102
}
330
624D
100
AcDbXrecord
280
     1
 40
36337.0
  1
\A1;\pxql;{\fArial|b0|i0|c0|p34;W}
  0
XRECORD
  5
6250
102
{ACAD_REACTORS
330
624F
102
}
330
624F
100
AcDbXrecord
280
     1
 40
35365.0
  1
\A1;\pxql;{\fArial|b0|i0|c0|p34;3}
  0
XRECORD
  5
6252
102
{ACAD_REACTORS
330
6251
102
}
330
6251
100
AcDbXrecord
280
     1
 40
35932.0
  1
\A1;\pxql;{\fArial|b0|i0|c0|p34;H}
  0
XRECORD
  5
6254
102
{ACAD_REACTORS
330
6253
102
}
330
6253
100
AcDbXrecord
280
     1
 40
35338.0
  1
\A1;\pxql;{\fArial|b0|i0|c0|p34;2}
  0
XRECORD
  5
6256
102
{ACAD_REACTORS
330
6255
102
}
330
6255
100
AcDbXrecord
280
     1
 40
36469.0
  1
\A1;\pxql;{\fArial|b0|i0|c0|p34;4"}
  0
XRECORD
  5
6258
102
{ACAD_REACTORS
330
6257
102
}
330
6257
100
AcDbXrecord
280
     1
 40
36337.0
  1
\A1;\pxql;{\fArial|b0|i0|c0|p34;W}
  0
XRECORD
  5
625A
102
{ACAD_REACTORS
330
6259
102
}
330
6259
100
AcDbXrecord
280
     1
 40
35311.0
  1
\A1;\pxql;{\fArial|b0|i0|c0|p34;1}
  0
XRECORD
  5
625C
102
{ACAD_REACTORS
330
625B
102
}
330
625B
100
AcDbXrecord
280
     1
 40
36337.0
  1
\A1;\pxql;{\fArial|b0|i0|c0|p34;W}
  0
XRECORD
  5
625E
102
{ACAD_REACTORS
330
625D
102
}
330
625D
100
AcDbXrecord
280
     1
 40
35338.0
  1
\A1;\pxql;{\fArial|b0|i0|c0|p34;2}
  0
XRECORD
  5
6260
102
{ACAD_REACTORS
330
625F
102
}
330
625F
100
AcDbXrecord
280
     1
 40
39961.0
  1
\A1;\pxql;{\fArial|b0|i0|c0|p34;H  =}
  0
XRECORD
  5
6262
102
{ACAD_REACTORS
330
6261
102
}
330
6261
100
AcDbXrecord
280
     1
 40
35311.0
  1
\A1;\pxql;{\fArial|b0|i0|c0|p34;1}
  0
XRECORD
  5
6264
102
{ACAD_REACTORS
330
6263
102
}
330
6263
100
AcDbXrecord
280
     1
 40
36550.0
  1
\A1;\pxql;{\fArial|b0|i0|c0|p34;7"}
  0
LAYOUT
  5
6B
102
{ACAD_XDICTIONARY
360
629B
102
}
102
{ACAD_REACTORS
330
62
102
}
330
62
100
AcDbPlotSettings
  1

  2

  4

  6

 40
0.0
 41
0.0
 42
0.0
 43
0.0
 44
0.0
 45
0.0
 46
0.0
 47
0.0
 48
0.0
 49
0.0
140
0.0
141
0.0
142
1.0
143
1.0
 70
   688
 72
     0
 73
     0
 74
     5
  7

 75
    16
147
1.0
148
0.0
149
0.0
100
AcDbLayout
  1
Layout1
 70
     1
 71
     1
 10
0.0
 20
0.0
 11
12.0
 21
9.0
 12
0.0
 22
0.0
 32
0.0
 14
1.000000000000000E+20
 24
1.000000000000000E+20
 34
1.000000000000000E+20
 15
-1.000000000000000E+20
 25
-1.000000000000000E+20
 35
-1.000000000000000E+20
146
0.0
 13
0.0
 23
0.0
 33
0.0
 16
1.0
 26
0.0
 36
0.0
 17
0.0
 27
1.0
 37
0.0
 76
     0
330
68
  0
LAYOUT
  5
73
102
{ACAD_XDICTIONARY
360
629F
102
}
102
{ACAD_REACTORS
330
62
102
}
330
62
100
AcDbPlotSettings
  1

  2

  4

  6

 40
0.0
 41
0.0
 42
0.0
 43
0.0
 44
0.0
 45
0.0
 46
0.0
 47
0.0
 48
0.0
 49
0.0
140
0.0
141
0.0
142
1.0
143
1.0
 70
   688
 72
     0
 73
     0
 74
     5
  7

 75
    16
147
1.0
148
0.0
149
0.0
100
AcDbLayout
  1
Layout2
 70
     1
 71
     2
 10
0.0
 20
0.0
 11
12.0
 21
9.0
 12
0.0
 22
0.0
 32
0.0
 14
0.0
 24
0.0
 34
0.0
 15
0.0
 25
0.0
 35
0.0
146
0.0
 13
0.0
 23
0.0
 33
0.0
 16
1.0
 26
0.0
 36
0.0
 17
0.0
 27
1.0
 37
0.0
 76
     0
330
70
  0
LAYOUT
  5
6F
102
{ACAD_XDICTIONARY
360
629D
102
}
102
{ACAD_REACTORS
330
62
102
}
330
62
100
AcDbPlotSettings
  1

  2

  4

  6

 40
0.0
 41
0.0
 42
0.0
 43
0.0
 44
0.0
 45
0.0
 46
0.0
 47
0.0
 48
0.0
 49
0.0
140
0.0
141
0.0
142
1.0
143
1.0
 70
  1712
 72
     0
 73
     0
 74
     0
  7

 75
     0
147
1.0
148
0.0
149
0.0
100
AcDbLayout
  1
Model
 70
     1
 71
     0
 10
0.0
 20
0.0
 11
12.0
 21
9.0
 12
0.0
 22
0.0
 32
0.0
 14
0.0
 24
0.0
 34
0.0
 15
0.0
 25
0.0
 35
0.0
146
0.0
 13
0.0
 23
0.0
 33
0.0
 16
1.0
 26
0.0
 36
0.0
 17
0.0
 27
1.0
 37
0.0
 76
     0
330
6C
331
57
  0
MATERIAL
  5
19
102
{ACAD_XDICTIONARY
360
1A
102
}
102
{ACAD_REACTORS
330
10
102
}
330
10
100
AcDbMaterial
  1
ByBlock
 72
     0
 43
0.0208333333333333
 43
0.0
 43
0.0
 43
0.0
 43
0.0
 43
0.0208333333333333
 43
0.0
 43
0.0
 43
0.0
 43
0.0
 43
1.0
 43
0.0
 43
0.0
 43
0.0
 43
0.0
 43
1.0
 77
     0
 47
0.0208333333333333
 47
0.0
 47
0.0
 47
0.0
 47
0.0
 47
0.0208333333333333
 47
0.0
 47
0.0
 47
0.0
 47
0.0
 47
1.0
 47
0.0
 47
0.0
 47
0.0
 47
0.0
 47
1.0
171
     0
 49
0.0208333333333333
 49
0.0
 49
0.0
 49
0.0
 49
0.0
 49
0.0208333333333333
 49
0.0
 49
0.0
 49
0.0
 49
0.0
 49
1.0
 49
0.0
 49
0.0
 49
0.0
 49
0.0
 49
1.0
175
     0
142
0.0208333333333333
142
0.0
142
0.0
142
0.0
142
0.0
142
0.0208333333333333
142
0.0
142
0.0
142
0.0
142
0.0
142
1.0
142
0.0
142
0.0
142
0.0
142
0.0
142
1.0
179
     0
144
0.0208333333333333
144
0.0
144
0.0
144
0.0
144
0.0
144
0.0208333333333333
144
0.0
144
0.0
144
0.0
144
0.0
144
1.0
144
0.0
144
0.0
144
0.0
144
0.0
144
1.0
147
0.0208333333333333
147
0.0
147
0.0
147
0.0
147
0.0
147
0.0208333333333333
147
0.0
147
0.0
147
0.0
147
0.0
147
1.0
147
0.0
147
0.0
147
0.0
147
0.0
147
1.0
  0
MATERIAL
  5
11
102
{ACAD_XDICTIONARY
360
12
102
}
102
{ACAD_REACTORS
330
10
102
}
330
10
100
AcDbMaterial
  1
ByLayer
 72
     0
 43
0.0208333333333333
 43
0.0
 43
0.0
 43
0.0
 43
0.0
 43
0.0208333333333333
 43
0.0
 43
0.0
 43
0.0
 43
0.0
 43
1.0
 43
0.0
 43
0.0
 43
0.0
 43
0.0
 43
1.0
 77
     0
 47
0.0208333333333333
 47
0.0
 47
0.0
 47
0.0
 47
0.0
 47
0.0208333333333333
 47
0.0
 47
0.0
 47
0.0
 47
0.0
 47
1.0
 47
0.0
 47
0.0
 47
0.0
 47
0.0
 47
1.0
171
     0
 49
0.0208333333333333
 49
0.0
 49
0.0
 49
0.0
 49
0.0
 49
0.0208333333333333
 49
0.0
 49
0.0
 49
0.0
 49
0.0
 49
1.0
 49
0.0
 49
0.0
 49
0.0
 49
0.0
 49
1.0
175
     0
142
0.0208333333333333
142
0.0
142
0.0
142
0.0
142
0.0
142
0.0208333333333333
142
0.0
142
0.0
142
0.0
142
0.0
142
1.0
142
0.0
142
0.0
142
0.0
142
0.0
142
1.0
179
     0
144
0.0208333333333333
144
0.0
144
0.0
144
0.0
144
0.0
144
0.0208333333333333
144
0.0
144
0.0
144
0.0
144
0.0
144
1.0
144
0.0
144
0.0
144
0.0
144
0.0
144
1.0
147
0.0208333333333333
147
0.0
147
0.0
147
0.0
147
0.0
147
0.0208333333333333
147
0.0
147
0.0
147
0.0
147
0.0
147
1.0
147
0.0
147
0.0
147
0.0
147
0.0
147
1.0
  0
MATERIAL
  5
21
102
{ACAD_XDICTIONARY
360
22
102
}
102
{ACAD_REACTORS
330
10
102
}
330
10
100
AcDbMaterial
  1
Global
 72
     0
 43
0.0208333333333333
 43
0.0
 43
0.0
 43
0.0
 43
0.0
 43
0.0208333333333333
 43
0.0
 43
0.0
 43
0.0
 43
0.0
 43
1.0
 43
0.0
 43
0.0
 43
0.0
 43
0.0
 43
1.0
 77
     0
 47
0.0208333333333333
 47
0.0
 47
0.0
 47
0.0
 47
0.0
 47
0.0208333333333333
 47
0.0
 47
0.0
 47
0.0
 47
0.0
 47
1.0
 47
0.0
 47
0.0
 47
0.0
 47
0.0
 47
1.0
171
     0
 49
0.0208333333333333
 49
0.0
 49
0.0
 49
0.0
 49
0.0
 49
0.0208333333333333
 49
0.0
 49
0.0
 49
0.0
 49
0.0
 49
1.0
 49
0.0
 49
0.0
 49
0.0
 49
0.0
 49
1.0
175
     0
142
0.0208333333333333
142
0.0
142
0.0
142
0.0
142
0.0
142
0.0208333333333333
142
0.0
142
0.0
142
0.0
142
0.0
142
1.0
142
0.0
142
0.0
142
0.0
142
0.0
142
1.0
179
     0
144
0.0208333333333333
144
0.0
144
0.0
144
0.0
144
0.0
144
0.0208333333333333
144
0.0
144
0.0
144
0.0
144
0.0
144
1.0
144
0.0
144
0.0
144
0.0
144
0.0
144
1.0
147
0.0208333333333333
147
0.0
147
0.0
147
0.0
147
0.0
147
0.0208333333333333
147
0.0
147
0.0
147
0.0
147
0.0
147
1.0
147
0.0
147
0.0
147
0.0
147
0.0
147
1.0
  0
MLEADERSTYLE
  5
67
102
{ACAD_XDICTIONARY
360
623F
102
}
102
{ACAD_REACTORS
330
66
102
}
330
66
100
AcDbMLeaderStyle
170
     2
171
     1
172
     0
 90
        2
 40
0.0
 41
0.0
173
     1
 91
-1056964608
340
5B
 92
       -2
290
     1
 42
0.09
291
     1
 43
0.36
  3
Standard
 44
0.18
300

342
55
174
     1
178
     6
175
     1
176
     0
 93
-1056964608
 45
0.18
292
     0
297
     0
 46
0.18
 94
-1056964608
 47
1.0
 49
1.0
140
1.0
293
     1
141
0.0
294
     1
177
     0
142
1.0
295
     0
296
     0
143
0.125
1001
ACAD_MLEADERVER
1070
     2
  0
MLINESTYLE
  5
60
102
{ACAD_REACTORS
330
5F
102
}
330
5F
100
AcDbMlineStyle
  2
STANDARD
 70
     0
  3

 62
   256
 51
90.0
 52
90.0
 71
     2
 49
0.5
 62
   256
  6
BYLAYER
 49
-0.5
 62
   256
  6
BYLAYER
  0
ACDBPLACEHOLDER
  5
F
102
{ACAD_REACTORS
330
E
102
}
330
E
  0
SCALE
  5
43
102
{ACAD_REACTORS
330
42
102
}
330
42
100
AcDbScale
 70
     0
300
1:1
140
1.0
141
1.0
290
     1
  0
SCALE
  5
44
102
{ACAD_REACTORS
330
42
102
}
330
42
100
AcDbScale
 70
     0
300
1/128" = 1'-0"
140
0.0078125
141
12.0
290
     0
  0
SCALE
  5
45
102
{ACAD_REACTORS
330
42
102
}
330
42
100
AcDbScale
 70
     0
300
1/64" = 1'-0"
140
0.015625
141
12.0
290
     0
  0
SCALE
  5
46
102
{ACAD_REACTORS
330
42
102
}
330
42
100
AcDbScale
 70
     0
300
1/32" = 1'-0"
140
0.03125
141
12.0
290
     0
  0
SCALE
  5
47
102
{ACAD_REACTORS
330
42
102
}
330
42
100
AcDbScale
 70
     0
300
1/16" = 1'-0"
140
0.0625
141
12.0
290
     0
  0
SCALE
  5
48
102
{ACAD_REACTORS
330
42
102
}
330
42
100
AcDbScale
 70
     0
300
3/32" = 1'-0"
140
0.09375
141
12.0
290
     0
  0
SCALE
  5
49
102
{ACAD_REACTORS
330
42
102
}
330
42
100
AcDbScale
 70
     0
300
1/8" = 1'-0"
140
0.125
141
12.0
290
     0
  0
SCALE
  5
4A
102
{ACAD_REACTORS
330
42
102
}
330
42
100
AcDbScale
 70
     0
300
3/16" = 1'-0"
140
0.1875
141
12.0
290
     0
  0
SCALE
  5
4B
102
{ACAD_REACTORS
330
42
102
}
330
42
100
AcDbScale
 70
     0
300
1/4" = 1'-0"
140
0.25
141
12.0
290
     0
  0
SCALE
  5
4C
102
{ACAD_REACTORS
330
42
102
}
330
42
100
AcDbScale
 70
     0
300
3/8" = 1'-0"
140
0.375
141
12.0
290
     0
  0
SCALE
  5
4D
102
{ACAD_REACTORS
330
42
102
}
330
42
100
AcDbScale
 70
     0
300
1/2" = 1'-0"
140
0.5
141
12.0
290
     0
  0
SCALE
  5
4E
102
{ACAD_REACTORS
330
42
102
}
330
42
100
AcDbScale
 70
     0
300
3/4" = 1'-0"
140
0.75
141
12.0
290
     0
  0
SCALE
  5
4F
102
{ACAD_REACTORS
330
42
102
}
330
42
100
AcDbScale
 70
     0
300
1" = 1'-0"
140
1.0
141
12.0
290
     0
  0
SCALE
  5
50
102
{ACAD_REACTORS
330
42
102
}
330
42
100
AcDbScale
 70
     0
300
1-1/2" = 1'-0"
140
1.5
141
12.0
290
     0
  0
SCALE
  5
51
102
{ACAD_REACTORS
330
42
102
}
330
42
100
AcDbScale
 70
     0
300
3" = 1'-0"
140
3.0
141
12.0
290
     0
  0
SCALE
  5
52
102
{ACAD_REACTORS
330
42
102
}
330
42
100
AcDbScale
 70
     0
300
6" = 1'-0"
140
6.0
141
12.0
290
     0
  0
SCALE
  5
53
102
{ACAD_REACTORS
330
42
102
}
330
42
100
AcDbScale
 70
     0
300
1'-0" = 1'-0"
140
12.0
141
12.0
290
     0
  0
TABLESTYLE
  5
65
102
{ACAD_XDICTIONARY
360
49DD
102
}
102
{ACAD_REACTORS
330
64
102
}
330
64
100
AcDbTableStyle
  3
Standard
 70
     0
 71
     0
 40
0.06
 41
0.06
280
     0
281
     0
  7
Standard
140
0.18
170
     2
 62
     0
 63
     7
283
     0
274
    -2
284
     1
 64
     0
275
    -2
285
     1
 65
     0
276
    -2
286
     1
 66
     0
277
    -2
287
     1
 67
     0
278
    -2
288
     1
 68
     0
279
    -2
289
     1
 69
     0
  7
Standard
140
0.25
170
     5
 62
     0
 63
     7
283
     0
274
    -2
284
     1
 64
     0
275
    -2
285
     1
 65
     0
276
    -2
286
     1
 66
     0
277
    -2
287
     1
 67
     0
278
    -2
288
     1
 68
     0
279
    -2
289
     1
 69
     0
  7
Standard
140
0.18
170
     5
 62
     0
 63
     7
283
     0
274
    -2
284
     1
 64
     0
275
    -2
285
     1
 65
     0
276
    -2
286
     1
 66
     0
277
    -2
287
     1
 67
     0
278
    -2
288
     1
 68
     0
279
    -2
289
     1
 69
     0
  0
VISUALSTYLE
  5
2F
102
{ACAD_XDICTIONARY
360
6274
102
}
102
{ACAD_REACTORS
330
29
102
}
330
29
100
AcDbVisualStyle
  2
2dWireframe
 70
     4
 71
     0
 72
     2
 73
     0
 90
        0
 40
-0.6
 41
-30.0
 62
     5
 63
     7
 74
     1
 91
        4
 64
     7
 65
   257
 75
     1
175
     1
 42
1.0
 92
        0
 66
   257
 43
1.0
 76
     1
 77
     6
 78
     2
 67
     7
 79
     5
170
     0
171
     0
290
     0
174
     0
 93
        1
 44
0.0
173
     0
291
     0
 45
0.0
1001
ACAD
1000
AcDbSavedByObjectVersion
1070
     0
  0
VISUALSTYLE
  5
2E
102
{ACAD_XDICTIONARY
360
6272
102
}
102
{ACAD_REACTORS
330
29
102
}
330
29
100
AcDbVisualStyle
  2
Basic
 70
     7
 71
     1
 72
     0
 73
     1
 90
        0
 40
-0.6
 41
-30.0
 62
     5
 63
     7
 74
     0
 91
        4
 64
     7
 65
   257
 75
     1
175
     1
 42
1.0
 92
        8
 66
     7
 43
1.0
 76
     1
 77
     6
 78
     2
 67
     7
 79
     5
170
     0
171
     0
290
     0
174
     0
 93
        1
 44
0.0
173
     0
291
     1
 45
0.0
1001
ACAD
1000
AcDbSavedByObjectVersion
1070
     0
  0
VISUALSTYLE
  5
35
102
{ACAD_XDICTIONARY
360
6280
102
}
102
{ACAD_REACTORS
330
29
102
}
330
29
100
AcDbVisualStyle
  2
Brighten
 70
    12
 71
     2
 72
     2
 73
     0
 90
        0
 40
-0.6
 41
-30.0
 62
     5
 63
     7
 74
     1
 91
        4
 64
     7
 65
   257
 75
     1
175
     1
 42
1.0
 92
        8
 66
     7
 43
1.0
 76
     1
 77
     6
 78
     2
 67
     7
 79
     5
170
     0
171
     0
290
     0
174
     0
 93
        1
 44
50.0
173
     0
291
     1
 45
0.0
1001
ACAD
1000
AcDbSavedByObjectVersion
1070
     0
  0
VISUALSTYLE
  5
39
102
{ACAD_XDICTIONARY
360
6288
102
}
102
{ACAD_REACTORS
330
29
102
}
330
29
100
AcDbVisualStyle
  2
ColorChange
 70
    16
 71
     2
 72
     2
 73
     3
 90
        0
 40
-0.6
 41
-30.0
 62
     5
 63
     8
 74
     1
 91
        4
 64
     7
 65
   257
 75
     1
175
     1
 42
1.0
 92
        8
 66
     8
 43
1.0
 76
     1
 77
     6
 78
     2
 67
     7
 79
     5
170
     0
171
     0
290
     0
174
     0
 93
        1
 44
0.0
173
     0
291
     1
 45
0.0
1001
ACAD
1000
AcDbSavedByObjectVersion
1070
     0
  0
VISUALSTYLE
  5
32
102
{ACAD_XDICTIONARY
360
627A
102
}
102
{ACAD_REACTORS
330
29
102
}
330
29
100
AcDbVisualStyle
  2
Conceptual
 70
     9
 71
     3
 72
     2
 73
     0
 90
        0
 40
-0.6
 41
-30.0
 62
     5
 63
     7
 74
     2
 91
        2
 64
     7
 65
   257
 75
     1
175
     1
 42
179.0
 92
        8
 66
     7
 43
1.0
 76
     1
 77
     6
 78
     2
 67
     7
 79
     3
170
     0
171
     0
290
     0
174
     0
 93
        1
 44
0.0
173
     0
291
     0
 45
0.0
1001
ACAD
1000
AcDbSavedByObjectVersion
1070
     0
  0
VISUALSTYLE
  5
34
102
{ACAD_XDICTIONARY
360
627E
102
}
102
{ACAD_REACTORS
330
29
102
}
330
29
100
AcDbVisualStyle
  2
Dim
 70
    11
 71
     2
 72
     2
 73
     0
 90
        0
 40
-0.6
 41
-30.0
 62
     5
 63
     7
 74
     1
 91
        4
 64
     7
 65
   257
 75
     1
175
     1
 42
1.0
 92
        8
 66
     7
 43
1.0
 76
     1
 77
     6
 78
     2
 67
     7
 79
     5
170
     0
171
     0
290
     0
174
     0
 93
        1
 44
-50.0
173
     0
291
     1
 45
0.0
1001
ACAD
1000
AcDbSavedByObjectVersion
1070
     0
  0
VISUALSTYLE
  5
41
102
{ACAD_XDICTIONARY
360
6298
102
}
102
{ACAD_REACTORS
330
29
102
}
330
29
100
AcDbVisualStyle
  2
EdgeColorOff
 70
    22
 71
     2
 72
     2
 73
     0
 90
        0
 40
-0.6
 41
-30.0
 62
     5
 63
     7
 74
     1
 91
        4
 64
     7
 65
   257
 75
     1
175
     1
 42
1.0
 92
        8
 66
     7
 43
1.0
 76
     1
 77
     6
 78
     2
 67
     7
 79
     5
170
     0
171
     0
290
     0
174
     0
 93
        1
 44
0.0
173
     0
291
     1
 45
0.0
1001
ACAD
1000
AcDbSavedByObjectVersion
1070
     0
  0
VISUALSTYLE
  5
38
102
{ACAD_XDICTIONARY
360
6286
102
}
102
{ACAD_REACTORS
330
29
102
}
330
29
100
AcDbVisualStyle
  2
Facepattern
 70
    15
 71
     2
 72
     2
 73
     0
 90
        0
 40
-0.6
 41
-30.0
 62
     5
 63
     7
 74
     1
 91
        4
 64
     7
 65
   257
 75
     1
175
     1
 42
1.0
 92
        8
 66
     7
 43
1.0
 76
     1
 77
     6
 78
     2
 67
     7
 79
     5
170
     0
171
     0
290
     0
174
     0
 93
        1
 44
0.0
173
     0
291
     1
 45
0.0
1001
ACAD
1000
AcDbSavedByObjectVersion
1070
     0
  0
VISUALSTYLE
  5
2A
102
{ACAD_XDICTIONARY
360
626A
102
}
102
{ACAD_REACTORS
330
29
102
}
330
29
100
AcDbVisualStyle
  2
Flat
 70
     0
 71
     2
 72
     1
 73
     1
 90
        2
 40
-0.6
 41
30.0
 62
     5
 63
     7
 74
     0
 91
        0
 64
     7
 65
   257
 75
     1
175
     1
 42
1.0
 92
        8
 66
     7
 43
1.0
 76
     1
 77
     6
 78
     2
 67
     7
 79
     5
170
     0
171
     0
290
     0
174
     0
 93
       13
 44
0.0
173
     0
291
     1
 45
0.0
1001
ACAD
1000
AcDbSavedByObjectVersion
1070
     0
  0
VISUALSTYLE
  5
2B
102
{ACAD_XDICTIONARY
360
626C
102
}
102
{ACAD_REACTORS
330
29
102
}
330
29
100
AcDbVisualStyle
  2
FlatWithEdges
 70
     1
 71
     2
 72
     1
 73
     1
 90
        2
 40
-0.6
 41
30.0
 62
     5
 63
     7
 74
     1
 91
        0
 64
     7
 65
   257
 75
     1
175
     1
 42
1.0
 92
        0
 66
   257
 43
1.0
 76
     1
 77
     6
 78
     2
 67
     7
 79
     5
170
     0
171
     0
290
     0
174
     0
 93
       13
 44
0.0
173
     0
291
     1
 45
0.0
1001
ACAD
1000
AcDbSavedByObjectVersion
1070
     0
  0
VISUALSTYLE
  5
2C
102
{ACAD_XDICTIONARY
360
626E
102
}
102
{ACAD_REACTORS
330
29
102
}
330
29
100
AcDbVisualStyle
  2
Gouraud
 70
     2
 71
     2
 72
     2
 73
     1
 90
        2
 40
-0.6
 41
30.0
 62
     5
 63
     7
 74
     0
 91
        0
 64
     7
 65
   257
 75
     1
175
     1
 42
1.0
 92
        0
 66
     7
 43
1.0
 76
     1
 77
     6
 78
     2
 67
     7
 79
     5
170
     0
171
     0
290
     0
174
     0
 93
       13
 44
0.0
173
     0
291
     1
 45
0.0
1001
ACAD
1000
AcDbSavedByObjectVersion
1070
     0
  0
VISUALSTYLE
  5
2D
102
{ACAD_XDICTIONARY
360
6270
102
}
102
{ACAD_REACTORS
330
29
102
}
330
29
100
AcDbVisualStyle
  2
GouraudWithEdges
 70
     3
 71
     2
 72
     2
 73
     1
 90
        2
 40
-0.6
 41
30.0
 62
     5
 63
     7
 74
     1
 91
        0
 64
     7
 65
   257
 75
     1
175
     1
 42
1.0
 92
        0
 66
   257
 43
1.0
 76
     1
 77
     6
 78
     2
 67
     7
 79
     5
170
     0
171
     0
290
     0
174
     0
 93
       13
 44
0.0
173
     0
291
     1
 45
0.0
1001
ACAD
1000
AcDbSavedByObjectVersion
1070
     0
  0
VISUALSTYLE
  5
31
102
{ACAD_XDICTIONARY
360
6278
102
}
102
{ACAD_REACTORS
330
29
102
}
330
29
100
AcDbVisualStyle
  2
Hidden
 70
     6
 71
     1
 72
     2
 73
     2
 90
        0
 40
-0.6
 41
-30.0
 62
     5
 63
     7
 74
     2
 91
        2
 64
     7
 65
   257
 75
     2
175
     1
 42
40.0
 92
        0
 66
   257
 43
1.0
 76
     1
 77
     6
 78
     2
 67
     7
 79
     3
170
     0
171
     0
290
     0
174
     0
 93
        1
 44
0.0
173
     0
291
     0
 45
0.0
1001
ACAD
1000
AcDbSavedByObjectVersion
1070
     0
  0
VISUALSTYLE
  5
3F
102
{ACAD_XDICTIONARY
360
6294
102
}
102
{ACAD_REACTORS
330
29
102
}
330
29
100
AcDbVisualStyle
  2
JitterOff
 70
    20
 71
     2
 72
     2
 73
     0
 90
        0
 40
-0.6
 41
-30.0
 62
     5
 63
     7
 74
     1
 91
        4
 64
     7
 65
   257
 75
     1
175
     1
 42
1.0
 92
       10
 66
     7
 43
1.0
 76
     1
 77
     6
 78
     2
 67
     7
 79
     5
170
     0
171
     0
290
     0
174
     0
 93
        1
 44
0.0
173
     0
291
     1
 45
0.0
1001
ACAD
1000
AcDbSavedByObjectVersion
1070
     0
  0
VISUALSTYLE
  5
37
102
{ACAD_XDICTIONARY
360
6284
102
}
102
{ACAD_REACTORS
330
29
102
}
330
29
100
AcDbVisualStyle
  2
Linepattern
 70
    14
 71
     2
 72
     2
 73
     0
 90
        0
 40
-0.6
 41
-30.0
 62
     5
 63
     7
 74
     1
 91
        4
 64
     7
 65
   257
 75
     7
175
     7
 42
1.0
 92
        8
 66
     7
 43
1.0
 76
     1
 77
     6
 78
     2
 67
     7
 79
     5
170
     0
171
     0
290
     0
174
     0
 93
        1
 44
0.0
173
     0
291
     1
 45
0.0
1001
ACAD
1000
AcDbSavedByObjectVersion
1070
     0
  0
VISUALSTYLE
  5
40
102
{ACAD_XDICTIONARY
360
6296
102
}
102
{ACAD_REACTORS
330
29
102
}
330
29
100
AcDbVisualStyle
  2
OverhangOff
 70
    21
 71
     2
 72
     2
 73
     0
 90
        0
 40
-0.6
 41
-30.0
 62
     5
 63
     7
 74
     1
 91
        4
 64
     7
 65
   257
 75
     1
175
     1
 42
1.0
 92
        9
 66
     7
 43
1.0
 76
     1
 77
     6
 78
     2
 67
     7
 79
     5
170
     0
171
     0
290
     0
174
     0
 93
        1
 44
0.0
173
     0
291
     1
 45
0.0
1001
ACAD
1000
AcDbSavedByObjectVersion
1070
     0
  0
VISUALSTYLE
  5
33
102
{ACAD_XDICTIONARY
360
627C
102
}
102
{ACAD_REACTORS
330
29
102
}
330
29
100
AcDbVisualStyle
  2
Realistic
 70
     8
 71
     2
 72
     2
 73
     0
 90
        2
 40
-0.6
 41
30.0
 62
     5
 63
     7
 74
     0
 91
        0
 64
     7
 65
   257
 75
     1
175
     1
 42
1.0
 92
        8
 66
   257
 43
1.0
 76
     1
 77
     6
 78
     2
 67
     7
 79
     3
170
     0
171
     0
290
     0
174
     0
 93
       13
 44
0.0
173
     0
291
     0
 45
0.0
1001
ACAD
1000
AcDbSavedByObjectVersion
1070
     0
  0
VISUALSTYLE
  5
3E
102
{ACAD_XDICTIONARY
360
6292
102
}
102
{ACAD_REACTORS
330
29
102
}
330
29
100
AcDbVisualStyle
  2
Shaded
 70
    27
 71
     2
 72
     2
 73
     1
 90
        2
 40
-0.6
 41
30.0
 62
     5
 63
     7
 74
     0
 91
        4
 64
     7
 65
   257
 75
     1
175
     1
 42
1.0
 92
        8
 66
   257
 43
1.0
 76
     1
 77
     6
 78
     2
 67
     8
 79
     3
170
     0
171
     0
290
     0
174
     0
 93
        5
 44
0.0
173
     0
291
     0
 45
0.0
1001
ACAD
1000
AcDbSavedByObjectVersion
1070
     0
  0
VISUALSTYLE
  5
3D
102
{ACAD_XDICTIONARY
360
6290
102
}
102
{ACAD_REACTORS
330
29
102
}
330
29
100
AcDbVisualStyle
  2
Shaded with edges
 70
    26
 71
     2
 72
     2
 73
     1
 90
        2
 40
-0.6
 41
30.0
 62
     5
 63
     7
 74
     1
 91
       10
 64
     7
 65
   257
 75
     2
175
     1
 42
1.0
 92
        8
 66
   257
 43
1.0
 76
     1
 77
     6
 78
     2
 67
     7
 79
     3
170
     0
171
     0
290
     0
174
     0
 93
        5
 44
0.0
173
     0
291
     0
 45
0.0
1001
ACAD
1000
AcDbSavedByObjectVersion
1070
     0
  0
VISUALSTYLE
  5
3A
102
{ACAD_XDICTIONARY
360
628A
102
}
102
{ACAD_REACTORS
330
29
102
}
330
29
100
AcDbVisualStyle
  2
Shades of Gray
 70
    23
 71
     2
 72
     2
 73
     3
 90
        0
 40
-0.6
 41
-30.0
 62
     5
 63
     7
 74
     2
 91
        2
 64
     7
 65
     7
 75
     1
175
     1
 42
40.0
 92
        8
 66
     7
 43
1.0
 76
     1
 77
     6
 78
     2
 67
     7
 79
     3
170
     0
171
     0
290
     0
174
     0
 93
        1
 44
0.0
173
     0
291
     0
 45
0.0
1001
ACAD
1000
AcDbSavedByObjectVersion
1070
     0
  0
VISUALSTYLE
  5
3B
102
{ACAD_XDICTIONARY
360
628C
102
}
102
{ACAD_REACTORS
330
29
102
}
330
29
100
AcDbVisualStyle
  2
Sketchy
 70
    24
 71
     1
 72
     2
 73
     2
 90
        0
 40
-0.6
 41
-30.0
 62
     5
 63
     7
 74
     2
 91
        2
 64
     7
 65
     7
 75
     1
175
     1
 42
40.0
 92
       11
 66
     7
 43
1.0
 76
     1
 77
     6
 78
     2
 67
     7
 79
     6
170
     0
171
     0
290
     0
174
     0
 93
        1
 44
0.0
173
     0
291
     0
 45
0.0
1001
ACAD
1000
AcDbSavedByObjectVersion
1070
     0
  0
VISUALSTYLE
  5
36
102
{ACAD_XDICTIONARY
360
6282
102
}
102
{ACAD_REACTORS
330
29
102
}
330
29
100
AcDbVisualStyle
  2
Thicken
 70
    13
 71
     2
 72
     2
 73
     0
 90
        0
 40
-0.6
 41
-30.0
 62
     5
 63
     7
 74
     1
 91
        4
 64
     7
 65
   257
 75
     1
175
     1
 42
1.0
 92
       12
 66
     7
 43
1.0
 76
     1
 77
     6
 78
     2
 67
     7
 79
     5
170
     0
171
     0
290
     0
174
     0
 93
        1
 44
0.0
173
     0
291
     1
 45
0.0
1001
ACAD
1000
AcDbSavedByObjectVersion
1070
     0
  0
VISUALSTYLE
  5
30
102
{ACAD_XDICTIONARY
360
6276
102
}
102
{ACAD_REACTORS
330
29
102
}
330
29
100
AcDbVisualStyle
  2
Wireframe
 70
     5
 71
     0
 72
     2
 73
     0
 90
        0
 40
-0.6
 41
-30.0
 62
     5
 63
     7
 74
     1
 91
        4
 64
     7
 65
   257
 75
     1
175
     1
 42
1.0
 92
        0
 66
   257
 43
1.0
 76
     1
 77
     6
 78
     2
 67
     7
 79
     3
170
     0
171
     0
290
     0
174
     0
 93
        1
 44
0.0
173
     0
291
     0
 45
0.0
1001
ACAD
1000
AcDbSavedByObjectVersion
1070
     0
  0
VISUALSTYLE
  5
3C
102
{ACAD_XDICTIONARY
360
628E
102
}
102
{ACAD_REACTORS
330
29
102
}
330
29
100
AcDbVisualStyle
  2
X-Ray
 70
    25
 71
     2
 72
     2
 73
     1
 90
        1
 40
0.5
 41
-30.0
 62
     5
 63
     7
 74
     1
 91
        0
 64
     7
 65
   257
 75
     1
175
     1
 42
1.0
 92
        8
 66
     7
 43
1.0
 76
     1
 77
     6
 78
     2
 67
     7
 79
     3
170
     0
171
     0
290
     0
174
     0
 93
       13
 44
0.0
173
     0
291
     0
 45
0.0
1001
ACAD
1000
AcDbSavedByObjectVersion
1070
     0
  0
DICTIONARYVAR
  5
4BB
102
{ACAD_REACTORS
330
4B8
102
}
330
4B8
100
DictionaryVariables
280
     0
  1
1:1
  0
DICTIONARYVAR
  5
4BA
102
{ACAD_REACTORS
330
4B8
102
}
330
4B8
100
DictionaryVariables
280
     0
  1
STANDARD
  0
DICTIONARYVAR
  5
4B9
102
{ACAD_REACTORS
330
4B8
102
}
330
4B8
100
DictionaryVariables
280
     0
  1
STANDARD
  0
DICTIONARYVAR
  5
4A4F
102
{ACAD_REACTORS
330
4B8
102
}
330
4B8
100
DictionaryVariables
280
     0
  1
2
  0
DICTIONARYVAR
  5
4A4E
102
{ACAD_REACTORS
330
4B8
102
}
330
4B8
100
DictionaryVariables
280
     0
  1
1
  0
DICTIONARYVAR
  5
4A4D
102
{ACAD_REACTORS
330
4B8
102
}
330
4B8
100
DictionaryVariables
280
     0
  1
0
  0
DICTIONARYVAR
  5
61B9
102
{ACAD_REACTORS
330
4B8
102
}
330
4B8
100
DictionaryVariables
280
     0
  1
0.000000
  0
DICTIONARYVAR
  5
4A4A
102
{ACAD_REACTORS
330
4B8
102
}
330
4B8
100
DictionaryVariables
280
     0
  1
0
  0
DICTIONARYVAR
  5
4A4B
102
{ACAD_REACTORS
330
4B8
102
}
330
4B8
100
DictionaryVariables
280
     0
  1
0
  0
DICTIONARYVAR
  5
4A49
102
{ACAD_REACTORS
330
4B8
102
}
330
4B8
100
DictionaryVariables
280
     0
  1
2
  0
DICTIONARYVAR
  5
61BA
102
{ACAD_REACTORS
330
4B8
102
}
330
4B8
100
DictionaryVariables
280
     0
  1
0.000000
  0
DICTIONARYVAR
  5
4A48
102
{ACAD_REACTORS
330
4B8
102
}
330
4B8
100
DictionaryVariables
280
     0
  1
1
  0
DICTIONARYVAR
  5
4A4C
102
{ACAD_REACTORS
330
4B8
102
}
330
4B8
100
DictionaryVariables
280
     0
  1
127
  0
DICTIONARYVAR
  5
61BB
102
{ACAD_REACTORS
330
4B8
102
}
330
4B8
100
DictionaryVariables
280
     0
  1
0
  0
DICTIONARYVAR
  5
61BC
102
{ACAD_REACTORS
330
4B8
102
}
330
4B8
100
DictionaryVariables
280
     0
  1
2
  0
XRECORD
  5
4B2
102
{ACAD_REACTORS
330
4AE
102
}
330
4AE
100
AcDbXrecord
280
     1
  1
BUILDING_ID
  1
D77
  1
FLOOR_ID
  1
249849
  0
XRECORD
  5
4B0
102
{ACAD_REACTORS
330
4AE
102
}
330
4AE
100
AcDbXrecord
280
     1
  1
-2000151
  1
Generic Models
  1
-2000300
  1
Text Notes
  1
-2001330
  1
Structural Columns
  0
XRECORD
  5
4B1
102
{ACAD_REACTORS
330
4AE
102
}
330
4AE
100
AcDbXrecord
280
     1
  1
248192
  1
MSTA12, 10d, detail D77
  1
249699
  1
A34, 10d, detail D77
  0
XRECORD
  5
4AF
102
{ACAD_REACTORS
330
4AE
102
}
330
4AE
100
AcDbXrecord
280
     1
  1
247167
  1
MSTA12 : MSTA12
  1
248809
  1
d77 : d77
  1
249730
  1
A34 : A34
  1
249858
  1
Text : 3/32"
  1
249862
  1
Text : 1/16"
  1
249866
  1
Text : 1/20"
  0
DICTIONARY
  5
629B
330
6B
100
AcDbDictionary
280
     1
281
     1
  3
ACAD_XREC_ROUNDTRIP
360
629C
  0
DICTIONARY
  5
629F
330
73
100
AcDbDictionary
280
     1
281
     1
  3
ACAD_XREC_ROUNDTRIP
360
62A0
  0
DICTIONARY
  5
629D
330
6F
100
AcDbDictionary
280
     1
281
     1
  3
ACAD_XREC_ROUNDTRIP
360
629E
  0
DICTIONARY
  5
1A
330
19
100
AcDbDictionary
280
     1
281
     1
  3
ACAD_XREC_ROUNDTRIP
360
6268
  3
BUMPTILE
360
1C
  3
DIFFUSETILE
360
1B
  3
OPACITYTILE
360
1F
  3
REFLECTIONTILE
360
1E
  3
REFRACTIONTILE
360
20
  3
SPECULARTILE
360
1D
  0
DICTIONARY
  5
12
330
11
100
AcDbDictionary
280
     1
281
     1
  3
ACAD_XREC_ROUNDTRIP
360
6267
  3
BUMPTILE
360
14
  3
DIFFUSETILE
360
13
  3
OPACITYTILE
360
17
  3
REFLECTIONTILE
360
16
  3
REFRACTIONTILE
360
18
  3
SPECULARTILE
360
15
  0
DICTIONARY
  5
22
330
21
100
AcDbDictionary
280
     1
281
     1
  3
ACAD_XREC_ROUNDTRIP
360
6269
  3
BUMPTILE
360
24
  3
DIFFUSETILE
360
23
  3
OPACITYTILE
360
27
  3
REFLECTIONTILE
360
26
  3
REFRACTIONTILE
360
28
  3
SPECULARTILE
360
25
  0
DICTIONARY
  5
623F
330
67
100
AcDbDictionary
280
     1
281
     1
  3
ACAD_XREC_ROUNDTRIP
360
6240
  0
DICTIONARY
  5
49DD
330
65
100
AcDbDictionary
280
     1
281
     1
  3
ACAD_ROUNDTRIP_2008_TABLESTYLE_CELLSTYLEMAP
360
623E
  3
ACAD_XREC_ROUNDTRIP
360
629A
  0
DICTIONARY
  5
6274
330
2F
100
AcDbDictionary
280
     1
281
     1
  3
ACAD_XREC_ROUNDTRIP
360
6275
  0
DICTIONARY
  5
6272
330
2E
100
AcDbDictionary
280
     1
281
     1
  3
ACAD_XREC_ROUNDTRIP
360
6273
  0
DICTIONARY
  5
6280
330
35
100
AcDbDictionary
280
     1
281
     1
  3
ACAD_XREC_ROUNDTRIP
360
6281
  0
DICTIONARY
  5
6288
330
39
100
AcDbDictionary
280
     1
281
     1
  3
ACAD_XREC_ROUNDTRIP
360
6289
  0
DICTIONARY
  5
627A
330
32
100
AcDbDictionary
280
     1
281
     1
  3
ACAD_XREC_ROUNDTRIP
360
627B
  0
DICTIONARY
  5
627E
330
34
100
AcDbDictionary
280
     1
281
     1
  3
ACAD_XREC_ROUNDTRIP
360
627F
  0
DICTIONARY
  5
6298
330
41
100
AcDbDictionary
280
     1
281
     1
  3
ACAD_XREC_ROUNDTRIP
360
6299
  0
DICTIONARY
  5
6286
330
38
100
AcDbDictionary
280
     1
281
     1
  3
ACAD_XREC_ROUNDTRIP
360
6287
  0
DICTIONARY
  5
626A
330
2A
100
AcDbDictionary
280
     1
281
     1
  3
ACAD_XREC_ROUNDTRIP
360
626B
  0
DICTIONARY
  5
626C
330
2B
100
AcDbDictionary
280
     1
281
     1
  3
ACAD_XREC_ROUNDTRIP
360
626D
  0
DICTIONARY
  5
626E
330
2C
100
AcDbDictionary
280
     1
281
     1
  3
ACAD_XREC_ROUNDTRIP
360
626F
  0
DICTIONARY
  5
6270
330
2D
100
AcDbDictionary
280
     1
281
     1
  3
ACAD_XREC_ROUNDTRIP
360
6271
  0
DICTIONARY
  5
6278
330
31
100
AcDbDictionary
280
     1
281
     1
  3
ACAD_XREC_ROUNDTRIP
360
6279
  0
DICTIONARY
  5
6294
330
3F
100
AcDbDictionary
280
     1
281
     1
  3
ACAD_XREC_ROUNDTRIP
360
6295
  0
DICTIONARY
  5
6284
330
37
100
AcDbDictionary
280
     1
281
     1
  3
ACAD_XREC_ROUNDTRIP
360
6285
  0
DICTIONARY
  5
6296
330
40
100
AcDbDictionary
280
     1
281
     1
  3
ACAD_XREC_ROUNDTRIP
360
6297
  0
DICTIONARY
  5
627C
330
33
100
AcDbDictionary
280
     1
281
     1
  3
ACAD_XREC_ROUNDTRIP
360
627D
  0
DICTIONARY
  5
6292
330
3E
100
AcDbDictionary
280
     1
281
     1
  3
ACAD_XREC_ROUNDTRIP
360
6293
  0
DICTIONARY
  5
6290
330
3D
100
AcDbDictionary
280
     1
281
     1
  3
ACAD_XREC_ROUNDTRIP
360
6291
  0
DICTIONARY
  5
628A
330
3A
100
AcDbDictionary
280
     1
281
     1
  3
ACAD_XREC_ROUNDTRIP
360
628B
  0
DICTIONARY
  5
628C
330
3B
100
AcDbDictionary
280
     1
281
     1
  3
ACAD_XREC_ROUNDTRIP
360
628D
  0
DICTIONARY
  5
6282
330
36
100
AcDbDictionary
280
     1
281
     1
  3
ACAD_XREC_ROUNDTRIP
360
6283
  0
DICTIONARY
  5
6276
330
30
100
AcDbDictionary
280
     1
281
     1
  3
ACAD_XREC_ROUNDTRIP
360
6277
  0
DICTIONARY
  5
628E
330
3C
100
AcDbDictionary
280
     1
281
     1
  3
ACAD_XREC_ROUNDTRIP
360
628F
  0
XRECORD
  5
629C
102
{ACAD_REACTORS
330
629B
102
}
330
629B
100
AcDbXrecord
280
     1
102
SHADEPLOT
 70
     0
102
SHADEPLOTRESLEVEL
 70
     2
102
SHADEPLOTCUSTOMDPI
 70
   300
  0
XRECORD
  5
62A0
102
{ACAD_REACTORS
330
629F
102
}
330
629F
100
AcDbXrecord
280
     1
102
SHADEPLOT
 70
     0
102
SHADEPLOTRESLEVEL
 70
     2
102
SHADEPLOTCUSTOMDPI
 70
   300
  0
XRECORD
  5
629E
102
{ACAD_REACTORS
330
629D
102
}
330
629D
100
AcDbXrecord
280
     1
102
SHADEPLOT
 70
     0
102
SHADEPLOTRESLEVEL
 70
     2
102
SHADEPLOTCUSTOMDPI
 70
   300
  0
XRECORD
  5
6268
102
{ACAD_REACTORS
330
1A
102
}
330
1A
100
AcDbXrecord
280
     1
102
MATERIAL
148
0.0
149
0.0
149
0.0
 93
        0
 94
      127
282
     0
 72
     0
 77
     0
171
     0
175
     0
179
     0
273
     0
  0
XRECORD
  5
1C
102
{ACAD_REACTORS
330
1A
102
}
330
1A
100
AcDbXrecord
280
     1
270
     1
271
     1
  0
XRECORD
  5
1B
102
{ACAD_REACTORS
330
1A
102
}
330
1A
100
AcDbXrecord
280
     1
270
     1
271
     1
  0
XRECORD
  5
1F
102
{ACAD_REACTORS
330
1A
102
}
330
1A
100
AcDbXrecord
280
     1
270
     1
271
     1
  0
XRECORD
  5
1E
102
{ACAD_REACTORS
330
1A
102
}
330
1A
100
AcDbXrecord
280
     1
270
     1
271
     1
  0
XRECORD
  5
20
102
{ACAD_REACTORS
330
1A
102
}
330
1A
100
AcDbXrecord
280
     1
270
     1
271
     1
  0
XRECORD
  5
1D
102
{ACAD_REACTORS
330
1A
102
}
330
1A
100
AcDbXrecord
280
     1
270
     1
271
     1
  0
XRECORD
  5
6267
102
{ACAD_REACTORS
330
12
102
}
330
12
100
AcDbXrecord
280
     1
102
MATERIAL
148
0.0
149
0.0
149
0.0
 93
        0
 94
      127
282
     0
 72
     0
 77
     0
171
     0
175
     0
179
     0
273
     0
  0
XRECORD
  5
14
102
{ACAD_REACTORS
330
12
102
}
330
12
100
AcDbXrecord
280
     1
270
     1
271
     1
  0
XRECORD
  5
13
102
{ACAD_REACTORS
330
12
102
}
330
12
100
AcDbXrecord
280
     1
270
     1
271
     1
  0
XRECORD
  5
17
102
{ACAD_REACTORS
330
12
102
}
330
12
100
AcDbXrecord
280
     1
270
     1
271
     1
  0
XRECORD
  5
16
102
{ACAD_REACTORS
330
12
102
}
330
12
100
AcDbXrecord
280
     1
270
     1
271
     1
  0
XRECORD
  5
18
102
{ACAD_REACTORS
330
12
102
}
330
12
100
AcDbXrecord
280
     1
270
     1
271
     1
  0
XRECORD
  5
15
102
{ACAD_REACTORS
330
12
102
}
330
12
100
AcDbXrecord
280
     1
270
     1
271
     1
  0
XRECORD
  5
6269
102
{ACAD_REACTORS
330
22
102
}
330
22
100
AcDbXrecord
280
     1
102
MATERIAL
148
0.0
149
0.0
149
0.0
 93
        0
 94
      127
282
     0
 72
     0
 77
     0
171
     0
175
     0
179
     0
273
     0
  0
XRECORD
  5
24
102
{ACAD_REACTORS
330
22
102
}
330
22
100
AcDbXrecord
280
     1
270
     1
271
     1
  0
XRECORD
  5
23
102
{ACAD_REACTORS
330
22
102
}
330
22
100
AcDbXrecord
280
     1
270
     1
271
     1
  0
XRECORD
  5
27
102
{ACAD_REACTORS
330
22
102
}
330
22
100
AcDbXrecord
280
     1
270
     1
271
     1
  0
XRECORD
  5
26
102
{ACAD_REACTORS
330
22
102
}
330
22
100
AcDbXrecord
280
     1
270
     1
271
     1
  0
XRECORD
  5
28
102
{ACAD_REACTORS
330
22
102
}
330
22
100
AcDbXrecord
280
     1
270
     1
271
     1
  0
XRECORD
  5
25
102
{ACAD_REACTORS
330
22
102
}
330
22
100
AcDbXrecord
280
     1
270
     1
271
     1
  0
XRECORD
  5
6240
102
{ACAD_REACTORS
330
623F
102
}
330
623F
100
AcDbXrecord
280
     1
102
ACAD_ROUNDTRIP_2012_MLEADER_STYLE
298
     1
  0
CELLSTYLEMAP
  5
623E
102
{ACAD_REACTORS
330
49DD
102
}
330
49DD
100
AcDbCellStyleMap
 90
        3
300
CELLSTYLE
  1
TABLEFORMAT_BEGIN
 90
        5
170
     1
 91
        0
 92
    32768
 62
   257
 93
        1
300
CONTENTFORMAT
  1
CONTENTFORMAT_BEGIN
 90
        0
 91
        0
 92
      512
 93
        0
300

 40
0.0
140
1.0
 94
        5
 62
     0
340
55
144
0.25
309
CONTENTFORMAT_END
171
     0
 94
        0
309
TABLEFORMAT_END
  1
CELLSTYLE_BEGIN
 90
        1
 91
        1
300
_TITLE
309
CELLSTYLE_END
300
CELLSTYLE
  1
TABLEFORMAT_BEGIN
 90
        5
170
     1
 91
        0
 92
        0
 62
   257
 93
        1
300
CONTENTFORMAT
  1
CONTENTFORMAT_BEGIN
 90
        0
 91
        0
 92
      512
 93
        0
300

 40
0.0
140
1.0
 94
        5
 62
     0
340
55
144
0.18
309
CONTENTFORMAT_END
171
     0
 94
        0
309
TABLEFORMAT_END
  1
CELLSTYLE_BEGIN
 90
        2
 91
        1
300
_HEADER
309
CELLSTYLE_END
300
CELLSTYLE
  1
TABLEFORMAT_BEGIN
 90
        5
170
     1
 91
        0
 92
        0
 62
   257
 93
        1
300
CONTENTFORMAT
  1
CONTENTFORMAT_BEGIN
 90
        0
 91
        0
 92
      512
 93
        0
300

 40
0.0
140
1.0
 94
        2
 62
     0
340
55
144
0.18
309
CONTENTFORMAT_END
171
     0
 94
        0
309
TABLEFORMAT_END
  1
CELLSTYLE_BEGIN
 90
        3
 91
        2
300
_DATA
309
CELLSTYLE_END
  0
XRECORD
  5
629A
102
{ACAD_REACTORS
330
49DD
102
}
330
49DD
100
AcDbXrecord
280
     1
102
ACAD_ROUNDTRIP_PRE2007_TABLESTYLE
 90
      512
 91
        0
  1

 92
      512
 93
        0
  2

 94
      512
 95
        0
  3

  0
XRECORD
  5
6275
102
{ACAD_REACTORS
330
6274
102
}
330
6274
100
AcDbXrecord
280
     1
102
RTVSPropertyOp0
 70
     1
102
RTVSPropertyOp1
 70
     1
102
RTVSPropertyOp2
 70
     1
102
RTVSPropertyOp3
 70
     1
102
RTVSPropertyOp4
 70
     1
102
RTVSPropertyOp5
 70
     1
102
RTVSPropertyOp6
 70
     1
102
RTVSPropertyOp7
 70
     1
102
RTVSPropertyOp8
 70
     1
102
RTVSPropertyOp9
 70
     1
102
RTVSPropertyOp10
 70
     1
102
RTVSPropertyOp11
 70
     1
102
RTVSPropertyOp12
 70
     1
102
RTVSPropertyOp13
 70
     1
102
RTVSPropertyOp14
 70
     1
102
RTVSPropertyOp15
 70
     1
102
RTVSPropertyOp16
 70
     1
102
RTVSPropertyOp17
 70
     1
102
RTVSPropertyOp18
 70
     1
102
RTVSPropertyOp19
 70
     1
102
RTVSPropertyOp20
 70
     1
102
RTVSPropertyOp21
 70
     1
102
RTVSPropertyOp22
 70
     1
102
RTVSPropertyOp23
 70
     1
102
RTVSPropertyOp24
 70
     1
102
RTVSPropertyOp25
 70
     1
102
RTVSPropertyOp26
 70
     1
102
RTVSPropertyOp27
 70
     1
102
RTVSPropertyOp28
 70
     1
102
RTVSPropertyOp29
 70
     1
102
RTVSPropertyOp30
 70
     1
102
RTVSPropertyOp31
 70
     1
102
RTVSPropertyOp32
 70
     1
  0
XRECORD
  5
6273
102
{ACAD_REACTORS
330
6272
102
}
330
6272
100
AcDbXrecord
280
     1
102
RTVSPropertyOp0
 70
     1
102
RTVSPropertyOp1
 70
     1
102
RTVSPropertyOp2
 70
     1
102
RTVSPropertyOp3
 70
     1
102
RTVSPropertyOp4
 70
     1
102
RTVSPropertyOp5
 70
     1
102
RTVSPropertyOp6
 70
     1
102
RTVSPropertyOp7
 70
     1
102
RTVSPropertyOp8
 70
     1
102
RTVSPropertyOp9
 70
     1
102
RTVSPropertyOp10
 70
     1
102
RTVSPropertyOp11
 70
     1
102
RTVSPropertyOp12
 70
     1
102
RTVSPropertyOp13
 70
     1
102
RTVSPropertyOp14
 70
     1
102
RTVSPropertyOp15
 70
     1
102
RTVSPropertyOp16
 70
     1
102
RTVSPropertyOp17
 70
     1
102
RTVSPropertyOp18
 70
     1
102
RTVSPropertyOp19
 70
     1
102
RTVSPropertyOp20
 70
     1
102
RTVSPropertyOp21
 70
     1
102
RTVSPropertyOp22
 70
     1
102
RTVSPropertyOp23
 70
     1
102
RTVSPropertyOp24
 70
     1
102
RTVSPropertyOp25
 70
     1
102
RTVSPropertyOp26
 70
     1
102
RTVSPropertyOp27
 70
     1
102
RTVSPropertyOp28
 70
     1
102
RTVSPropertyOp29
 70
     1
102
RTVSPropertyOp30
 70
     1
102
RTVSPropertyOp31
 70
     1
102
RTVSPropertyOp32
 70
     1
  0
XRECORD
  5
6281
102
{ACAD_REACTORS
330
6280
102
}
330
6280
100
AcDbXrecord
280
     1
102
RTVSPropertyOp0
 70
     1
102
RTVSPropertyOp1
 70
     1
102
RTVSPropertyOp2
 70
     1
102
RTVSPropertyOp3
 70
     1
102
RTVSPropertyOp4
 70
     1
102
RTVSPropertyOp5
 70
     1
102
RTVSPropertyOp6
 70
     1
102
RTVSPropertyOp7
 70
     1
102
RTVSPropertyOp8
 70
     1
102
RTVSPropertyOp9
 70
     1
102
RTVSPropertyOp10
 70
     1
102
RTVSPropertyOp11
 70
     1
102
RTVSPropertyOp12
 70
     1
102
RTVSPropertyOp13
 70
     1
102
RTVSPropertyOp14
 70
     1
102
RTVSPropertyOp15
 70
     1
102
RTVSPropertyOp16
 70
     1
102
RTVSPropertyOp17
 70
     1
102
RTVSPropertyOp18
 70
     1
102
RTVSPropertyOp19
 70
     1
102
RTVSPropertyOp20
 70
     1
102
RTVSPropertyOp21
 70
     1
102
RTVSPropertyOp22
 70
     1
102
RTVSPropertyOp23
 70
     1
102
RTVSPropertyOp24
 70
     1
102
RTVSPropertyOp25
 70
     1
102
RTVSPropertyOp26
 70
     1
102
RTVSPropertyOp27
 70
     1
102
RTVSPropertyOp28
 70
     1
102
RTVSPropertyOp29
 70
     1
102
RTVSPropertyOp30
 70
     1
102
RTVSPropertyOp31
 70
     1
102
RTVSPropertyOp32
 70
     1
  0
XRECORD
  5
6289
102
{ACAD_REACTORS
330
6288
102
}
330
6288
100
AcDbXrecord
280
     1
102
RTVSPropertyOp0
 70
     1
102
RTVSPropertyOp1
 70
     1
102
RTVSPropertyOp2
 70
     1
102
RTVSPropertyOp3
 70
     1
102
RTVSPropertyOp4
 70
     1
102
RTVSPropertyOp5
 70
     1
102
RTVSPropertyOp6
 70
     1
102
RTVSPropertyOp7
 70
     1
102
RTVSPropertyOp8
 70
     1
102
RTVSPropertyOp9
 70
     1
102
RTVSPropertyOp10
 70
     1
102
RTVSPropertyOp11
 70
     1
102
RTVSPropertyOp12
 70
     1
102
RTVSPropertyOp13
 70
     1
102
RTVSPropertyOp14
 70
     1
102
RTVSPropertyOp15
 70
     1
102
RTVSPropertyOp16
 70
     1
102
RTVSPropertyOp17
 70
     1
102
RTVSPropertyOp18
 70
     1
102
RTVSPropertyOp19
 70
     1
102
RTVSPropertyOp20
 70
     1
102
RTVSPropertyOp21
 70
     1
102
RTVSPropertyOp22
 70
     1
102
RTVSPropertyOp23
 70
     1
102
RTVSPropertyOp24
 70
     1
102
RTVSPropertyOp25
 70
     1
102
RTVSPropertyOp26
 70
     1
102
RTVSPropertyOp27
 70
     1
102
RTVSPropertyOp28
 70
     1
102
RTVSPropertyOp29
 70
     1
102
RTVSPropertyOp30
 70
     1
102
RTVSPropertyOp31
 70
     1
102
RTVSPropertyOp32
 70
     1
  0
XRECORD
  5
627B
102
{ACAD_REACTORS
330
627A
102
}
330
627A
100
AcDbXrecord
280
     1
102
RTVSPropertyOp0
 70
     1
102
RTVSPropertyOp1
 70
     1
102
RTVSPropertyOp2
 70
     1
102
RTVSPropertyOp3
 70
     1
102
RTVSPropertyOp4
 70
     1
102
RTVSPropertyOp5
 70
     1
102
RTVSPropertyOp6
 70
     1
102
RTVSPropertyOp7
 70
     1
102
RTVSPropertyOp8
 70
     1
102
RTVSPropertyOp9
 70
     1
102
RTVSPropertyOp10
 70
     1
102
RTVSPropertyOp11
 70
     1
102
RTVSPropertyOp12
 70
     1
102
RTVSPropertyOp13
 70
     1
102
RTVSPropertyOp14
 70
     1
102
RTVSPropertyOp15
 70
     1
102
RTVSPropertyOp16
 70
     1
102
RTVSPropertyOp17
 70
     1
102
RTVSPropertyOp18
 70
     1
102
RTVSPropertyOp19
 70
     1
102
RTVSPropertyOp20
 70
     1
102
RTVSPropertyOp21
 70
     1
102
RTVSPropertyOp22
 70
     1
102
RTVSPropertyOp23
 70
     1
102
RTVSPropertyOp24
 70
     1
102
RTVSPropertyOp25
 70
     1
102
RTVSPropertyOp26
 70
     1
102
RTVSPropertyOp27
 70
     1
102
RTVSPropertyOp28
 70
     1
102
RTVSPropertyOp29
 70
     1
102
RTVSPropertyOp30
 70
     1
102
RTVSPropertyOp31
 70
     1
102
RTVSPropertyOp32
 70
     1
  0
XRECORD
  5
627F
102
{ACAD_REACTORS
330
627E
102
}
330
627E
100
AcDbXrecord
280
     1
102
RTVSPropertyOp0
 70
     1
102
RTVSPropertyOp1
 70
     1
102
RTVSPropertyOp2
 70
     1
102
RTVSPropertyOp3
 70
     1
102
RTVSPropertyOp4
 70
     1
102
RTVSPropertyOp5
 70
     1
102
RTVSPropertyOp6
 70
     1
102
RTVSPropertyOp7
 70
     1
102
RTVSPropertyOp8
 70
     1
102
RTVSPropertyOp9
 70
     1
102
RTVSPropertyOp10
 70
     1
102
RTVSPropertyOp11
 70
     1
102
RTVSPropertyOp12
 70
     1
102
RTVSPropertyOp13
 70
     1
102
RTVSPropertyOp14
 70
     1
102
RTVSPropertyOp15
 70
     1
102
RTVSPropertyOp16
 70
     1
102
RTVSPropertyOp17
 70
     1
102
RTVSPropertyOp18
 70
     1
102
RTVSPropertyOp19
 70
     1
102
RTVSPropertyOp20
 70
     1
102
RTVSPropertyOp21
 70
     1
102
RTVSPropertyOp22
 70
     1
102
RTVSPropertyOp23
 70
     1
102
RTVSPropertyOp24
 70
     1
102
RTVSPropertyOp25
 70
     1
102
RTVSPropertyOp26
 70
     1
102
RTVSPropertyOp27
 70
     1
102
RTVSPropertyOp28
 70
     1
102
RTVSPropertyOp29
 70
     1
102
RTVSPropertyOp30
 70
     1
102
RTVSPropertyOp31
 70
     1
102
RTVSPropertyOp32
 70
     1
  0
XRECORD
  5
6299
102
{ACAD_REACTORS
330
6298
102
}
330
6298
100
AcDbXrecord
280
     1
102
RTVSPropertyOp0
 70
     0
102
RTVSPropertyOp1
 70
     0
102
RTVSPropertyOp2
 70
     0
102
RTVSPropertyOp3
 70
     0
102
RTVSPropertyOp4
 70
     0
102
RTVSPropertyOp5
 70
     0
102
RTVSPropertyOp6
 70
     0
102
RTVSPropertyOp7
 70
     0
102
RTVSPropertyOp8
 70
     0
102
RTVSPropertyOp9
 70
     0
102
RTVSPropertyOp10
 70
     0
102
RTVSPropertyOp11
 70
     0
102
RTVSPropertyOp12
 70
     0
102
RTVSPropertyOp13
 70
     0
102
RTVSPropertyOp14
 70
     2
102
RTVSPropertyOp15
 70
     0
102
RTVSPropertyOp16
 70
     0
102
RTVSPropertyOp17
 70
     0
102
RTVSPropertyOp18
 70
     0
102
RTVSPropertyOp19
 70
     0
102
RTVSPropertyOp20
 70
     0
102
RTVSPropertyOp21
 70
     0
102
RTVSPropertyOp22
 70
     0
102
RTVSPropertyOp23
 70
     0
102
RTVSPropertyOp24
 70
     0
102
RTVSPropertyOp25
 70
     0
102
RTVSPropertyOp26
 70
     0
102
RTVSPropertyOp27
 70
     0
102
RTVSPropertyOp28
 70
     1
102
RTVSPropertyOp29
 70
     1
102
RTVSPropertyOp30
 70
     1
102
RTVSPropertyOp31
 70
     1
102
RTVSPropertyOp32
 70
     1
  0
XRECORD
  5
6287
102
{ACAD_REACTORS
330
6286
102
}
330
6286
100
AcDbXrecord
280
     1
102
RTVSPropertyOp0
 70
     1
102
RTVSPropertyOp1
 70
     1
102
RTVSPropertyOp2
 70
     1
102
RTVSPropertyOp3
 70
     1
102
RTVSPropertyOp4
 70
     1
102
RTVSPropertyOp5
 70
     1
102
RTVSPropertyOp6
 70
     1
102
RTVSPropertyOp7
 70
     1
102
RTVSPropertyOp8
 70
     1
102
RTVSPropertyOp9
 70
     1
102
RTVSPropertyOp10
 70
     1
102
RTVSPropertyOp11
 70
     1
102
RTVSPropertyOp12
 70
     1
102
RTVSPropertyOp13
 70
     1
102
RTVSPropertyOp14
 70
     1
102
RTVSPropertyOp15
 70
     1
102
RTVSPropertyOp16
 70
     1
102
RTVSPropertyOp17
 70
     1
102
RTVSPropertyOp18
 70
     1
102
RTVSPropertyOp19
 70
     1
102
RTVSPropertyOp20
 70
     1
102
RTVSPropertyOp21
 70
     1
102
RTVSPropertyOp22
 70
     1
102
RTVSPropertyOp23
 70
     1
102
RTVSPropertyOp24
 70
     1
102
RTVSPropertyOp25
 70
     1
102
RTVSPropertyOp26
 70
     1
102
RTVSPropertyOp27
 70
     1
102
RTVSPropertyOp28
 70
     1
102
RTVSPropertyOp29
 70
     1
102
RTVSPropertyOp30
 70
     1
102
RTVSPropertyOp31
 70
     1
102
RTVSPropertyOp32
 70
     1
  0
XRECORD
  5
626B
102
{ACAD_REACTORS
330
626A
102
}
330
626A
100
AcDbXrecord
280
     1
102
RTVSPropertyOp0
 70
     1
102
RTVSPropertyOp1
 70
     1
102
RTVSPropertyOp2
 70
     1
102
RTVSPropertyOp3
 70
     1
102
RTVSPropertyOp4
 70
     1
102
RTVSPropertyOp5
 70
     1
102
RTVSPropertyOp6
 70
     1
102
RTVSPropertyOp7
 70
     1
102
RTVSPropertyOp8
 70
     1
102
RTVSPropertyOp9
 70
     1
102
RTVSPropertyOp10
 70
     1
102
RTVSPropertyOp11
 70
     1
102
RTVSPropertyOp12
 70
     1
102
RTVSPropertyOp13
 70
     1
102
RTVSPropertyOp14
 70
     1
102
RTVSPropertyOp15
 70
     1
102
RTVSPropertyOp16
 70
     1
102
RTVSPropertyOp17
 70
     1
102
RTVSPropertyOp18
 70
     1
102
RTVSPropertyOp19
 70
     1
102
RTVSPropertyOp20
 70
     1
102
RTVSPropertyOp21
 70
     1
102
RTVSPropertyOp22
 70
     1
102
RTVSPropertyOp23
 70
     1
102
RTVSPropertyOp24
 70
     1
102
RTVSPropertyOp25
 70
     1
102
RTVSPropertyOp26
 70
     1
102
RTVSPropertyOp27
 70
     1
102
RTVSPropertyOp28
 70
     1
102
RTVSPropertyOp29
 70
     1
102
RTVSPropertyOp30
 70
     1
102
RTVSPropertyOp31
 70
     1
102
RTVSPropertyOp32
 70
     1
  0
XRECORD
  5
626D
102
{ACAD_REACTORS
330
626C
102
}
330
626C
100
AcDbXrecord
280
     1
102
RTVSPropertyOp0
 70
     1
102
RTVSPropertyOp1
 70
     1
102
RTVSPropertyOp2
 70
     1
102
RTVSPropertyOp3
 70
     1
102
RTVSPropertyOp4
 70
     1
102
RTVSPropertyOp5
 70
     1
102
RTVSPropertyOp6
 70
     1
102
RTVSPropertyOp7
 70
     1
102
RTVSPropertyOp8
 70
     1
102
RTVSPropertyOp9
 70
     1
102
RTVSPropertyOp10
 70
     1
102
RTVSPropertyOp11
 70
     1
102
RTVSPropertyOp12
 70
     1
102
RTVSPropertyOp13
 70
     1
102
RTVSPropertyOp14
 70
     1
102
RTVSPropertyOp15
 70
     1
102
RTVSPropertyOp16
 70
     1
102
RTVSPropertyOp17
 70
     1
102
RTVSPropertyOp18
 70
     1
102
RTVSPropertyOp19
 70
     1
102
RTVSPropertyOp20
 70
     1
102
RTVSPropertyOp21
 70
     1
102
RTVSPropertyOp22
 70
     1
102
RTVSPropertyOp23
 70
     1
102
RTVSPropertyOp24
 70
     1
102
RTVSPropertyOp25
 70
     1
102
RTVSPropertyOp26
 70
     1
102
RTVSPropertyOp27
 70
     1
102
RTVSPropertyOp28
 70
     1
102
RTVSPropertyOp29
 70
     1
102
RTVSPropertyOp30
 70
     1
102
RTVSPropertyOp31
 70
     1
102
RTVSPropertyOp32
 70
     1
  0
XRECORD
  5
626F
102
{ACAD_REACTORS
330
626E
102
}
330
626E
100
AcDbXrecord
280
     1
102
RTVSPropertyOp0
 70
     1
102
RTVSPropertyOp1
 70
     1
102
RTVSPropertyOp2
 70
     1
102
RTVSPropertyOp3
 70
     1
102
RTVSPropertyOp4
 70
     1
102
RTVSPropertyOp5
 70
     1
102
RTVSPropertyOp6
 70
     1
102
RTVSPropertyOp7
 70
     1
102
RTVSPropertyOp8
 70
     1
102
RTVSPropertyOp9
 70
     1
102
RTVSPropertyOp10
 70
     1
102
RTVSPropertyOp11
 70
     1
102
RTVSPropertyOp12
 70
     1
102
RTVSPropertyOp13
 70
     1
102
RTVSPropertyOp14
 70
     1
102
RTVSPropertyOp15
 70
     1
102
RTVSPropertyOp16
 70
     1
102
RTVSPropertyOp17
 70
     1
102
RTVSPropertyOp18
 70
     1
102
RTVSPropertyOp19
 70
     1
102
RTVSPropertyOp20
 70
     1
102
RTVSPropertyOp21
 70
     1
102
RTVSPropertyOp22
 70
     1
102
RTVSPropertyOp23
 70
     1
102
RTVSPropertyOp24
 70
     1
102
RTVSPropertyOp25
 70
     1
102
RTVSPropertyOp26
 70
     1
102
RTVSPropertyOp27
 70
     1
102
RTVSPropertyOp28
 70
     1
102
RTVSPropertyOp29
 70
     1
102
RTVSPropertyOp30
 70
     1
102
RTVSPropertyOp31
 70
     1
102
RTVSPropertyOp32
 70
     1
  0
XRECORD
  5
6271
102
{ACAD_REACTORS
330
6270
102
}
330
6270
100
AcDbXrecord
280
     1
102
RTVSPropertyOp0
 70
     1
102
RTVSPropertyOp1
 70
     1
102
RTVSPropertyOp2
 70
     1
102
RTVSPropertyOp3
 70
     1
102
RTVSPropertyOp4
 70
     1
102
RTVSPropertyOp5
 70
     1
102
RTVSPropertyOp6
 70
     1
102
RTVSPropertyOp7
 70
     1
102
RTVSPropertyOp8
 70
     1
102
RTVSPropertyOp9
 70
     1
102
RTVSPropertyOp10
 70
     1
102
RTVSPropertyOp11
 70
     1
102
RTVSPropertyOp12
 70
     1
102
RTVSPropertyOp13
 70
     1
102
RTVSPropertyOp14
 70
     1
102
RTVSPropertyOp15
 70
     1
102
RTVSPropertyOp16
 70
     1
102
RTVSPropertyOp17
 70
     1
102
RTVSPropertyOp18
 70
     1
102
RTVSPropertyOp19
 70
     1
102
RTVSPropertyOp20
 70
     1
102
RTVSPropertyOp21
 70
     1
102
RTVSPropertyOp22
 70
     1
102
RTVSPropertyOp23
 70
     1
102
RTVSPropertyOp24
 70
     1
102
RTVSPropertyOp25
 70
     1
102
RTVSPropertyOp26
 70
     1
102
RTVSPropertyOp27
 70
     1
102
RTVSPropertyOp28
 70
     1
102
RTVSPropertyOp29
 70
     1
102
RTVSPropertyOp30
 70
     1
102
RTVSPropertyOp31
 70
     1
102
RTVSPropertyOp32
 70
     1
  0
XRECORD
  5
6279
102
{ACAD_REACTORS
330
6278
102
}
330
6278
100
AcDbXrecord
280
     1
102
RTVSPropertyOp0
 70
     1
102
RTVSPropertyOp1
 70
     1
102
RTVSPropertyOp2
 70
     1
102
RTVSPropertyOp3
 70
     1
102
RTVSPropertyOp4
 70
     1
102
RTVSPropertyOp5
 70
     1
102
RTVSPropertyOp6
 70
     1
102
RTVSPropertyOp7
 70
     1
102
RTVSPropertyOp8
 70
     1
102
RTVSPropertyOp9
 70
     1
102
RTVSPropertyOp10
 70
     1
102
RTVSPropertyOp11
 70
     1
102
RTVSPropertyOp12
 70
     1
102
RTVSPropertyOp13
 70
     1
102
RTVSPropertyOp14
 70
     1
102
RTVSPropertyOp15
 70
     1
102
RTVSPropertyOp16
 70
     1
102
RTVSPropertyOp17
 70
     1
102
RTVSPropertyOp18
 70
     1
102
RTVSPropertyOp19
 70
     1
102
RTVSPropertyOp20
 70
     1
102
RTVSPropertyOp21
 70
     1
102
RTVSPropertyOp22
 70
     1
102
RTVSPropertyOp23
 70
     1
102
RTVSPropertyOp24
 70
     1
102
RTVSPropertyOp25
 70
     1
102
RTVSPropertyOp26
 70
     1
102
RTVSPropertyOp27
 70
     1
102
RTVSPropertyOp28
 70
     1
102
RTVSPropertyOp29
 70
     1
102
RTVSPropertyOp30
 70
     1
102
RTVSPropertyOp31
 70
     1
102
RTVSPropertyOp32
 70
     1
  0
XRECORD
  5
6295
102
{ACAD_REACTORS
330
6294
102
}
330
6294
100
AcDbXrecord
280
     1
102
RTVSPropertyOp0
 70
     0
102
RTVSPropertyOp1
 70
     0
102
RTVSPropertyOp2
 70
     0
102
RTVSPropertyOp3
 70
     0
102
RTVSPropertyOp4
 70
     0
102
RTVSPropertyOp5
 70
     0
102
RTVSPropertyOp6
 70
     0
102
RTVSPropertyOp7
 70
     0
102
RTVSPropertyOp8
 70
     0
102
RTVSPropertyOp9
 70
     0
102
RTVSPropertyOp10
 70
     0
102
RTVSPropertyOp11
 70
     0
102
RTVSPropertyOp12
 70
     0
102
RTVSPropertyOp13
 70
     0
102
RTVSPropertyOp14
 70
     2
102
RTVSPropertyOp15
 70
     0
102
RTVSPropertyOp16
 70
     0
102
RTVSPropertyOp17
 70
     0
102
RTVSPropertyOp18
 70
     0
102
RTVSPropertyOp19
 70
     0
102
RTVSPropertyOp20
 70
     0
102
RTVSPropertyOp21
 70
     0
102
RTVSPropertyOp22
 70
     0
102
RTVSPropertyOp23
 70
     0
102
RTVSPropertyOp24
 70
     0
102
RTVSPropertyOp25
 70
     0
102
RTVSPropertyOp26
 70
     0
102
RTVSPropertyOp27
 70
     0
102
RTVSPropertyOp28
 70
     1
102
RTVSPropertyOp29
 70
     1
102
RTVSPropertyOp30
 70
     1
102
RTVSPropertyOp31
 70
     1
102
RTVSPropertyOp32
 70
     1
  0
XRECORD
  5
6285
102
{ACAD_REACTORS
330
6284
102
}
330
6284
100
AcDbXrecord
280
     1
102
RTVSPropertyOp0
 70
     1
102
RTVSPropertyOp1
 70
     1
102
RTVSPropertyOp2
 70
     1
102
RTVSPropertyOp3
 70
     1
102
RTVSPropertyOp4
 70
     1
102
RTVSPropertyOp5
 70
     1
102
RTVSPropertyOp6
 70
     1
102
RTVSPropertyOp7
 70
     1
102
RTVSPropertyOp8
 70
     1
102
RTVSPropertyOp9
 70
     1
102
RTVSPropertyOp10
 70
     1
102
RTVSPropertyOp11
 70
     1
102
RTVSPropertyOp12
 70
     1
102
RTVSPropertyOp13
 70
     1
102
RTVSPropertyOp14
 70
     1
102
RTVSPropertyOp15
 70
     1
102
RTVSPropertyOp16
 70
     1
102
RTVSPropertyOp17
 70
     1
102
RTVSPropertyOp18
 70
     1
102
RTVSPropertyOp19
 70
     1
102
RTVSPropertyOp20
 70
     1
102
RTVSPropertyOp21
 70
     1
102
RTVSPropertyOp22
 70
     1
102
RTVSPropertyOp23
 70
     1
102
RTVSPropertyOp24
 70
     1
102
RTVSPropertyOp25
 70
     1
102
RTVSPropertyOp26
 70
     1
102
RTVSPropertyOp27
 70
     1
102
RTVSPropertyOp28
 70
     1
102
RTVSPropertyOp29
 70
     1
102
RTVSPropertyOp30
 70
     1
102
RTVSPropertyOp31
 70
     1
102
RTVSPropertyOp32
 70
     1
  0
XRECORD
  5
6297
102
{ACAD_REACTORS
330
6296
102
}
330
6296
100
AcDbXrecord
280
     1
102
RTVSPropertyOp0
 70
     0
102
RTVSPropertyOp1
 70
     0
102
RTVSPropertyOp2
 70
     0
102
RTVSPropertyOp3
 70
     0
102
RTVSPropertyOp4
 70
     0
102
RTVSPropertyOp5
 70
     0
102
RTVSPropertyOp6
 70
     0
102
RTVSPropertyOp7
 70
     0
102
RTVSPropertyOp8
 70
     0
102
RTVSPropertyOp9
 70
     0
102
RTVSPropertyOp10
 70
     0
102
RTVSPropertyOp11
 70
     0
102
RTVSPropertyOp12
 70
     0
102
RTVSPropertyOp13
 70
     0
102
RTVSPropertyOp14
 70
     2
102
RTVSPropertyOp15
 70
     0
102
RTVSPropertyOp16
 70
     0
102
RTVSPropertyOp17
 70
     0
102
RTVSPropertyOp18
 70
     0
102
RTVSPropertyOp19
 70
     0
102
RTVSPropertyOp20
 70
     0
102
RTVSPropertyOp21
 70
     0
102
RTVSPropertyOp22
 70
     0
102
RTVSPropertyOp23
 70
     0
102
RTVSPropertyOp24
 70
     0
102
RTVSPropertyOp25
 70
     0
102
RTVSPropertyOp26
 70
     0
102
RTVSPropertyOp27
 70
     0
102
RTVSPropertyOp28
 70
     1
102
RTVSPropertyOp29
 70
     1
102
RTVSPropertyOp30
 70
     1
102
RTVSPropertyOp31
 70
     1
102
RTVSPropertyOp32
 70
     1
  0
XRECORD
  5
627D
102
{ACAD_REACTORS
330
627C
102
}
330
627C
100
AcDbXrecord
280
     1
102
RTVSPropertyOp0
 70
     1
102
RTVSPropertyOp1
 70
     1
102
RTVSPropertyOp2
 70
     1
102
RTVSPropertyOp3
 70
     1
102
RTVSPropertyOp4
 70
     1
102
RTVSPropertyOp5
 70
     1
102
RTVSPropertyOp6
 70
     1
102
RTVSPropertyOp7
 70
     1
102
RTVSPropertyOp8
 70
     1
102
RTVSPropertyOp9
 70
     1
102
RTVSPropertyOp10
 70
     1
102
RTVSPropertyOp11
 70
     1
102
RTVSPropertyOp12
 70
     1
102
RTVSPropertyOp13
 70
     1
102
RTVSPropertyOp14
 70
     1
102
RTVSPropertyOp15
 70
     1
102
RTVSPropertyOp16
 70
     1
102
RTVSPropertyOp17
 70
     1
102
RTVSPropertyOp18
 70
     1
102
RTVSPropertyOp19
 70
     1
102
RTVSPropertyOp20
 70
     1
102
RTVSPropertyOp21
 70
     1
102
RTVSPropertyOp22
 70
     1
102
RTVSPropertyOp23
 70
     1
102
RTVSPropertyOp24
 70
     1
102
RTVSPropertyOp25
 70
     1
102
RTVSPropertyOp26
 70
     1
102
RTVSPropertyOp27
 70
     1
102
RTVSPropertyOp28
 70
     1
102
RTVSPropertyOp29
 70
     1
102
RTVSPropertyOp30
 70
     1
102
RTVSPropertyOp31
 70
     1
102
RTVSPropertyOp32
 70
     1
  0
XRECORD
  5
6293
102
{ACAD_REACTORS
330
6292
102
}
330
6292
100
AcDbXrecord
280
     1
102
RTVSPropertyOp0
 70
     1
102
RTVSPropertyOp1
 70
     1
102
RTVSPropertyOp2
 70
     1
102
RTVSPropertyOp3
 70
     1
102
RTVSPropertyOp4
 70
     1
102
RTVSPropertyOp5
 70
     1
102
RTVSPropertyOp6
 70
     1
102
RTVSPropertyOp7
 70
     1
102
RTVSPropertyOp8
 70
     1
102
RTVSPropertyOp9
 70
     1
102
RTVSPropertyOp10
 70
     1
102
RTVSPropertyOp11
 70
     1
102
RTVSPropertyOp12
 70
     1
102
RTVSPropertyOp13
 70
     1
102
RTVSPropertyOp14
 70
     1
102
RTVSPropertyOp15
 70
     1
102
RTVSPropertyOp16
 70
     1
102
RTVSPropertyOp17
 70
     1
102
RTVSPropertyOp18
 70
     1
102
RTVSPropertyOp19
 70
     1
102
RTVSPropertyOp20
 70
     1
102
RTVSPropertyOp21
 70
     1
102
RTVSPropertyOp22
 70
     1
102
RTVSPropertyOp23
 70
     1
102
RTVSPropertyOp24
 70
     1
102
RTVSPropertyOp25
 70
     1
102
RTVSPropertyOp26
 70
     1
102
RTVSPropertyOp27
 70
     1
102
RTVSPropertyOp28
 70
     1
102
RTVSPropertyOp29
 70
     1
102
RTVSPropertyOp30
 70
     1
102
RTVSPropertyOp31
 70
     1
102
RTVSPropertyOp32
 70
     1
  0
XRECORD
  5
6291
102
{ACAD_REACTORS
330
6290
102
}
330
6290
100
AcDbXrecord
280
     1
102
RTVSPropertyOp0
 70
     1
102
RTVSPropertyOp1
 70
     1
102
RTVSPropertyOp2
 70
     1
102
RTVSPropertyOp3
 70
     1
102
RTVSPropertyOp4
 70
     1
102
RTVSPropertyOp5
 70
     1
102
RTVSPropertyOp6
 70
     1
102
RTVSPropertyOp7
 70
     1
102
RTVSPropertyOp8
 70
     1
102
RTVSPropertyOp9
 70
     1
102
RTVSPropertyOp10
 70
     1
102
RTVSPropertyOp11
 70
     1
102
RTVSPropertyOp12
 70
     1
102
RTVSPropertyOp13
 70
     1
102
RTVSPropertyOp14
 70
     1
102
RTVSPropertyOp15
 70
     1
102
RTVSPropertyOp16
 70
     1
102
RTVSPropertyOp17
 70
     1
102
RTVSPropertyOp18
 70
     1
102
RTVSPropertyOp19
 70
     1
102
RTVSPropertyOp20
 70
     1
102
RTVSPropertyOp21
 70
     1
102
RTVSPropertyOp22
 70
     1
102
RTVSPropertyOp23
 70
     1
102
RTVSPropertyOp24
 70
     1
102
RTVSPropertyOp25
 70
     1
102
RTVSPropertyOp26
 70
     1
102
RTVSPropertyOp27
 70
     1
102
RTVSPropertyOp28
 70
     1
102
RTVSPropertyOp29
 70
     1
102
RTVSPropertyOp30
 70
     1
102
RTVSPropertyOp31
 70
     1
102
RTVSPropertyOp32
 70
     1
  0
XRECORD
  5
628B
102
{ACAD_REACTORS
330
628A
102
}
330
628A
100
AcDbXrecord
280
     1
102
RTVSPropertyOp0
 70
     1
102
RTVSPropertyOp1
 70
     1
102
RTVSPropertyOp2
 70
     1
102
RTVSPropertyOp3
 70
     1
102
RTVSPropertyOp4
 70
     1
102
RTVSPropertyOp5
 70
     1
102
RTVSPropertyOp6
 70
     1
102
RTVSPropertyOp7
 70
     1
102
RTVSPropertyOp8
 70
     1
102
RTVSPropertyOp9
 70
     1
102
RTVSPropertyOp10
 70
     1
102
RTVSPropertyOp11
 70
     1
102
RTVSPropertyOp12
 70
     1
102
RTVSPropertyOp13
 70
     1
102
RTVSPropertyOp14
 70
     1
102
RTVSPropertyOp15
 70
     1
102
RTVSPropertyOp16
 70
     1
102
RTVSPropertyOp17
 70
     1
102
RTVSPropertyOp18
 70
     1
102
RTVSPropertyOp19
 70
     1
102
RTVSPropertyOp20
 70
     1
102
RTVSPropertyOp21
 70
     1
102
RTVSPropertyOp22
 70
     1
102
RTVSPropertyOp23
 70
     1
102
RTVSPropertyOp24
 70
     1
102
RTVSPropertyOp25
 70
     1
102
RTVSPropertyOp26
 70
     1
102
RTVSPropertyOp27
 70
     1
102
RTVSPropertyOp28
 70
     1
102
RTVSPropertyOp29
 70
     1
102
RTVSPropertyOp30
 70
     1
102
RTVSPropertyOp31
 70
     1
102
RTVSPropertyOp32
 70
     1
  0
XRECORD
  5
628D
102
{ACAD_REACTORS
330
628C
102
}
330
628C
100
AcDbXrecord
280
     1
102
RTVSPropertyOp0
 70
     1
102
RTVSPropertyOp1
 70
     1
102
RTVSPropertyOp2
 70
     1
102
RTVSPropertyOp3
 70
     1
102
RTVSPropertyOp4
 70
     1
102
RTVSPropertyOp5
 70
     1
102
RTVSPropertyOp6
 70
     1
102
RTVSPropertyOp7
 70
     1
102
RTVSPropertyOp8
 70
     1
102
RTVSPropertyOp9
 70
     1
102
RTVSPropertyOp10
 70
     1
102
RTVSPropertyOp11
 70
     1
102
RTVSPropertyOp12
 70
     1
102
RTVSPropertyOp13
 70
     1
102
RTVSPropertyOp14
 70
     1
102
RTVSPropertyOp15
 70
     1
102
RTVSPropertyOp16
 70
     1
102
RTVSPropertyOp17
 70
     1
102
RTVSPropertyOp18
 70
     1
102
RTVSPropertyOp19
 70
     1
102
RTVSPropertyOp20
 70
     1
102
RTVSPropertyOp21
 70
     1
102
RTVSPropertyOp22
 70
     1
102
RTVSPropertyOp23
 70
     1
102
RTVSPropertyOp24
 70
     1
102
RTVSPropertyOp25
 70
     1
102
RTVSPropertyOp26
 70
     1
102
RTVSPropertyOp27
 70
     1
102
RTVSPropertyOp28
 70
     1
102
RTVSPropertyOp29
 70
     1
102
RTVSPropertyOp30
 70
     1
102
RTVSPropertyOp31
 70
     1
102
RTVSPropertyOp32
 70
     1
  0
XRECORD
  5
6283
102
{ACAD_REACTORS
330
6282
102
}
330
6282
100
AcDbXrecord
280
     1
102
RTVSPropertyOp0
 70
     1
102
RTVSPropertyOp1
 70
     1
102
RTVSPropertyOp2
 70
     1
102
RTVSPropertyOp3
 70
     1
102
RTVSPropertyOp4
 70
     1
102
RTVSPropertyOp5
 70
     1
102
RTVSPropertyOp6
 70
     1
102
RTVSPropertyOp7
 70
     1
102
RTVSPropertyOp8
 70
     1
102
RTVSPropertyOp9
 70
     1
102
RTVSPropertyOp10
 70
     1
102
RTVSPropertyOp11
 70
     1
102
RTVSPropertyOp12
 70
     1
102
RTVSPropertyOp13
 70
     1
102
RTVSPropertyOp14
 70
     1
102
RTVSPropertyOp15
 70
     1
102
RTVSPropertyOp16
 70
     1
102
RTVSPropertyOp17
 70
     1
102
RTVSPropertyOp18
 70
     1
102
RTVSPropertyOp19
 70
     1
102
RTVSPropertyOp20
 70
     1
102
RTVSPropertyOp21
 70
     1
102
RTVSPropertyOp22
 70
     1
102
RTVSPropertyOp23
 70
     1
102
RTVSPropertyOp24
 70
     1
102
RTVSPropertyOp25
 70
     1
102
RTVSPropertyOp26
 70
     1
102
RTVSPropertyOp27
 70
     1
102
RTVSPropertyOp28
 70
     1
102
RTVSPropertyOp29
 70
     1
102
RTVSPropertyOp30
 70
     1
102
RTVSPropertyOp31
 70
     1
102
RTVSPropertyOp32
 70
     1
  0
XRECORD
  5
6277
102
{ACAD_REACTORS
330
6276
102
}
330
6276
100
AcDbXrecord
280
     1
102
RTVSPropertyOp0
 70
     1
102
RTVSPropertyOp1
 70
     1
102
RTVSPropertyOp2
 70
     1
102
RTVSPropertyOp3
 70
     1
102
RTVSPropertyOp4
 70
     1
102
RTVSPropertyOp5
 70
     1
102
RTVSPropertyOp6
 70
     1
102
RTVSPropertyOp7
 70
     1
102
RTVSPropertyOp8
 70
     1
102
RTVSPropertyOp9
 70
     1
102
RTVSPropertyOp10
 70
     1
102
RTVSPropertyOp11
 70
     1
102
RTVSPropertyOp12
 70
     1
102
RTVSPropertyOp13
 70
     1
102
RTVSPropertyOp14
 70
     1
102
RTVSPropertyOp15
 70
     1
102
RTVSPropertyOp16
 70
     1
102
RTVSPropertyOp17
 70
     1
102
RTVSPropertyOp18
 70
     1
102
RTVSPropertyOp19
 70
     1
102
RTVSPropertyOp20
 70
     1
102
RTVSPropertyOp21
 70
     1
102
RTVSPropertyOp22
 70
     1
102
RTVSPropertyOp23
 70
     1
102
RTVSPropertyOp24
 70
     1
102
RTVSPropertyOp25
 70
     1
102
RTVSPropertyOp26
 70
     1
102
RTVSPropertyOp27
 70
     1
102
RTVSPropertyOp28
 70
     1
102
RTVSPropertyOp29
 70
     1
102
RTVSPropertyOp30
 70
     1
102
RTVSPropertyOp31
 70
     1
102
RTVSPropertyOp32
 70
     1
  0
XRECORD
  5
628F
102
{ACAD_REACTORS
330
628E
102
}
330
628E
100
AcDbXrecord
280
     1
102
RTVSPropertyOp0
 70
     1
102
RTVSPropertyOp1
 70
     1
102
RTVSPropertyOp2
 70
     1
102
RTVSPropertyOp3
 70
     1
102
RTVSPropertyOp4
 70
     1
102
RTVSPropertyOp5
 70
     1
102
RTVSPropertyOp6
 70
     1
102
RTVSPropertyOp7
 70
     1
102
RTVSPropertyOp8
 70
     1
102
RTVSPropertyOp9
 70
     1
102
RTVSPropertyOp10
 70
     1
102
RTVSPropertyOp11
 70
     1
102
RTVSPropertyOp12
 70
     1
102
RTVSPropertyOp13
 70
     1
102
RTVSPropertyOp14
 70
     1
102
RTVSPropertyOp15
 70
     1
102
RTVSPropertyOp16
 70
     1
102
RTVSPropertyOp17
 70
     1
102
RTVSPropertyOp18
 70
     1
102
RTVSPropertyOp19
 70
     1
102
RTVSPropertyOp20
 70
     1
102
RTVSPropertyOp21
 70
     1
102
RTVSPropertyOp22
 70
     1
102
RTVSPropertyOp23
 70
     1
102
RTVSPropertyOp24
 70
     1
102
RTVSPropertyOp25
 70
     1
102
RTVSPropertyOp26
 70
     1
102
RTVSPropertyOp27
 70
     1
102
RTVSPropertyOp28
 70
     1
102
RTVSPropertyOp29
 70
     1
102
RTVSPropertyOp30
 70
     1
102
RTVSPropertyOp31
 70
     1
102
RTVSPropertyOp32
 70
     1
  0
ENDSEC
  0
EOF
