  0
SECTION
  2
HEADER
  9
$ACADVER
  1
AC1015
  9
$ACADMAINTVER
 70
    20
  9
$DWGCODEPAGE
  3
ANSI_1258
  9
$INSBASE
 10
0.0
 20
0.0
 30
0.0
  9
$EXTMIN
 10
-161.5033637904415
 20
41.46350357816644
 30
0.0
  9
$EXTMAX
 10
-161.2485352356736
 20
41.77437180875457
 30
0.0
  9
$LIMMIN
 10
0.0
 20
0.0
  9
$LIMMAX
 10
12.0
 20
9.0
  9
$ORTHOMODE
 70
     0
  9
$REGENMODE
 70
     1
  9
$FILLMODE
 70
     1
  9
$QTEXTMODE
 70
     0
  9
$MIRRTEXT
 70
     0
  9
$LTSCALE
 40
0.04
  9
$ATTMODE
 70
     1
  9
$TEXTSIZE
 40
0.2
  9
$TRACEWID
 40
0.05
  9
$TEXTSTYLE
  7
Standard
  9
$CLAYER
  8
0
  9
$CELTYPE
  6
ByLayer
  9
$CECOLOR
 62
   256
  9
$CELTSCALE
 40
1.0
  9
$DISPSILH
 70
     0
  9
$DIMSCALE
 40
1.0
  9
$DIMASZ
 40
0.18
  9
$DIMEXO
 40
0.0625
  9
$DIMDLI
 40
0.38
  9
$DIMRND
 40
0.0
  9
$DIMDLE
 40
0.0
  9
$DIMEXE
 40
0.18
  9
$DIMTP
 40
0.0
  9
$DIMTM
 40
0.0
  9
$DIMTXT
 40
0.18
  9
$DIMCEN
 40
0.09
  9
$DIMTSZ
 40
0.0
  9
$DIMTOL
 70
     0
  9
$DIMLIM
 70
     0
  9
$DIMTIH
 70
     1
  9
$DIMTOH
 70
     1
  9
$DIMSE1
 70
     0
  9
$DIMSE2
 70
     0
  9
$DIMTAD
 70
     0
  9
$DIMZIN
 70
     0
  9
$DIMBLK
  1

  9
$DIMASO
 70
     1
  9
$DIMSHO
 70
     1
  9
$DIMPOST
  1

  9
$DIMAPOST
  1

  9
$DIMALT
 70
     0
  9
$DIMALTD
 70
     2
  9
$DIMALTF
 40
25.4
  9
$DIMLFAC
 40
1.0
  9
$DIMTOFL
 70
     0
  9
$DIMTVP
 40
0.0
  9
$DIMTIX
 70
     0
  9
$DIMSOXD
 70
     0
  9
$DIMSAH
 70
     0
  9
$DIMBLK1
  1

  9
$DIMBLK2
  1

  9
$DIMSTYLE
  2
Standard
  9
$DIMCLRD
 70
     0
  9
$DIMCLRE
 70
     0
  9
$DIMCLRT
 70
     0
  9
$DIMTFAC
 40
1.0
  9
$DIMGAP
 40
0.09
  9
$DIMJUST
 70
     0
  9
$DIMSD1
 70
     0
  9
$DIMSD2
 70
     0
  9
$DIMTOLJ
 70
     1
  9
$DIMTZIN
 70
     0
  9
$DIMALTZ
 70
     0
  9
$DIMALTTZ
 70
     0
  9
$DIMUPT
 70
     0
  9
$DIMDEC
 70
     4
  9
$DIMTDEC
 70
     4
  9
$DIMALTU
 70
     4
  9
$DIMALTTD
 70
     2
  9
$DIMTXSTY
  7
Standard
  9
$DIMAUNIT
 70
     0
  9
$DIMADEC
 70
     0
  9
$DIMALTRND
 40
0.0
  9
$DIMAZIN
 70
     0
  9
$DIMDSEP
 70
    46
  9
$DIMATFIT
 70
     3
  9
$DIMFRAC
 70
     0
  9
$DIMLDRBLK
  1

  9
$DIMLUNIT
 70
     4
  9
$DIMLWD
 70
    -2
  9
$DIMLWE
 70
    -2
  9
$DIMTMOVE
 70
     0
  9
$LUNITS
 70
     4
  9
$LUPREC
 70
     4
  9
$SKETCHINC
 40
0.1
  9
$FILLETRAD
 40
0.0
  9
$AUNITS
 70
     0
  9
$AUPREC
 70
     0
  9
$MENU
  1
.
  9
$ELEVATION
 40
0.0
  9
$PELEVATION
 40
0.0
  9
$THICKNESS
 40
0.0
  9
$LIMCHECK
 70
     0
  9
$CHAMFERA
 40
0.0
  9
$CHAMFERB
 40
0.0
  9
$CHAMFERC
 40
0.0
  9
$CHAMFERD
 40
0.0
  9
$SKPOLY
 70
     0
  9
$TDCREATE
 40
2456195.353039664
  9
$TDUCREATE
 40
2456195.061372998
  9
$TDUPDATE
 40
2456197.436989711
  9
$TDUUPDATE
 40
2456197.145323044
  9
$TDINDWG
 40
0.2869261458
  9
$TDUSRTIMER
 40
0.2869261458
  9
$USRTIMER
 70
     1
  9
$ANGBASE
 50
0.0
  9
$ANGDIR
 70
     0
  9
$PDMODE
 70
     0
  9
$PDSIZE
 40
0.0
  9
$PLINEWID
 40
0.0
  9
$SPLFRAME
 70
     0
  9
$SPLINETYPE
 70
     6
  9
$SPLINESEGS
 70
     8
  9
$HANDSEED
  5
6FC9
  9
$SURFTAB1
 70
     6
  9
$SURFTAB2
 70
     6
  9
$SURFTYPE
 70
     6
  9
$SURFU
 70
     6
  9
$SURFV
 70
     6
  9
$UCSBASE
  2

  9
$UCSNAME
  2

  9
$UCSORG
 10
0.0
 20
0.0
 30
0.0
  9
$UCSXDIR
 10
1.0
 20
0.0
 30
0.0
  9
$UCSYDIR
 10
0.0
 20
1.0
 30
0.0
  9
$UCSORTHOREF
  2

  9
$UCSORTHOVIEW
 70
     0
  9
$UCSORGTOP
 10
0.0
 20
0.0
 30
0.0
  9
$UCSORGBOTTOM
 10
0.0
 20
0.0
 30
0.0
  9
$UCSORGLEFT
 10
0.0
 20
0.0
 30
0.0
  9
$UCSORGRIGHT
 10
0.0
 20
0.0
 30
0.0
  9
$UCSORGFRONT
 10
0.0
 20
0.0
 30
0.0
  9
$UCSORGBACK
 10
0.0
 20
0.0
 30
0.0
  9
$PUCSBASE
  2

  9
$PUCSNAME
  2

  9
$PUCSORG
 10
0.0
 20
0.0
 30
0.0
  9
$PUCSXDIR
 10
1.0
 20
0.0
 30
0.0
  9
$PUCSYDIR
 10
0.0
 20
1.0
 30
0.0
  9
$PUCSORTHOREF
  2

  9
$PUCSORTHOVIEW
 70
     0
  9
$PUCSORGTOP
 10
0.0
 20
0.0
 30
0.0
  9
$PUCSORGBOTTOM
 10
0.0
 20
0.0
 30
0.0
  9
$PUCSORGLEFT
 10
0.0
 20
0.0
 30
0.0
  9
$PUCSORGRIGHT
 10
0.0
 20
0.0
 30
0.0
  9
$PUCSORGFRONT
 10
0.0
 20
0.0
 30
0.0
  9
$PUCSORGBACK
 10
0.0
 20
0.0
 30
0.0
  9
$USERI1
 70
     0
  9
$USERI2
 70
     0
  9
$USERI3
 70
     0
  9
$USERI4
 70
     0
  9
$USERI5
 70
     0
  9
$USERR1
 40
0.0
  9
$USERR2
 40
0.0
  9
$USERR3
 40
0.0
  9
$USERR4
 40
0.0
  9
$USERR5
 40
0.0
  9
$WORLDVIEW
 70
     1
  9
$SHADEDGE
 70
     3
  9
$SHADEDIF
 70
    70
  9
$TILEMODE
 70
     1
  9
$MAXACTVP
 70
    64
  9
$PINSBASE
 10
0.0
 20
0.0
 30
0.0
  9
$PLIMCHECK
 70
     0
  9
$PEXTMIN
 10
1.000000000000000E+20
 20
1.000000000000000E+20
 30
1.000000000000000E+20
  9
$PEXTMAX
 10
-1.000000000000000E+20
 20
-1.000000000000000E+20
 30
-1.000000000000000E+20
  9
$PLIMMIN
 10
0.0
 20
0.0
  9
$PLIMMAX
 10
12.0
 20
9.0
  9
$UNITMODE
 70
     0
  9
$VISRETAIN
 70
     1
  9
$PLINEGEN
 70
     0
  9
$PSLTSCALE
 70
     1
  9
$TREEDEPTH
 70
  3020
  9
$CMLSTYLE
  2
Standard
  9
$CMLJUST
 70
     0
  9
$CMLSCALE
 40
1.0
  9
$PROXYGRAPHICS
 70
     1
  9
$MEASUREMENT
 70
     0
  9
$CELWEIGHT
370
    -1
  9
$ENDCAPS
280
     0
  9
$JOINSTYLE
280
     0
  9
$LWDISPLAY
290
     0
  9
$INSUNITS
 70
     1
  9
$HYPERLINKBASE
  1

  9
$STYLESHEET
  1

  9
$XEDIT
290
     1
  9
$CEPSNTYPE
380
     0
  9
$PSTYLEMODE
290
     1
  9
$FINGERPRINTGUID
  2
{0680FE68-6438-4259-BC61-6109332EC3D6}
  9
$VERSIONGUID
  2
{A2488CDB-2B6B-498A-9DA9-A0A6AAA4F686}
  9
$EXTNAMES
290
     1
  9
$PSVPSCALE
 40
0.0
  9
$OLESTARTUP
290
     0
  0
ENDSEC
  0
SECTION
  2
CLASSES
  0
CLASS
  1
ACDBDICTIONARYWDFLT
  2
AcDbDictionaryWithDefault
  3
ObjectDBX Classes
 90
        0
280
     0
281
     0
  0
CLASS
  1
MATERIAL
  2
AcDbMaterial
  3
ObjectDBX Classes
 90
     1153
280
     0
281
     0
  0
CLASS
  1
VISUALSTYLE
  2
AcDbVisualStyle
  3
ObjectDBX Classes
 90
     4095
280
     0
281
     0
  0
CLASS
  1
SCALE
  2
AcDbScale
  3
ObjectDBX Classes
 90
     1153
280
     0
281
     0
  0
CLASS
  1
TABLESTYLE
  2
AcDbTableStyle
  3
ObjectDBX Classes
 90
     4095
280
     0
281
     0
  0
CLASS
  1
MLEADERSTYLE
  2
AcDbMLeaderStyle
  3
ACDB_MLEADERSTYLE_CLASS
 90
     4095
280
     0
281
     0
  0
CLASS
  1
RASTERVARIABLES
  2
AcDbRasterVariables
  3
ISM
 90
        0
280
     0
281
     0
  0
CLASS
  1
DICTIONARYVAR
  2
AcDbDictionaryVar
  3
ObjectDBX Classes
 90
        0
280
     0
281
     0
  0
CLASS
  1
SORTENTSTABLE
  2
AcDbSortentsTable
  3
ObjectDBX Classes
 90
        0
280
     0
281
     0
  0
CLASS
  1
SUN
  2
AcDbSun
  3
SCENEOE
 90
     1153
280
     0
281
     0
  0
CLASS
  1
CELLSTYLEMAP
  2
AcDbCellStyleMap
  3
ObjectDBX Classes
 90
     1152
280
     0
281
     0
  0
CLASS
  1
ACDBPLACEHOLDER
  2
AcDbPlaceHolder
  3
ObjectDBX Classes
 90
        0
280
     0
281
     0
  0
CLASS
  1
LAYOUT
  2
AcDbLayout
  3
ObjectDBX Classes
 90
        0
280
     0
281
     0
  0
ENDSEC
  0
SECTION
  2
TABLES
  0
TABLE
  2
VPORT
  5
8
102
{ACAD_XDICTIONARY
360
49E7
102
}
330
0
100
AcDbSymbolTable
 70
     1
  0
VPORT
  5
57
330
8
100
AcDbSymbolTableRecord
100
AcDbViewportTableRecord
  2
*Active
 70
     0
 10
0.0
 20
0.0
 11
1.0
 21
1.0
 12
-161.3376531576671
 22
41.6269926336426
 13
0.0
 23
0.0
 14
1.0
 24
1.0
 15
0.0
 25
0.0
 16
0.0
 26
0.0
 36
1.0
 17
0.0
 27
0.0
 37
0.0
 40
0.3570606085519543
 41
1.791616766467065
 42
50.0
 43
0.0
 44
0.0
 50
0.0
 51
0.0
 71
     0
 72
  1000
 73
     1
 74
     1
 75
     0
 76
     0
 77
     0
 78
     0
281
     0
 65
     1
110
0.0
120
0.0
130
0.0
111
1.0
121
0.0
131
0.0
112
0.0
122
1.0
132
0.0
 79
     0
146
0.0
1001
ACAD_NAV_VCDISPLAY
1070
     3
  0
ENDTAB
  0
TABLE
  2
LTYPE
  5
5
330
0
100
AcDbSymbolTable
 70
     4
  0
LTYPE
  5
5B
330
5
100
AcDbSymbolTableRecord
100
AcDbLinetypeTableRecord
  2
ByBlock
 70
     0
  3

 72
    65
 73
     0
 40
0.0
  0
LTYPE
  5
5C
330
5
100
AcDbSymbolTableRecord
100
AcDbLinetypeTableRecord
  2
ByLayer
 70
     0
  3

 72
    65
 73
     0
 40
0.0
  0
LTYPE
  5
5D
330
5
100
AcDbSymbolTableRecord
100
AcDbLinetypeTableRecord
  2
Continuous
 70
     0
  3
Solid line
 72
    65
 73
     0
 40
0.0
  0
LTYPE
  5
145D
330
5
100
AcDbSymbolTableRecord
100
AcDbLinetypeTableRecord
  2
Dash
 70
     0
  3

 72
    65
 73
     2
 40
0.25
 49
0.125
 74
     0
 49
-0.125
 74
     0
  0
ENDTAB
  0
TABLE
  2
LAYER
  5
2
102
{ACAD_XDICTIONARY
360
F67
102
}
330
0
100
AcDbSymbolTable
 70
     6
  0
LAYER
  5
54
330
2
100
AcDbSymbolTableRecord
100
AcDbLayerTableRecord
  2
0
 70
     0
 62
     7
  6
Continuous
370
    -3
390
F
  0
LAYER
  5
7D
330
2
100
AcDbSymbolTableRecord
100
AcDbLayerTableRecord
  2
S-COLS
 70
     0
 62
     6
  6
Continuous
370
     5
390
F
  0
LAYER
  5
AB
330
2
100
AcDbSymbolTableRecord
100
AcDbLayerTableRecord
  2
A-GENM
 70
     0
 62
     6
  6
Continuous
370
     5
390
F
  0
LAYER
  5
F61
330
2
100
AcDbSymbolTableRecord
100
AcDbLayerTableRecord
  2
A-ANNO-TEXT
 70
     0
 62
     2
  6
Continuous
370
     9
390
F
  0
LAYER
  5
F62
330
2
100
AcDbSymbolTableRecord
100
AcDbLayerTableRecord
  2
Layer1
 70
     0
 62
     7
  6
Continuous
370
    -3
390
F
1001
AcAecLayerStandard
1000

1000

1001
AcCmTransparency
1071
        0
  0
LAYER
  5
145E
330
2
100
AcDbSymbolTableRecord
100
AcDbLayerTableRecord
  2
Hiden
 70
     0
 62
     7
  6
Dash
370
    -3
390
F
1001
AcAecLayerStandard
1000

1000

1001
AcCmTransparency
1071
        0
  0
ENDTAB
  0
TABLE
  2
STYLE
  5
3
330
0
100
AcDbSymbolTable
 70
     2
  0
STYLE
  5
55
330
3
100
AcDbSymbolTableRecord
100
AcDbTextStyleTableRecord
  2
Standard
 70
     0
 40
0.0
 41
1.0
 50
0.0
 71
     0
 42
0.2
  3
txt
  4

  0
STYLE
  5
5A
330
3
100
AcDbSymbolTableRecord
100
AcDbTextStyleTableRecord
  2
Annotative
 70
     0
 40
0.0
 41
1.0
 50
0.0
 71
     0
 42
0.2
  3
txt
  4

1001
AcadAnnotative
1000
AnnotativeData
1002
{
1070
     1
1070
     1
1002
}
  0
ENDTAB
  0
TABLE
  2
VIEW
  5
6
330
0
100
AcDbSymbolTable
 70
     0
  0
ENDTAB
  0
TABLE
  2
UCS
  5
7
330
0
100
AcDbSymbolTable
 70
     0
  0
ENDTAB
  0
TABLE
  2
APPID
  5
9
330
0
100
AcDbSymbolTable
 70
    11
  0
APPID
  5
56
330
9
100
AcDbSymbolTableRecord
100
AcDbRegAppTableRecord
  2
ACAD
 70
     0
  0
APPID
  5
5E
330
9
100
AcDbSymbolTableRecord
100
AcDbRegAppTableRecord
  2
AcadAnnotative
 70
     0
  0
APPID
  5
74
330
9
100
AcDbSymbolTableRecord
100
AcDbRegAppTableRecord
  2
REVIT
 70
     0
  0
APPID
  5
4C0
330
9
100
AcDbSymbolTableRecord
100
AcDbRegAppTableRecord
  2
ACAD_NAV_VCDISPLAY
 70
     0
  0
APPID
  5
F63
330
9
100
AcDbSymbolTableRecord
100
AcDbRegAppTableRecord
  2
AcAecLayerStandard
 70
     0
  0
APPID
  5
F64
330
9
100
AcDbSymbolTableRecord
100
AcDbRegAppTableRecord
  2
AcCmTransparency
 70
     0
  0
APPID
  5
F65
330
9
100
AcDbSymbolTableRecord
100
AcDbRegAppTableRecord
  2
GradientColor1ACI
 70
     0
  0
APPID
  5
F66
330
9
100
AcDbSymbolTableRecord
100
AcDbRegAppTableRecord
  2
GradientColor2ACI
 70
     0
  0
APPID
  5
1434
330
9
100
AcDbSymbolTableRecord
100
AcDbRegAppTableRecord
  2
ACAD_EXEMPT_FROM_CAD_STANDARDS
 70
     0
  0
APPID
  5
4A1D
330
9
100
AcDbSymbolTableRecord
100
AcDbRegAppTableRecord
  2
ACAD_MLEADERVER
 70
     0
  0
APPID
  5
4AEE
330
9
100
AcDbSymbolTableRecord
100
AcDbRegAppTableRecord
  2
_APP0
 70
     0
  0
ENDTAB
  0
TABLE
  2
DIMSTYLE
  5
A
330
0
100
AcDbSymbolTable
 70
     3
100
AcDbDimStyleTable
 71
     1
340
58
  0
DIMSTYLE
105
58
330
A
100
AcDbSymbolTableRecord
100
AcDbDimStyleTableRecord
  2
Standard
 70
     0
340
55
  0
DIMSTYLE
105
59
330
A
100
AcDbSymbolTableRecord
100
AcDbDimStyleTableRecord
  2
Annotative
 70
     0
340
55
1001
AcadAnnotative
1000
AnnotativeData
1002
{
1070
     1
1070
     1
1002
}
  0
ENDTAB
  0
TABLE
  2
BLOCK_RECORD
  5
1
330
0
100
AcDbSymbolTable
 70
    11
  0
BLOCK_RECORD
  5
6C
102
{ACAD_XDICTIONARY
360
4B3
102
}
330
1
100
AcDbSymbolTableRecord
100
AcDbBlockTableRecord
  2
*Model_Space
340
6F
  0
BLOCK_RECORD
  5
68
330
1
100
AcDbSymbolTableRecord
100
AcDbBlockTableRecord
  2
*Paper_Space
340
6B
  0
BLOCK_RECORD
  5
70
330
1
100
AcDbSymbolTableRecord
100
AcDbBlockTableRecord
  2
*Paper_Space0
340
73
  0
BLOCK_RECORD
  5
122
330
1
100
AcDbSymbolTableRecord
100
AcDbBlockTableRecord
  2
FP_1_1-Perspective D77
340
0
  0
BLOCK_RECORD
  5
135
330
1
100
AcDbSymbolTableRecord
100
AcDbBlockTableRecord
  2
FP_1_2-Perspective D77
340
0
  0
BLOCK_RECORD
  5
13F
330
1
100
AcDbSymbolTableRecord
100
AcDbBlockTableRecord
  2
FP_1_3-Perspective D77
340
0
  0
BLOCK_RECORD
  5
148
330
1
100
AcDbSymbolTableRecord
100
AcDbBlockTableRecord
  2
FP_1_4-Perspective D77
340
0
  0
ENDTAB
  0
ENDSEC
  0
SECTION
  2
BLOCKS
  0
BLOCK
  5
6D
330
6C
100
AcDbEntity
  8
0
100
AcDbBlockBegin
  2
*Model_Space
 70
     0
 10
0.0
 20
0.0
 30
0.0
  3
*Model_Space
  1

  0
ENDBLK
  5
6E
330
6C
100
AcDbEntity
  8
0
100
AcDbBlockEnd
  0
BLOCK
  5
69
330
68
100
AcDbEntity
 67
     1
  8
0
100
AcDbBlockBegin
  2
*Paper_Space
 70
     0
 10
0.0
 20
0.0
 30
0.0
  3
*Paper_Space
  1

  0
ENDBLK
  5
6A
330
68
100
AcDbEntity
 67
     1
  8
0
100
AcDbBlockEnd
  0
BLOCK
  5
71
330
70
100
AcDbEntity
 67
     1
  8
0
100
AcDbBlockBegin
  2
*Paper_Space0
 70
     0
 10
0.0
 20
0.0
 30
0.0
  3
*Paper_Space0
  1

  0
ENDBLK
  5
72
330
70
100
AcDbEntity
 67
     1
  8
0
100
AcDbBlockEnd
  0
BLOCK
  5
132
330
122
100
AcDbEntity
  8
0
100
AcDbBlockBegin
  2
FP_1_1-Perspective D77
 70
     0
 10
0.0
 20
0.0
 30
0.0
  3
FP_1_1-Perspective D77
  1

  0
LINE
  5
123
330
122
100
AcDbEntity
  8
S-COLS
100
AcDbLine
 10
-162.3469815257769
 20
41.68767031420578
 30
0.0
 11
-162.3477516779889
 21
41.69206008584067
 31
0.0
1001
REVIT
1002
{
1070
     2
1000
-2001330
1002
}
  0
LINE
  5
124
330
122
100
AcDbEntity
  8
S-COLS
100
AcDbLine
 10
-162.334166323668
 20
41.67035148029907
 30
0.0
 11
-162.3350157512841
 21
41.67526342855094
 31
0.0
1001
REVIT
1002
{
1070
     2
1000
-2001330
1002
}
  0
LINE
  5
125
330
122
100
AcDbEntity
  8
S-COLS
100
AcDbLine
 10
-162.3334163093821
 20
41.69384647220237
 30
0.0
 11
-162.3349014140585
 21
41.70249579205743
 31
0.0
1001
REVIT
1002
{
1070
     2
1000
-2001330
1002
}
  0
LINE
  5
126
330
122
100
AcDbEntity
  8
S-COLS
100
AcDbLine
 10
-162.3350196968803
 20
41.67526875177165
 30
0.0
 11
-162.336895364916
 21
41.67772221709022
 31
0.0
1001
REVIT
1002
{
1070
     2
1000
-2001330
1002
}
  0
LINE
  5
127
330
122
100
AcDbEntity
  8
S-COLS
100
AcDbLine
 10
-162.3368904501041
 20
41.67771561517159
 30
0.0
 11
-162.3412170735281
 21
41.68409903162915
 31
0.0
1001
REVIT
1002
{
1070
     2
1000
-2001330
1002
}
  0
LINE
  5
128
330
122
100
AcDbEntity
  8
S-COLS
100
AcDbLine
 10
-162.3412164364038
 20
41.68409833771428
 30
0.0
 11
-162.3423067595947
 21
41.68979597389643
 31
0.0
1001
REVIT
1002
{
1070
     2
1000
-2001330
1002
}
  0
LINE
  5
129
330
122
100
AcDbEntity
  8
S-COLS
100
AcDbLine
 10
-162.3423086503956
 20
41.66636424262797
 30
0.0
 11
-162.3423086503956
 21
41.66723957240104
 31
0.0
1001
REVIT
1002
{
1070
     2
1000
-2001330
1002
}
  0
LINE
  5
12A
330
122
100
AcDbEntity
  8
S-COLS
100
AcDbLine
 10
-162.3423086503956
 20
41.68979960139078
 30
0.0
 11
-162.3423086503956
 21
41.69543960863822
 31
0.0
1001
REVIT
1002
{
1070
     2
1000
-2001330
1002
}
  0
LINE
  5
12B
330
122
100
AcDbEntity
  8
S-COLS
100
AcDbLine
 10
-162.3423126449191
 20
41.66724580975783
 30
0.0
 11
-162.3458805224977
 21
41.6791102639228
 31
0.0
1001
REVIT
1002
{
1070
     2
1000
-2001330
1002
}
  0
LINE
  5
12C
330
122
100
AcDbEntity
  8
S-COLS
100
AcDbLine
 10
-162.342312717869
 20
41.6954461548071
 30
0.0
 11
-162.3433047448613
 21
41.69878605557443
 31
0.0
1001
REVIT
1002
{
1070
     2
1000
-2001330
1002
}
  0
LINE
  5
12D
330
122
100
AcDbEntity
  8
S-COLS
100
AcDbLine
 10
-162.3307030460337
 20
41.67981438786631
 30
0.0
 11
-162.3323585433753
 21
41.68544600317503
 31
0.0
1001
REVIT
1002
{
1070
     2
1000
-2001330
1002
}
  0
LINE
  5
12E
330
122
100
AcDbEntity
  8
S-COLS
100
AcDbLine
 10
-162.345875298327
 20
41.67909972829127
 30
0.0
 11
-162.3455995231153
 21
41.68489620568841
 31
0.0
1001
REVIT
1002
{
1070
     2
1000
-2001330
1002
}
  0
LINE
  5
12F
330
122
100
AcDbEntity
  8
S-COLS
100
AcDbLine
 10
-162.3323533461866
 20
41.68543526753384
 30
0.0
 11
-162.332088350873
 21
41.69111484697547
 31
0.0
1001
REVIT
1002
{
1070
     2
1000
-2001330
1002
}
  0
LINE
  5
130
330
122
100
AcDbEntity
  8
S-COLS
100
AcDbLine
 10
-162.3455980026011
 20
41.68489620333696
 30
0.0
 11
-162.3469790934616
 21
41.6876677283448
 31
0.0
1001
REVIT
1002
{
1070
     2
1000
-2001330
1002
}
  0
LINE
  5
131
330
122
100
AcDbEntity
  8
S-COLS
100
AcDbLine
 10
-162.3320868146758
 20
41.69111476599892
 30
0.0
 11
-162.3334138770051
 21
41.6938437817704
 31
0.0
1001
REVIT
1002
{
1070
     2
1000
-2001330
1002
}
  0
ENDBLK
  5
133
330
122
100
AcDbEntity
  8
0
100
AcDbBlockEnd
  0
BLOCK
  5
139
330
135
100
AcDbEntity
  8
0
100
AcDbBlockBegin
  2
FP_1_2-Perspective D77
 70
     0
 10
0.0
 20
0.0
 30
0.0
  3
FP_1_2-Perspective D77
  1

  0
LINE
  5
136
330
135
100
AcDbEntity
  8
S-COLS
100
AcDbLine
 10
-162.3321046952987
 20
41.70373068656861
 30
0.0
 11
-162.3337586659711
 21
41.70641290049389
 31
0.0
1001
REVIT
1002
{
1070
     2
1000
-2001330
1002
}
  0
LINE
  5
137
330
135
100
AcDbEntity
  8
S-COLS
100
AcDbLine
 10
-162.3409855076955
 20
41.69981016430952
 30
0.0
 11
-162.3448272407892
 21
41.70289046231054
 31
0.0
1001
REVIT
1002
{
1070
     2
1000
-2001330
1002
}
  0
LINE
  5
138
330
135
100
AcDbEntity
  8
S-COLS
100
AcDbLine
 10
-162.3473419976364
 20
41.69700402910598
 30
0.0
 11
-162.3510874213046
 21
41.70155523405461
 31
0.0
1001
REVIT
1002
{
1070
     2
1000
-2001330
1002
}
  0
ENDBLK
  5
13A
330
135
100
AcDbEntity
  8
0
100
AcDbBlockEnd
  0
BLOCK
  5
145
330
13F
100
AcDbEntity
  8
0
100
AcDbBlockBegin
  2
FP_1_3-Perspective D77
 70
     0
 10
0.0
 20
0.0
 30
0.0
  3
FP_1_3-Perspective D77
  1

  0
LINE
  5
140
330
13F
100
AcDbEntity
  8
S-COLS
100
AcDbLine
 10
-162.327928627152
 20
41.71012700572154
 30
0.0
 11
-162.3305043777484
 21
41.71423097943278
 31
0.0
1001
REVIT
1002
{
1070
     2
1000
-2001330
1002
}
  0
LINE
  5
141
330
13F
100
AcDbEntity
  8
S-COLS
100
AcDbLine
 10
-162.3305246454627
 20
41.71424513058023
 30
0.0
 11
-162.3321106525775
 21
41.71543556629727
 31
0.0
1001
REVIT
1002
{
1070
     2
1000
-2001330
1002
}
  0
LINE
  5
142
330
13F
100
AcDbEntity
  8
S-COLS
100
AcDbLine
 10
-162.3362033614129
 20
41.70653052899122
 30
0.0
 11
-162.3416461814452
 21
41.71085401321433
 31
0.0
1001
REVIT
1002
{
1070
     2
1000
-2001330
1002
}
  0
LINE
  5
143
330
13F
100
AcDbEntity
  8
S-COLS
100
AcDbLine
 10
-162.3416491250548
 20
41.71085694186613
 30
0.0
 11
-162.3419203378268
 21
41.71127611164653
 31
0.0
1001
REVIT
1002
{
1070
     2
1000
-2001330
1002
}
  0
LINE
  5
144
330
13F
100
AcDbEntity
  8
S-COLS
100
AcDbLine
 10
-162.3464772197513
 20
41.7079386370822
 30
0.0
 11
-162.3473435274608
 21
41.7089765973633
 31
0.0
1001
REVIT
1002
{
1070
     2
1000
-2001330
1002
}
  0
ENDBLK
  5
146
330
13F
100
AcDbEntity
  8
0
100
AcDbBlockEnd
  0
BLOCK
  5
159
330
148
100
AcDbEntity
  8
0
100
AcDbBlockBegin
  2
FP_1_4-Perspective D77
 70
     0
 10
0.0
 20
0.0
 30
0.0
  3
FP_1_4-Perspective D77
  1

  0
LINE
  5
149
330
148
100
AcDbEntity
  8
S-COLS
100
AcDbLine
 10
-162.3469815076802
 20
41.7160637502008
 30
0.0
 11
-162.3477516779889
 21
41.72048550282092
 31
0.0
1001
REVIT
1002
{
1070
     2
1000
-2001330
1002
}
  0
LINE
  5
14A
330
148
100
AcDbEntity
  8
S-COLS
100
AcDbLine
 10
-162.333416291994
 20
41.72167843721504
 30
0.0
 11
-162.3350157163423
 21
41.7310597614299
 31
0.0
1001
REVIT
1002
{
1070
     2
1000
-2001330
1002
}
  0
LINE
  5
14B
330
148
100
AcDbEntity
  8
S-COLS
100
AcDbLine
 10
-162.3350201352151
 20
41.73106593683307
 30
0.0
 11
-162.3368958056938
 21
41.73367467491921
 31
0.0
1001
REVIT
1002
{
1070
     2
1000
-2001330
1002
}
  0
LINE
  5
14C
330
148
100
AcDbEntity
  8
S-COLS
100
AcDbLine
 10
-162.3408668022381
 20
41.71172256532967
 30
0.0
 11
-162.3412170049498
 21
41.71225374267699
 31
0.0
1001
REVIT
1002
{
1070
     2
1000
-2001330
1002
}
  0
LINE
  5
14D
330
148
100
AcDbEntity
  8
S-COLS
100
AcDbLine
 10
-162.3368903146865
 20
41.73366687259689
 30
0.0
 11
-162.3412169363714
 21
41.7404084480478
 31
0.0
1001
REVIT
1002
{
1070
     2
1000
-2001330
1002
}
  0
LINE
  5
14E
330
148
100
AcDbEntity
  8
S-COLS
100
AcDbLine
 10
-162.3412164108504
 20
41.71225312282663
 30
0.0
 11
-162.3423067339593
 21
41.7179958877447
 31
0.0
1001
REVIT
1002
{
1070
     2
1000
-2001330
1002
}
  0
LINE
  5
14F
330
148
100
AcDbEntity
  8
S-COLS
100
AcDbLine
 10
-162.3412163852969
 20
41.74040790582355
 30
0.0
 11
-162.3416626308614
 21
41.74277676514654
 31
0.0
1001
REVIT
1002
{
1070
     2
1000
-2001330
1002
}
  0
LINE
  5
150
330
148
100
AcDbEntity
  8
S-COLS
100
AcDbLine
 10
-162.3423086503956
 20
41.71799963762798
 30
0.0
 11
-162.3423086503956
 21
41.72363964487542
 31
0.0
1001
REVIT
1002
{
1070
     2
1000
-2001330
1002
}
  0
LINE
  5
151
330
148
100
AcDbEntity
  8
S-COLS
100
AcDbLine
 10
-162.342312790819
 20
41.72364650589519
 30
0.0
 11
-162.3458806699298
 21
41.73580631668744
 31
0.0
1001
REVIT
1002
{
1070
     2
1000
-2001330
1002
}
  0
LINE
  5
152
330
148
100
AcDbEntity
  8
S-COLS
100
AcDbLine
 10
-162.3307030460337
 20
41.73525353602702
 30
0.0
 11
-162.3323586850433
 21
41.74102268821431
 31
0.0
1001
REVIT
1002
{
1070
     2
1000
-2001330
1002
}
  0
LINE
  5
153
330
148
100
AcDbEntity
  8
S-COLS
100
AcDbLine
 10
-162.345875302108
 20
41.73579507679346
 30
0.0
 11
-162.3456131322119
 21
41.74128388339615
 31
0.0
1001
REVIT
1002
{
1070
     2
1000
-2001330
1002
}
  0
LINE
  5
154
330
148
100
AcDbEntity
  8
S-COLS
100
AcDbLine
 10
-162.3457706227561
 20
41.70964326950815
 30
0.0
 11
-162.3455995250043
 21
41.71323246539818
 31
0.0
1001
REVIT
1002
{
1070
     2
1000
-2001330
1002
}
  0
LINE
  5
155
330
148
100
AcDbEntity
  8
S-COLS
100
AcDbLine
 10
-162.3323533498198
 20
41.74101125483796
 30
0.0
 11
-162.3321014216092
 21
41.7463899153616
 31
0.0
1001
REVIT
1002
{
1070
     2
1000
-2001330
1002
}
  0
LINE
  5
156
330
148
100
AcDbEntity
  8
S-COLS
100
AcDbLine
 10
-162.3322527563308
 20
41.71537505415866
 30
0.0
 11
-162.3320883526881
 21
41.71889187227423
 31
0.0
1001
REVIT
1002
{
1070
     2
1000
-2001330
1002
}
  0
LINE
  5
157
330
148
100
AcDbEntity
  8
S-COLS
100
AcDbLine
 10
-162.3455979163392
 20
41.71323221466688
 30
0.0
 11
-162.3469790068514
 21
41.71606090301049
 31
0.0
1001
REVIT
1002
{
1070
     2
1000
-2001330
1002
}
  0
LINE
  5
158
330
148
100
AcDbEntity
  8
S-COLS
100
AcDbLine
 10
-162.3320867317853
 20
41.71889154521431
 30
0.0
 11
-162.3334137937864
 21
41.72167548807841
 31
0.0
1001
REVIT
1002
{
1070
     2
1000
-2001330
1002
}
  0
ENDBLK
  5
15A
330
148
100
AcDbEntity
  8
0
100
AcDbBlockEnd
  0
ENDSEC
  0
SECTION
  2
ENTITIES
  0
MTEXT
  5
57BC
102
{ACAD_XDICTIONARY
360
6F53
102
}
330
6C
100
AcDbEntity
  8
A-ANNO-TEXT
 62
     7
100
AcDbMText
 10
-161.2927600651415
 20
41.53480940010575
 30
0.0
 40
0.0096
 41
0.3079696359949211
 71
     2
 72
     1
  1
\A1;{\fArial|b1|i0|c0|p34;CCTQ-SDS2.5}
 73
     2
 44
0.9385317878468564
1001
REVIT
1002
{
1070
     1
1000
332280
1002
}
1002
{
1070
     5
1000
332282
1002
}
1002
{
1070
     2
1000
-2000300
1002
}
1001
ACAD
1000
MTEXTBEGIN
1070
    73
1070
     2
1070
    44
1040
0.9385317878468564
1070
    74
1070
     0
1000
MTEXTEND
1000
ACAD_MTEXT_DEFINED_HEIGHT_BEGIN
1070
    46
1040
0.0182129625928056
1000
ACAD_MTEXT_DEFINED_HEIGHT_END
  0
LINE
  5
6000
330
6C
100
AcDbEntity
  8
0
 62
     0
370
     0
100
AcDbLine
 10
-161.4040785627437
 20
41.68755684997402
 30
0.0
 11
-161.4056943297867
 21
41.68686724726033
 31
0.0
  0
LINE
  5
6002
330
6C
100
AcDbEntity
  8
0
 62
     0
370
     0
100
AcDbLine
 10
-161.4049189512441
 20
41.68554465534169
 30
0.0
 11
-161.4056943297867
 21
41.68686724726033
 31
0.0
  0
LINE
  5
6003
330
6C
100
AcDbEntity
  8
0
 62
     0
370
     0
100
AcDbLine
 10
-161.4040785627437
 20
41.68755684997402
 30
0.0
 11
-161.4027542199102
 21
41.68529786931769
 31
0.0
  0
LINE
  5
6004
330
6C
100
AcDbEntity
  8
0
 62
     0
370
     0
100
AcDbLine
 10
-161.4027542199102
 20
41.68529786931769
 30
0.0
 11
-161.4032836519072
 21
41.68484671632551
 31
0.0
  0
ELLIPSE
  5
6006
330
6C
100
AcDbEntity
  8
0
 62
     0
370
     0
100
AcDbEllipse
 10
-161.3979797703302
 20
41.6907165179242
 30
0.0
 11
0.000703491808752
 21
-0.0016483097543659
 31
0.0
210
0.0
220
0.0
230
1.0
 40
0.6394705929763119
 41
4.014903605017491
 42
5.409874355751572
  0
ELLIPSE
  5
6007
330
6C
100
AcDbEntity
  8
0
 62
     0
370
     0
100
AcDbEllipse
 10
-161.3995955373732
 20
41.69002691521052
 30
0.0
 11
-0.0007034918087519
 21
0.001648309754366
 31
0.0
210
0.0
220
0.0
230
1.0
 40
0.6394705929763075
 41
0.0
 42
6.283185307179586
  0
ELLIPSE
  5
6009
330
6C
100
AcDbEntity
  8
0
 62
     0
370
     0
100
AcDbEllipse
 10
-161.4426080130265
 20
41.68512414166849
 30
0.0
 11
-0.0007034918087519
 21
0.001648309754366
 31
0.0
210
0.0
220
0.0
230
1.0
 40
0.6394705929763081
 41
0.0
 42
6.283185307179586
  0
ELLIPSE
  5
600A
330
6C
100
AcDbEntity
  8
0
 62
     0
370
     0
100
AcDbEllipse
 10
-161.4409922459835
 20
41.68581374438217
 30
0.0
 11
0.000703491808752
 21
-0.0016483097543659
 31
0.0
210
0.0
220
0.0
230
1.0
 40
0.6394705929763084
 41
4.014903605017495
 42
5.409874355751571
  0
LINE
  5
600E
330
6C
100
AcDbEntity
  8
Hiden
 48
0.2
100
AcDbLine
 10
-161.4024855345326
 20
41.68483956271067
 30
0.0
 11
-161.4028762126156
 21
41.68467282291531
 31
0.0
  0
LINE
  5
600F
330
6C
100
AcDbEntity
  8
Hiden
 48
0.2
100
AcDbLine
 10
-161.4027542199102
 20
41.68529786931769
 30
0.0
 11
-161.4024855345326
 21
41.68483956271067
 31
0.0
  0
LINE
  5
6040
330
6C
100
AcDbEntity
  8
0
 62
     0
370
     0
100
AcDbLine
 10
-161.3950456014043
 20
41.55218482465104
 30
0.0
 11
-161.3934298343613
 21
41.55149522193736
 31
0.0
  0
LINE
  5
6041
330
6C
100
AcDbEntity
  8
0
 62
     0
370
     0
100
AcDbLine
 10
-161.3934298343613
 20
41.55149522193736
 30
0.0
 11
-161.3950228625723
 21
41.54877793467401
 31
0.0
  0
LINE
  5
6042
330
6C
100
AcDbEntity
  8
0
 62
     0
370
     0
100
AcDbLine
 10
-161.3963699442377
 20
41.54992584399471
 30
0.0
 11
-161.3950456014043
 21
41.55218482465104
 31
0.0
  0
LINE
  5
6043
330
6C
100
AcDbEntity
  8
0
 62
     0
370
     0
100
AcDbLine
 10
-161.3950228625723
 20
41.54877793467401
 30
0.0
 11
-161.3963699442377
 21
41.54992584399471
 31
0.0
  0
LINE
  5
6047
330
6C
100
AcDbEntity
  8
Hiden
 48
0.2
100
AcDbLine
 10
-161.3966386296153
 20
41.54946753738769
 30
0.0
 11
-161.3963699442377
 21
41.54992584399471
 31
0.0
  0
LINE
  5
6048
330
6C
100
AcDbEntity
  8
Hiden
 48
0.2
100
AcDbLine
 10
-161.3966386296153
 20
41.54946753738769
 30
0.0
 11
-161.3950228625723
 21
41.54877793467401
 31
0.0
  0
LINE
  5
6050
330
6C
100
AcDbEntity
  8
Hiden
 48
0.2
100
AcDbLine
 10
-161.3679882773574
 20
41.52606811592678
 30
0.0
 11
-161.3696040444004
 21
41.52675771864046
 31
0.0
  0
LINE
  5
6051
330
6C
100
AcDbEntity
  8
Hiden
 48
0.2
100
AcDbLine
 10
-161.3696040444004
 20
41.52675771864046
 30
0.0
 11
-161.3693353590229
 21
41.52721602524748
 31
0.0
  0
LINE
  5
6054
330
6C
100
AcDbEntity
  8
0
 62
     0
370
     0
100
AcDbLine
 10
-161.3679882773574
 20
41.52606811592678
 30
0.0
 11
-161.3693353590229
 21
41.52721602524749
 31
0.0
  0
LINE
  5
6055
330
6C
100
AcDbEntity
  8
0
 62
     0
370
     0
100
AcDbLine
 10
-161.3693353590229
 20
41.52721602524748
 30
0.0
 11
-161.3680110161894
 21
41.52947500590381
 31
0.0
  0
LINE
  5
6056
330
6C
100
AcDbEntity
  8
0
 62
     0
370
     0
100
AcDbLine
 10
-161.3663952491464
 20
41.52878540319012
 30
0.0
 11
-161.3679882773574
 21
41.52606811592678
 31
0.0
  0
LINE
  5
6057
330
6C
100
AcDbEntity
  8
0
 62
     0
370
     0
100
AcDbLine
 10
-161.3663952491464
 20
41.52878540319012
 30
0.0
 11
-161.3680110161894
 21
41.52947500590381
 31
0.0
  0
LINE
  5
605B
330
6C
100
AcDbEntity
  8
0
 62
     0
370
     0
100
AcDbLine
 10
-161.3261562284681
 20
41.65260616231079
 30
0.0
 11
-161.3275033101335
 21
41.65145825299005
 31
0.0
  0
LINE
  5
605C
330
6C
100
AcDbEntity
  8
0
 62
     0
370
     0
100
AcDbLine
 10
-161.3275033101335
 20
41.65145825299005
 30
0.0
 11
-161.3290963383445
 21
41.6541755402534
 31
0.0
  0
LINE
  5
605D
330
6C
100
AcDbEntity
  8
0
 62
     0
370
     0
100
AcDbLine
 10
-161.3274805713015
 20
41.65486514296709
 30
0.0
 11
-161.3261562284681
 21
41.65260616231076
 31
0.0
  0
LINE
  5
605E
330
6C
100
AcDbEntity
  8
0
 62
     0
370
     0
100
AcDbLine
 10
-161.3274805713015
 20
41.65486514296709
 30
0.0
 11
-161.3290963383445
 21
41.6541755402534
 31
0.0
  0
LINE
  5
6065
330
6C
100
AcDbEntity
  8
Hiden
 48
0.2
100
AcDbLine
 10
-161.3258875430905
 20
41.65214785570374
 30
0.0
 11
-161.3275033101335
 21
41.65145825299005
 31
0.0
  0
LINE
  5
6066
330
6C
100
AcDbEntity
  8
Hiden
 48
0.2
100
AcDbLine
 10
-161.3261562284681
 20
41.65260616231076
 30
0.0
 11
-161.3258875430905
 21
41.65214785570374
 31
0.0
  0
LINE
  5
606A
330
6C
100
AcDbEntity
  8
Hiden
 48
0.2
100
AcDbLine
 10
-161.3556514115139
 20
41.63617165659007
 30
0.0
 11
-161.3553827261364
 21
41.63571334998304
 31
0.0
  0
LINE
  5
606B
330
6C
100
AcDbEntity
  8
Hiden
 48
0.2
100
AcDbLine
 10
-161.3569984931794
 20
41.63502374726935
 30
0.0
 11
-161.3553827261364
 21
41.63571334998304
 31
0.0
  0
LINE
  5
6071
330
6C
100
AcDbEntity
  8
0
 62
     0
370
     0
100
AcDbLine
 10
-161.3585915213904
 20
41.6377410345327
 30
0.0
 11
-161.3569757543473
 21
41.63843063724639
 31
0.0
  0
LINE
  5
6072
330
6C
100
AcDbEntity
  8
0
 62
     0
370
     0
100
AcDbLine
 10
-161.3569757543473
 20
41.63843063724639
 30
0.0
 11
-161.3556514115139
 21
41.63617165659007
 31
0.0
  0
LINE
  5
6073
330
6C
100
AcDbEntity
  8
0
 62
     0
370
     0
100
AcDbLine
 10
-161.3569984931794
 20
41.63502374726935
 30
0.0
 11
-161.3585915213904
 21
41.6377410345327
 31
0.0
  0
LINE
  5
6074
330
6C
100
AcDbEntity
  8
0
 62
     0
370
     0
100
AcDbLine
 10
-161.3556514115139
 20
41.63617165659009
 30
0.0
 11
-161.3569984931794
 21
41.63502374726935
 31
0.0
  0
LINE
  5
6078
330
6C
100
AcDbEntity
  8
0
 62
     0
370
     0
100
AcDbLine
 10
-161.437702572262
 20
41.66287669508014
 30
0.0
 11
-161.436086805219
 21
41.66218709236646
 31
0.0
  0
LINE
  5
6079
330
6C
100
AcDbEntity
  8
0
 62
     0
370
     0
100
AcDbLine
 10
-161.436086805219
 20
41.66218709236646
 30
0.0
 11
-161.43767983343
 21
41.65946980510311
 31
0.0
  0
LINE
  5
607A
330
6C
100
AcDbEntity
  8
0
 62
     0
370
     0
100
AcDbLine
 10
-161.4390269150954
 20
41.66061771442381
 30
0.0
 11
-161.437702572262
 21
41.66287669508014
 31
0.0
  0
LINE
  5
607B
330
6C
100
AcDbEntity
  8
0
 62
     0
370
     0
100
AcDbLine
 10
-161.43767983343
 20
41.65946980510311
 30
0.0
 11
-161.4390269150955
 21
41.66061771442381
 31
0.0
  0
LINE
  5
607F
330
6C
100
AcDbEntity
  8
Hiden
 48
0.2
100
AcDbLine
 10
-161.439295600473
 20
41.66015940781679
 30
0.0
 11
-161.4390269150954
 21
41.66061771442381
 31
0.0
  0
LINE
  5
6080
330
6C
100
AcDbEntity
  8
Hiden
 48
0.2
100
AcDbLine
 10
-161.439295600473
 20
41.66015940781679
 30
0.0
 11
-161.43767983343
 21
41.65946980510311
 31
0.0
  0
LINE
  5
6088
330
6C
100
AcDbEntity
  8
Hiden
 48
0.2
100
AcDbLine
 10
-161.4143800761626
 20
41.63991687415405
 30
0.0
 11
-161.4159958432056
 21
41.64060647686773
 31
0.0
  0
LINE
  5
6089
330
6C
100
AcDbEntity
  8
Hiden
 48
0.2
100
AcDbLine
 10
-161.4159958432056
 20
41.64060647686773
 30
0.0
 11
-161.415727157828
 21
41.64106478347476
 31
0.0
  0
LINE
  5
608C
330
6C
100
AcDbEntity
  8
0
 62
     0
370
     0
100
AcDbLine
 10
-161.4143800761626
 20
41.63991687415405
 30
0.0
 11
-161.415727157828
 21
41.64106478347475
 31
0.0
  0
LINE
  5
608D
330
6C
100
AcDbEntity
  8
0
 62
     0
370
     0
100
AcDbLine
 10
-161.415727157828
 20
41.64106478347476
 30
0.0
 11
-161.4144028149946
 21
41.64332376413109
 31
0.0
  0
LINE
  5
608E
330
6C
100
AcDbEntity
  8
0
 62
     0
370
     0
100
AcDbLine
 10
-161.4127870479516
 20
41.64263416141739
 30
0.0
 11
-161.4143800761626
 21
41.63991687415405
 31
0.0
  0
LINE
  5
608F
330
6C
100
AcDbEntity
  8
0
 62
     0
370
     0
100
AcDbLine
 10
-161.4127870479516
 20
41.64263416141739
 30
0.0
 11
-161.4144028149946
 21
41.64332376413109
 31
0.0
  0
ELLIPSE
  5
6092
330
6C
100
AcDbEntity
  8
0
 62
     0
370
     0
100
AcDbEllipse
 10
-161.4438013646755
 20
41.61417289631565
 30
0.0
 11
0.0007034918087518
 21
0.001648309754366
 31
0.0
210
0.0
220
0.0
230
0.9999999999999998
 40
0.6394705929763085
 41
4.014903605017537
 42
5.409874355751741
  0
ELLIPSE
  5
6093
330
6C
100
AcDbEntity
  8
0
 62
     0
370
     0
100
AcDbEllipse
 10
-161.4421855976325
 20
41.61348329360197
 30
0.0
 11
-0.000703491808752
 21
-0.001648309754366
 31
0.0
210
0.0
220
0.0
230
1.0
 40
0.6394705929763084
 41
0.0
 42
6.283185307179586
  0
ELLIPSE
  5
6094
330
6C
100
AcDbEntity
  8
0
 62
     0
370
     0
100
AcDbEllipse
 10
-161.4347898362705
 20
41.63530680173116
 30
0.0
 11
0.0007034918087518
 21
0.001648309754366
 31
0.0
210
0.0
220
0.0
230
1.0
 40
0.6394705929763082
 41
4.014903605017537
 42
5.409874355751741
  0
ELLIPSE
  5
6095
330
6C
100
AcDbEntity
  8
0
 62
     0
370
     0
100
AcDbEllipse
 10
-161.4331740692275
 20
41.63461719901748
 30
0.0
 11
-0.000703491808752
 21
-0.001648309754366
 31
0.0
210
0.0
220
0.0
230
1.0
 40
0.6394705929763081
 41
0.0
 42
6.283185307179586
  0
ELLIPSE
  5
6096
330
6C
100
AcDbEntity
  8
0
 62
     0
370
     0
100
AcDbEllipse
 10
-161.4438013646755
 20
41.64874854079211
 30
0.0
 11
0.0007034918087518
 21
0.001648309754366
 31
0.0
210
0.0
220
0.0
230
1.0
 40
0.6394705929763083
 41
4.014903605017538
 42
5.409874355751741
  0
ELLIPSE
  5
6097
330
6C
100
AcDbEntity
  8
0
 62
     0
370
     0
100
AcDbEllipse
 10
-161.4421855976325
 20
41.64805893807842
 30
0.0
 11
-0.0007034918087519
 21
-0.001648309754366
 31
0.0
210
0.0
220
0.0
230
1.0
 40
0.6394705929763082
 41
0.0
 42
6.283185307179586
  0
ELLIPSE
  5
6098
330
6C
100
AcDbEntity
  8
0
 62
     0
370
     0
100
AcDbEllipse
 10
-161.4347898362705
 20
41.6698824462076
 30
0.0
 11
0.0007034918087518
 21
0.001648309754366
 31
0.0
210
0.0
220
0.0
230
0.9999999999999998
 40
0.6394705929763085
 41
4.014903605017527
 42
5.40987435575178
  0
ELLIPSE
  5
6099
330
6C
100
AcDbEntity
  8
0
 62
     0
370
     0
100
AcDbEllipse
 10
-161.4331740692275
 20
41.66919284349392
 30
0.0
 11
-0.0007034918087519
 21
-0.001648309754366
 31
0.0
210
0.0
220
0.0
230
1.0
 40
0.6394705929763085
 41
0.0
 42
6.283185307179586
  0
ELLIPSE
  5
60A6
330
6C
100
AcDbEntity
  8
0
 62
     0
370
     0
100
AcDbEllipse
 10
-161.4053685477576
 20
41.60546209483158
 30
0.0
 11
-0.000703491808752
 21
-0.001648309754366
 31
0.0
210
0.0
220
0.0
230
1.0
 40
0.6394705929763043
 41
0.0
 42
6.283185307179586
  0
ELLIPSE
  5
60A7
330
6C
100
AcDbEntity
  8
0
 62
     0
370
     0
100
AcDbEllipse
 10
-161.4069843148006
 20
41.60615169754527
 30
0.0
 11
0.0007034918087519
 21
0.0016483097543661
 31
0.0
210
0.0
220
0.0
230
0.9999999999999998
 40
0.6394705929763111
 41
4.01490360501753
 42
5.409874355751671
  0
ELLIPSE
  5
60A8
330
6C
100
AcDbEntity
  8
0
 62
     0
370
     0
100
AcDbEllipse
 10
-161.4143800761626
 20
41.61890383389252
 30
0.0
 11
-0.000703491808752
 21
-0.001648309754366
 31
0.0
210
0.0
220
0.0
230
1.0
 40
0.6394705929763043
 41
0.0
 42
6.283185307179586
  0
ELLIPSE
  5
60A9
330
6C
100
AcDbEntity
  8
0
 62
     0
370
     0
100
AcDbEllipse
 10
-161.4159958432056
 20
41.61959343660621
 30
0.0
 11
0.0007034918087519
 21
0.0016483097543661
 31
0.0
210
0.0
220
0.0
230
1.0
 40
0.6394705929763055
 41
4.014903605017554
 42
5.409874355751675
  0
ELLIPSE
  5
60AA
330
6C
100
AcDbEntity
  8
0
 62
     0
370
     0
100
AcDbEllipse
 10
-161.4053685477576
 20
41.64003773930803
 30
0.0
 11
-0.000703491808752
 21
-0.001648309754366
 31
0.0
210
0.0
220
0.0
230
1.0
 40
0.6394705929763043
 41
0.0
 42
6.283185307179586
  0
ELLIPSE
  5
60AB
330
6C
100
AcDbEntity
  8
0
 62
     0
370
     0
100
AcDbEllipse
 10
-161.4069843148006
 20
41.64072734202171
 30
0.0
 11
0.0007034918087519
 21
0.0016483097543661
 31
0.0
210
0.0
220
0.0
230
0.9999999999999998
 40
0.6394705929763082
 41
4.014903605017548
 42
5.409874355751673
  0
ELLIPSE
  5
60AC
330
6C
100
AcDbEntity
  8
0
 62
     0
370
     0
100
AcDbEllipse
 10
-161.4143800761626
 20
41.65347947836896
 30
0.0
 11
-0.000703491808752
 21
-0.001648309754366
 31
0.0
210
0.0
220
0.0
230
1.0
 40
0.6394705929763043
 41
0.0
 42
6.283185307179586
  0
ELLIPSE
  5
60AD
330
6C
100
AcDbEntity
  8
0
 62
     0
370
     0
100
AcDbEllipse
 10
-161.4159958432056
 20
41.65416908108265
 30
0.0
 11
0.0007034918087519
 21
0.0016483097543661
 31
0.0
210
0.0
220
0.0
230
1.0
 40
0.6394705929763082
 41
4.014903605017536
 42
5.409874355751712
  0
ELLIPSE
  5
60BA
330
6C
100
AcDbEntity
  8
0
 62
     0
370
     0
100
AcDbEllipse
 10
-161.3713676005093
 20
41.56538074267909
 30
0.0
 11
-0.0007034918087519
 21
-0.001648309754366
 31
0.0
210
0.0
220
0.0
230
1.0
 40
0.6394705929763084
 41
0.0
 42
6.283185307179586
  0
ELLIPSE
  5
60BB
330
6C
100
AcDbEntity
  8
0
 62
     0
370
     0
100
AcDbEllipse
 10
-161.3729833675523
 20
41.56607034539277
 30
0.0
 11
0.0007034918087518
 21
0.001648309754366
 31
0.0
210
0.0
220
0.0
230
1.0
 40
0.6394705929763082
 41
4.014903605017538
 42
5.409874355751702
  0
ELLIPSE
  5
60BC
330
6C
100
AcDbEntity
  8
0
 62
     0
370
     0
100
AcDbEllipse
 10
-161.3578503079019
 20
41.55980473410117
 30
0.0
 11
-0.0007034918087519
 21
-0.001648309754366
 31
0.0
210
0.0
220
0.0
230
1.0
 40
0.6394705929763084
 41
0.0
 42
6.283185307179586
  0
ELLIPSE
  5
60BD
330
6C
100
AcDbEntity
  8
0
 62
     0
370
     0
100
AcDbEllipse
 10
-161.3594660749449
 20
41.56049433681486
 30
0.0
 11
0.0007034918087518
 21
0.001648309754366
 31
0.0
210
0.0
220
0.0
230
1.0
 40
0.6394705929763084
 41
4.014903605017536
 42
5.409874355751702
  0
ELLIPSE
  5
60BE
330
6C
100
AcDbEntity
  8
0
 62
     0
370
     0
100
AcDbEllipse
 10
-161.3691147184081
 20
41.54347191530408
 30
0.0
 11
-0.0007034918087519
 21
-0.001648309754366
 31
0.0
210
0.0
220
0.0
230
1.0
 40
0.6394705929763084
 41
0.0
 42
6.283185307179586
  0
ELLIPSE
  5
60BF
330
6C
100
AcDbEntity
  8
0
 62
     0
370
     0
100
AcDbEllipse
 10
-161.3707304854511
 20
41.54416151801778
 30
0.0
 11
0.0007034918087518
 21
0.001648309754366
 31
0.0
210
0.0
220
0.0
230
0.9999999999999998
 40
0.6394705929763084
 41
4.014903605017538
 42
5.409874355751702
  0
ELLIPSE
  5
60C0
330
6C
100
AcDbEntity
  8
0
 62
     0
370
     0
100
AcDbEllipse
 10
-161.3601031900031
 20
41.53579278365589
 30
0.0
 11
-0.0007034918087519
 21
-0.001648309754366
 31
0.0
210
0.0
220
0.0
230
1.0
 40
0.6394705929763084
 41
0.0
 42
6.283185307179586
  0
ELLIPSE
  5
60C1
330
6C
100
AcDbEntity
  8
0
 62
     0
370
     0
100
AcDbEllipse
 10
-161.3617189570461
 20
41.53648238636958
 30
0.0
 11
0.0007034918087518
 21
0.001648309754366
 31
0.0
210
0.0
220
0.0
230
0.9999999999999998
 40
0.6394705929763084
 41
4.014903605017538
 42
5.409874355751702
  0
ELLIPSE
  5
60C2
330
6C
100
AcDbEntity
  8
0
 62
     0
370
     0
100
AcDbEllipse
 10
-161.3713676005093
 20
41.5194599648588
 30
0.0
 11
-0.0007034918087519
 21
-0.001648309754366
 31
0.0
210
0.0
220
0.0
230
1.0
 40
0.6394705929763084
 41
0.0
 42
6.283185307179586
  0
ELLIPSE
  5
60C3
330
6C
100
AcDbEntity
  8
0
 62
     0
370
     0
100
AcDbEllipse
 10
-161.3729833675523
 20
41.52014956757248
 30
0.0
 11
0.0007034918087518
 21
0.001648309754366
 31
0.0
210
0.0
220
0.0
230
0.9999999999999996
 40
0.6394705929763084
 41
4.014903605017536
 42
5.409874355751702
  0
ELLIPSE
  5
60C4
330
6C
100
AcDbEntity
  8
0
 62
     0
370
     0
100
AcDbEllipse
 10
-161.3578503079019
 20
41.51370387479924
 30
0.0
 11
-0.0007034918087519
 21
-0.001648309754366
 31
0.0
210
0.0
220
0.0
230
1.0
 40
0.6394705929763084
 41
0.0
 42
6.283185307179586
  0
ELLIPSE
  5
60C5
330
6C
100
AcDbEntity
  8
0
 62
     0
370
     0
100
AcDbEllipse
 10
-161.3594660749449
 20
41.51439347751293
 30
0.0
 11
0.0007034918087518
 21
0.0016483097543661
 31
0.0
210
0.0
220
0.0
230
0.9999999999999998
 40
0.6394705929763083
 41
4.014903605017536
 42
5.409874355751663
  0
ELLIPSE
  5
60C6
330
6C
100
AcDbEntity
  8
0
 62
     0
370
     0
100
AcDbEllipse
 10
-161.369114718408
 20
41.49737105600215
 30
0.0
 11
-0.0007034918087519
 21
-0.001648309754366
 31
0.0
210
0.0
220
0.0
230
1.0
 40
0.6394705929763084
 41
0.0
 42
6.283185307179586
  0
ELLIPSE
  5
60C7
330
6C
100
AcDbEntity
  8
0
 62
     0
370
     0
100
AcDbEllipse
 10
-161.3707304854511
 20
41.49806065871586
 30
0.0
 11
0.0007034918087518
 21
0.001648309754366
 31
0.0
210
0.0
220
0.0
230
0.9999999999999996
 40
0.6394705929763084
 41
4.014903605017536
 42
5.409874355751702
  0
ELLIPSE
  5
60DD
330
6C
100
AcDbEntity
  8
0
 62
     0
370
     0
100
AcDbEllipse
 10
-161.3932593064635
 20
41.58626228207352
 30
0.0
 11
0.0006644089304878
 21
0.0015567369902346
 31
0.0
210
0.0
220
0.0
230
0.9999999999999996
 40
0.6394705929763084
 41
4.088385195464182
 42
5.336392765304778
  0
ELLIPSE
  5
60DE
330
6C
100
AcDbEntity
  8
0
 62
     0
370
     0
100
AcDbEllipse
 10
-161.3916435394204
 20
41.58557267935983
 30
0.0
 11
-0.0006644089304879
 21
-0.0015567369902345
 31
0.0
210
0.0
220
0.0
230
1.0
 40
0.6394705929763083
 41
0.0
 42
6.283185307179586
  0
ELLIPSE
  5
60DF
330
6C
100
AcDbEntity
  8
0
 62
     0
370
     0
100
AcDbEllipse
 10
-161.4067765990709
 20
41.56914802396375
 30
0.0
 11
0.0006644089304878
 21
0.0015567369902346
 31
0.0
210
0.0
220
0.0
230
1.0
 40
0.6394705929763082
 41
4.088385195464182
 42
5.336392765304778
  0
ELLIPSE
  5
60E0
330
6C
100
AcDbEntity
  8
0
 62
     0
370
     0
100
AcDbEllipse
 10
-161.4051608320279
 20
41.56845842125007
 30
0.0
 11
-0.0006644089304879
 21
-0.0015567369902345
 31
0.0
210
0.0
220
0.0
230
1.0
 40
0.6394705929763083
 41
0.0
 42
6.283185307179586
  0
ELLIPSE
  5
60E1
330
6C
100
AcDbEntity
  8
0
 62
     0
370
     0
100
AcDbEllipse
 10
-161.3955121885647
 20
41.56243041310989
 30
0.0
 11
0.0006644089304878
 21
0.0015567369902346
 31
0.0
210
0.0
220
0.0
230
1.0
 40
0.6394705929763082
 41
4.088385195464182
 42
5.336392765304778
  0
ELLIPSE
  5
60E2
330
6C
100
AcDbEntity
  8
0
 62
     0
370
     0
100
AcDbEllipse
 10
-161.3938964215217
 20
41.56174081039619
 30
0.0
 11
-0.0006644089304879
 21
-0.0015567369902345
 31
0.0
210
0.0
220
0.0
230
1.0
 40
0.6394705929763083
 41
0.0
 42
6.283185307179586
  0
ELLIPSE
  5
60E3
330
6C
100
AcDbEntity
  8
0
 62
     0
370
     0
100
AcDbEllipse
 10
-161.4045237169697
 20
41.54705911510712
 30
0.0
 11
0.0006644089304878
 21
0.0015567369902346
 31
0.0
210
0.0
220
0.0
230
1.0
 40
0.6394705929763084
 41
4.088385195464182
 42
5.336392765304778
  0
ELLIPSE
  5
60E4
330
6C
100
AcDbEntity
  8
0
 62
     0
370
     0
100
AcDbEllipse
 10
-161.4029079499266
 20
41.54636951239342
 30
0.0
 11
-0.0006644089304879
 21
-0.0015567369902345
 31
0.0
210
0.0
220
0.0
230
1.0
 40
0.6394705929763083
 41
0.0
 42
6.283185307179586
  0
ELLIPSE
  5
60E5
330
6C
100
AcDbEntity
  8
0
 62
     0
370
     0
100
AcDbEllipse
 10
-161.3932593064634
 20
41.54034150425323
 30
0.0
 11
0.0006644089304878
 21
0.0015567369902346
 31
0.0
210
0.0
220
0.0
230
1.0
 40
0.6394705929763084
 41
4.088385195464184
 42
5.336392765304779
  0
ELLIPSE
  5
60E6
330
6C
100
AcDbEntity
  8
0
 62
     0
370
     0
100
AcDbEllipse
 10
-161.3916435394204
 20
41.53965190153956
 30
0.0
 11
-0.0006644089304879
 21
-0.0015567369902345
 31
0.0
210
0.0
220
0.0
230
1.0
 40
0.6394705929763083
 41
0.0
 42
6.283185307179586
  0
ELLIPSE
  5
60E7
330
6C
100
AcDbEntity
  8
0
 62
     0
370
     0
100
AcDbEllipse
 10
-161.4067765990709
 20
41.52304716466183
 30
0.0
 11
0.0006644089304878
 21
0.0015567369902346
 31
0.0
210
0.0
220
0.0
230
1.0
 40
0.6394705929763084
 41
4.088385195464184
 42
5.336392765304779
  0
ELLIPSE
  5
60E8
330
6C
100
AcDbEntity
  8
0
 62
     0
370
     0
100
AcDbEllipse
 10
-161.4051608320279
 20
41.52235756194815
 30
0.0
 11
-0.0006644089304879
 21
-0.0015567369902345
 31
0.0
210
0.0
220
0.0
230
1.0
 40
0.6394705929763083
 41
0.0
 42
6.283185307179586
  0
ELLIPSE
  5
60E9
330
6C
100
AcDbEntity
  8
0
 62
     0
370
     0
100
AcDbEllipse
 10
-161.3955121885647
 20
41.51632955380796
 30
0.0
 11
0.0006644089304878
 21
0.0015567369902346
 31
0.0
210
0.0
220
0.0
230
1.0
 40
0.6394705929763084
 41
4.088385195464184
 42
5.336392765304779
  0
ELLIPSE
  5
60EA
330
6C
100
AcDbEntity
  8
0
 62
     0
370
     0
100
AcDbEllipse
 10
-161.3938964215217
 20
41.51563995109427
 30
0.0
 11
-0.0006644089304879
 21
-0.0015567369902345
 31
0.0
210
0.0
220
0.0
230
1.0
 40
0.6394705929763083
 41
0.0
 42
6.283185307179586
  0
LINE
  5
6100
330
6C
100
AcDbEntity
  8
0
 62
     0
370
     0
100
AcDbLine
 10
-161.4145138973594
 20
41.68826053336551
 30
0.0
 11
-161.4505600109792
 21
41.67287620065636
 31
0.0
  0
LINE
  5
6101
330
6C
100
AcDbEntity
  8
0
 62
     0
370
     0
100
AcDbLine
 10
-161.4505600109792
 20
41.67287620065636
 30
0.0
 11
-161.4489442439362
 21
41.67218659794268
 31
0.0
  0
LINE
  5
6102
330
6C
100
AcDbEntity
  8
0
 62
     0
370
     0
100
AcDbLine
 10
-161.4489442439362
 20
41.67218659794268
 30
0.0
 11
-161.4128981303164
 21
41.68757093065181
 31
0.0
  0
LINE
  5
6103
330
6C
100
AcDbEntity
  8
0
 62
     0
370
     0
100
AcDbLine
 10
-161.3867083758894
 20
41.67639325141783
 30
0.0
 11
-161.4227544895093
 21
41.66100891870868
 31
0.0
  0
LINE
  5
6104
330
6C
100
AcDbEntity
  8
0
 62
     0
370
     0
100
AcDbLine
 10
-161.4211387224663
 20
41.660319315995
 30
0.0
 11
-161.4227544895093
 21
41.66100891870868
 31
0.0
  0
LINE
  5
6105
330
6C
100
AcDbEntity
  8
0
 62
     0
370
     0
100
AcDbLine
 10
-161.3850926088464
 20
41.67570364870414
 30
0.0
 11
-161.4211387224663
 21
41.660319315995
 31
0.0
  0
LINE
  5
6106
330
6C
100
AcDbEntity
  8
0
 62
     0
370
     0
100
AcDbLine
 10
-161.4227544895093
 20
41.66100891870868
 30
0.0
 11
-161.4227544895093
 21
41.58141290382021
 31
0.0
  0
LINE
  5
6107
330
6C
100
AcDbEntity
  8
0
 62
     0
370
     0
100
AcDbLine
 10
-161.4211387224663
 20
41.58072330110651
 30
0.0
 11
-161.4211387224663
 21
41.660319315995
 31
0.0
  0
LINE
  5
6108
330
6C
100
AcDbEntity
  8
0
 62
     0
370
     0
100
AcDbLine
 10
-161.4250073716105
 20
41.57949312090815
 30
0.0
 11
-161.446691361835
 21
41.58874775855351
 31
0.0
  0
LINE
  5
610A
330
6C
100
AcDbEntity
  8
0
 62
     0
370
     0
100
AcDbLine
 10
-161.4128981303164
 20
41.68757093065181
 30
0.0
 11
-161.4128981303164
 21
41.66521557218384
 31
0.0
  0
LINE
  5
610B
330
6C
100
AcDbEntity
  8
0
 62
     0
370
     0
100
AcDbLine
 10
-161.4489442439362
 20
41.59259058305418
 30
0.0
 11
-161.4489442439362
 21
41.67218659794268
 31
0.0
  0
LINE
  5
610C
330
6C
100
AcDbEntity
  8
0
 62
     0
370
     0
100
AcDbLine
 10
-161.446691361835
 20
41.58668128753529
 30
0.0
 11
-161.4250073716105
 21
41.57742664988995
 31
0.0
  0
LINE
  5
610D
330
6C
100
AcDbEntity
  8
0
 62
     0
370
     0
100
AcDbLine
 10
-161.4505600109792
 20
41.67287620065636
 30
0.0
 11
-161.4505600109792
 21
41.59328018576788
 31
0.0
  0
ELLIPSE
  5
6122
330
6C
100
AcDbEntity
  8
0
 62
     0
370
     0
100
AcDbEllipse
 10
-161.321381778888
 20
41.6061613442026
 30
0.0
 11
0.000703491808752
 21
-0.0016483097543659
 31
0.0
210
0.0
220
0.0
230
1.0
 40
0.6394705929763123
 41
4.014903605017373
 42
5.409874355751572
  0
ELLIPSE
  5
6123
330
6C
100
AcDbEntity
  8
0
 62
     0
370
     0
100
AcDbEllipse
 10
-161.3229975459311
 20
41.60547174148892
 30
0.0
 11
-0.0007034918087519
 21
0.001648309754366
 31
0.0
210
0.0
220
0.0
230
1.0
 40
0.6394705929763075
 41
0.0
 42
6.283185307179586
  0
ELLIPSE
  5
6124
330
6C
100
AcDbEntity
  8
0
 62
     0
370
     0
100
AcDbEllipse
 10
-161.330393307293
 20
41.62729524961811
 30
0.0
 11
0.000703491808752
 21
-0.0016483097543659
 31
0.0
210
0.0
220
0.0
230
1.0
 40
0.6394705929763122
 41
4.014903605017373
 42
5.409874355751572
  0
ELLIPSE
  5
6125
330
6C
100
AcDbEntity
  8
0
 62
     0
370
     0
100
AcDbEllipse
 10
-161.332009074336
 20
41.62660564690443
 30
0.0
 11
-0.0007034918087519
 21
0.001648309754366
 31
0.0
210
0.0
220
0.0
230
1.0
 40
0.6394705929763075
 41
0.0
 42
6.283185307179586
  0
ELLIPSE
  5
6126
330
6C
100
AcDbEntity
  8
0
 62
     0
370
     0
100
AcDbEllipse
 10
-161.3213817788881
 20
41.64073698867905
 30
0.0
 11
0.000703491808752
 21
-0.0016483097543659
 31
0.0
210
0.0
220
0.0
230
0.9999999999999998
 40
0.6394705929763122
 41
4.014903605017373
 42
5.409874355751572
  0
ELLIPSE
  5
6127
330
6C
100
AcDbEntity
  8
0
 62
     0
370
     0
100
AcDbEllipse
 10
-161.322997545931
 20
41.64004738596537
 30
0.0
 11
-0.0007034918087519
 21
0.001648309754366
 31
0.0
210
0.0
220
0.0
230
1.0
 40
0.6394705929763075
 41
0.0
 42
6.283185307179586
  0
ELLIPSE
  5
6128
330
6C
100
AcDbEntity
  8
0
 62
     0
370
     0
100
AcDbEllipse
 10
-161.330393307293
 20
41.66187089409457
 30
0.0
 11
0.000703491808752
 21
-0.0016483097543659
 31
0.0
210
0.0
220
0.0
230
1.0
 40
0.6394705929763119
 41
4.014903605017491
 42
5.409874355751572
  0
ELLIPSE
  5
6129
330
6C
100
AcDbEntity
  8
0
 62
     0
370
     0
100
AcDbEllipse
 10
-161.332009074336
 20
41.66118129138087
 30
0.0
 11
-0.0007034918087519
 21
0.001648309754366
 31
0.0
210
0.0
220
0.0
230
1.0
 40
0.6394705929763075
 41
0.0
 42
6.283185307179586
  0
ELLIPSE
  5
612A
330
6C
100
AcDbEntity
  8
0
 62
     0
370
     0
100
AcDbEllipse
 10
-161.3660100215843
 20
41.60056896794689
 30
0.0
 11
-0.0007034918087519
 21
0.001648309754366
 31
0.0
210
0.0
220
0.0
230
1.0
 40
0.6394705929763081
 41
0.0
 42
6.283185307179586
  0
ELLIPSE
  5
612B
330
6C
100
AcDbEntity
  8
0
 62
     0
370
     0
100
AcDbEllipse
 10
-161.3643942545413
 20
41.60125857066057
 30
0.0
 11
0.000703491808752
 21
-0.0016483097543659
 31
0.0
210
0.0
220
0.0
230
1.0
 40
0.6394705929763082
 41
4.014903605017378
 42
5.409874355751571
  0
ELLIPSE
  5
612C
330
6C
100
AcDbEntity
  8
0
 62
     0
370
     0
100
AcDbEllipse
 10
-161.3569984931794
 20
41.61401070700782
 30
0.0
 11
-0.0007034918087519
 21
0.001648309754366
 31
0.0
210
0.0
220
0.0
230
1.0
 40
0.6394705929763081
 41
0.0
 42
6.283185307179586
  0
ELLIPSE
  5
612D
330
6C
100
AcDbEntity
  8
0
 62
     0
370
     0
100
AcDbEllipse
 10
-161.3553827261364
 20
41.61470030972151
 30
0.0
 11
0.000703491808752
 21
-0.0016483097543659
 31
0.0
210
0.0
220
0.0
230
1.0
 40
0.6394705929763083
 41
4.014903605017378
 42
5.409874355751571
  0
ELLIPSE
  5
612E
330
6C
100
AcDbEntity
  8
0
 62
     0
370
     0
100
AcDbEllipse
 10
-161.3660100215843
 20
41.63514461242335
 30
0.0
 11
-0.0007034918087519
 21
0.001648309754366
 31
0.0
210
0.0
220
0.0
230
1.0
 40
0.6394705929763081
 41
0.0
 42
6.283185307179586
  0
ELLIPSE
  5
612F
330
6C
100
AcDbEntity
  8
0
 62
     0
370
     0
100
AcDbEllipse
 10
-161.3643942545413
 20
41.63583421513702
 30
0.0
 11
0.000703491808752
 21
-0.0016483097543659
 31
0.0
210
0.0
220
0.0
230
1.0
 40
0.6394705929763085
 41
4.014903605017378
 42
5.409874355751571
  0
ELLIPSE
  5
6130
330
6C
100
AcDbEntity
  8
0
 62
     0
370
     0
100
AcDbEllipse
 10
-161.3569984931794
 20
41.64858635148426
 30
0.0
 11
-0.0007034918087519
 21
0.001648309754366
 31
0.0
210
0.0
220
0.0
230
1.0
 40
0.6394705929763081
 41
0.0
 42
6.283185307179586
  0
ELLIPSE
  5
6131
330
6C
100
AcDbEntity
  8
0
 62
     0
370
     0
100
AcDbEllipse
 10
-161.3553827261364
 20
41.64927595419796
 30
0.0
 11
0.000703491808752
 21
-0.0016483097543659
 31
0.0
210
0.0
220
0.0
230
1.0
 40
0.6394705929763083
 41
4.014903605017378
 42
5.409874355751571
  0
LINE
  5
613E
330
6C
100
AcDbEntity
  8
0
 62
     0
370
     0
100
AcDbLine
 10
-161.3724940415599
 20
41.49124665628782
 30
0.0
 11
-161.3758733647117
 21
41.4941263306559
 31
0.0
  0
LINE
  5
613F
330
6C
100
AcDbEntity
  8
0
 62
     0
370
     0
100
AcDbLine
 10
-161.3758733647117
 20
41.4941263306559
 30
0.0
 11
-161.3774891317548
 21
41.49481593336958
 31
0.0
  0
LINE
  5
6140
330
6C
100
AcDbEntity
  8
0
 62
     0
370
     0
100
AcDbLine
 10
-161.3774891317548
 20
41.49481593336958
 30
0.0
 11
-161.3741098086029
 21
41.49193625900152
 31
0.0
  0
LINE
  5
6141
330
6C
100
AcDbEntity
  8
0
 62
     0
370
     0
100
AcDbLine
 10
-161.3741098086029
 20
41.49193625900152
 30
0.0
 11
-161.3724940415599
 21
41.49124665628782
 31
0.0
  0
LINE
  5
6142
330
6C
100
AcDbEntity
  8
0
 62
     0
370
     0
100
AcDbLine
 10
-161.3533445436994
 20
41.50374153859911
 30
0.0
 11
-161.3567238668512
 21
41.49797730184808
 31
0.0
  0
LINE
  5
6143
330
6C
100
AcDbEntity
  8
0
 62
     0
370
     0
100
AcDbLine
 10
-161.387137775218
 20
41.51816435051393
 30
0.0
 11
-161.3905170983698
 21
41.5124001137629
 31
0.0
  0
LINE
  5
6144
330
6C
100
AcDbEntity
  8
0
 62
     0
370
     0
100
AcDbLine
 10
-161.4112823632734
 20
41.50923874528441
 30
0.0
 11
-161.4079030401215
 21
41.50635907091634
 31
0.0
  0
LINE
  5
6145
330
6C
100
AcDbEntity
  8
0
 62
     0
370
     0
100
AcDbLine
 10
-161.4062872730785
 20
41.50566946820265
 30
0.0
 11
-161.4096665962303
 21
41.50854914257072
 31
0.0
  0
LINE
  5
6146
330
6C
100
AcDbEntity
  8
0
 62
     0
370
     0
100
AcDbLine
 10
-161.4096665962303
 20
41.50854914257072
 30
0.0
 11
-161.4112823632734
 21
41.50923874528441
 31
0.0
  0
LINE
  5
6147
330
6C
100
AcDbEntity
  8
0
 62
     0
370
     0
100
AcDbLine
 10
-161.4079030401215
 20
41.50635907091634
 30
0.0
 11
-161.4062872730785
 21
41.50566946820265
 31
0.0
  0
LINE
  5
614F
330
6C
100
AcDbEntity
  8
Hiden
 48
0.2
100
AcDbLine
 10
-161.3774891317548
 20
41.58881846678992
 30
0.0
 11
-161.3774891317548
 21
41.58553407433447
 31
0.0
  0
LINE
  5
6150
330
6C
100
AcDbEntity
  8
Hiden
 48
0.2
100
AcDbLine
 10
-161.3549603107424
 20
41.59843367473313
 30
0.0
 11
-161.3774891317548
 21
41.58881846678992
 31
0.0
  0
LINE
  5
6152
330
6C
100
AcDbEntity
  8
Hiden
 48
0.2
100
AcDbLine
 10
-161.3533445436994
 20
41.59774407201945
 30
0.0
 11
-161.3549603107424
 21
41.59843367473313
 31
0.0
  0
LINE
  5
6153
330
6C
100
AcDbEntity
  8
Hiden
 48
0.2
100
AcDbLine
 10
-161.3533445436994
 20
41.59774407201945
 30
0.0
 11
-161.3533445436994
 21
41.57522926367757
 31
0.0
  0
LINE
  5
6154
330
6C
100
AcDbEntity
  8
Hiden
 48
0.2
100
AcDbLine
 10
-161.3758733647117
 20
41.58484447162079
 30
0.0
 11
-161.3758733647117
 21
41.58812886407623
 31
0.0
  0
LINE
  5
6155
330
6C
100
AcDbEntity
  8
Hiden
 48
0.2
100
AcDbLine
 10
-161.3774891317548
 20
41.58881846678992
 30
0.0
 11
-161.3758733647117
 21
41.58812886407623
 31
0.0
  0
LINE
  5
6156
330
6C
100
AcDbEntity
  8
Hiden
 48
0.2
100
AcDbLine
 10
-161.3758733647117
 20
41.58812886407623
 30
0.0
 11
-161.3533445436994
 21
41.59774407201945
 31
0.0
  0
LINE
  5
6157
330
6C
100
AcDbEntity
  8
0
 62
     0
370
     0
100
AcDbLine
 10
-161.3567238668512
 20
41.49797730184808
 30
0.0
 11
-161.3724940415599
 21
41.49124665628782
 31
0.0
  0
LINE
  5
6158
330
6C
100
AcDbEntity
  8
0
 62
     0
370
     0
100
AcDbLine
 10
-161.3774891317548
 20
41.58553407433447
 30
0.0
 11
-161.3774891317548
 21
41.49481593336958
 31
0.0
  0
LINE
  5
6159
330
6C
100
AcDbEntity
  8
0
 62
     0
370
     0
100
AcDbLine
 10
-161.3533445436994
 20
41.57522926367757
 30
0.0
 11
-161.3533445436994
 21
41.50374153859911
 31
0.0
  0
LINE
  5
615A
330
6C
100
AcDbEntity
  8
0
 62
     0
370
     0
100
AcDbLine
 10
-161.3758733647117
 20
41.4941263306559
 30
0.0
 11
-161.3758733647117
 21
41.58484447162079
 31
0.0
  0
LINE
  5
615C
330
6C
100
AcDbEntity
  8
Hiden
 48
0.2
100
AcDbLine
 10
-161.387137775218
 20
41.61216688393427
 30
0.0
 11
-161.388753542261
 21
41.61285648664796
 31
0.0
  0
LINE
  5
615D
330
6C
100
AcDbEntity
  8
Hiden
 48
0.2
100
AcDbLine
 10
-161.387137775218
 20
41.61216688393427
 30
0.0
 11
-161.387137775218
 21
41.5896520755924
 31
0.0
  0
LINE
  5
615F
330
6C
100
AcDbEntity
  8
Hiden
 48
0.2
100
AcDbLine
 10
-161.4112823632734
 20
41.60324127870474
 30
0.0
 11
-161.4112823632734
 21
41.58228364630417
 31
0.0
  0
LINE
  5
6160
330
6C
100
AcDbEntity
  8
Hiden
 48
0.2
100
AcDbLine
 10
-161.388753542261
 20
41.61285648664796
 30
0.0
 11
-161.4112823632734
 21
41.60324127870474
 31
0.0
  0
LINE
  5
6161
330
6C
100
AcDbEntity
  8
Hiden
 48
0.2
100
AcDbLine
 10
-161.4096665962303
 20
41.58297324901787
 30
0.0
 11
-161.4096665962303
 21
41.60255167599106
 31
0.0
  0
LINE
  5
6162
330
6C
100
AcDbEntity
  8
Hiden
 48
0.2
100
AcDbLine
 10
-161.4112823632734
 20
41.60324127870474
 30
0.0
 11
-161.4096665962303
 21
41.60255167599106
 31
0.0
  0
LINE
  5
6163
330
6C
100
AcDbEntity
  8
Hiden
 48
0.2
100
AcDbLine
 10
-161.4096665962303
 20
41.60255167599106
 30
0.0
 11
-161.387137775218
 21
41.61216688393427
 31
0.0
  0
LINE
  5
6164
330
6C
100
AcDbEntity
  8
0
 62
     0
370
     0
100
AcDbLine
 10
-161.387137775218
 20
41.5896520755924
 30
0.0
 11
-161.387137775218
 21
41.51816435051393
 31
0.0
  0
LINE
  5
6165
330
6C
100
AcDbEntity
  8
0
 62
     0
370
     0
100
AcDbLine
 10
-161.4112823632734
 20
41.58228364630417
 30
0.0
 11
-161.4112823632734
 21
41.50923874528441
 31
0.0
  0
LINE
  5
6166
330
6C
100
AcDbEntity
  8
0
 62
     0
370
     0
100
AcDbLine
 10
-161.4096665962303
 20
41.50854914257072
 30
0.0
 11
-161.4096665962303
 21
41.58297324901787
 31
0.0
  0
LINE
  5
6167
330
6C
100
AcDbEntity
  8
0
 62
     0
370
     0
100
AcDbLine
 10
-161.3905170983698
 20
41.5124001137629
 30
0.0
 11
-161.4062872730785
 21
41.50566946820265
 31
0.0
  0
ELLIPSE
  5
616F
330
6C
100
AcDbEntity
  8
0
 62
     0
370
     0
100
AcDbEllipse
 10
-161.4250073716105
 20
41.58237442461452
 30
0.0
 11
0.0021476197937579
 21
-0.0050319600181285
 31
0.0
210
0.0
220
0.0
230
1.0
 40
0.6394705929763083
 41
5.694660897741526
 42
7.265457224536413
  0
ELLIPSE
  5
6170
330
6C
100
AcDbEntity
  8
0
 62
     0
370
     0
100
AcDbEllipse
 10
-161.3889612579907
 20
41.59775875732367
 30
0.0
 11
0.0021476197937579
 21
-0.0050319600181284
 31
0.0
210
0.0
220
0.0
230
1.0
 40
0.6394705929763083
 41
0.0
 42
0.9822719173568401
  0
ELLIPSE
  5
6171
330
6C
100
AcDbEntity
  8
0
 62
     0
370
     0
100
AcDbEllipse
 10
-161.4250073716105
 20
41.58237442461452
 30
0.0
 11
0.0012506521044479
 21
-0.0029303284522062
 31
0.0
210
0.0
220
0.0
230
1.0
 40
0.6394705929763081
 41
5.694660897741526
 42
7.265457224536422
  0
ELLIPSE
  5
6172
330
6C
100
AcDbEntity
  8
0
 62
     0
370
     0
100
AcDbEllipse
 10
-161.446691361835
 20
41.59162906225986
 30
0.0
 11
0.0021476197937582
 21
-0.0050319600181283
 31
0.0
210
0.0
220
0.0
230
1.0
 40
0.6394705929763081
 41
4.123864570946482
 42
5.694660897741337
  0
ELLIPSE
  5
6173
330
6C
100
AcDbEntity
  8
0
 62
     0
370
     0
100
AcDbEllipse
 10
-161.446691361835
 20
41.59162906225986
 30
0.0
 11
-0.0012506521044477
 21
0.0029303284522063
 31
0.0
210
0.0
220
0.0
230
1.0
 40
0.6394705929763082
 41
0.9822719173570106
 42
2.553068244152147
  0
LINE
  5
6174
330
6C
100
AcDbEntity
  8
0
 62
     0
370
     0
100
AcDbLine
 10
-161.3868136381969
 20
41.59272679730554
 30
0.0
 11
-161.4228597518168
 21
41.57734246459639
 31
0.0
  0
LINE
  5
6175
330
6C
100
AcDbEntity
  8
0
 62
     0
370
     0
100
AcDbLine
 10
-161.4145138973594
 20
41.68826053336551
 30
0.0
 11
-161.4493666593302
 21
41.7031355485099
 31
0.0
  0
LINE
  5
6176
330
6C
100
AcDbEntity
  8
0
 62
     0
370
     0
100
AcDbLine
 10
-161.4493666593302
 20
41.7031355485099
 30
0.0
 11
-161.4493666593302
 21
41.67338551822111
 31
0.0
  0
LINE
  5
6177
330
6C
100
AcDbEntity
  8
0
 62
     0
370
     0
100
AcDbLine
 10
-161.3867083758894
 20
41.67639325141783
 30
0.0
 11
-161.4128981303164
 21
41.68757093065181
 31
0.0
  0
LINE
  5
6178
330
6C
100
AcDbEntity
  8
0
 62
     0
370
     0
100
AcDbLine
 10
-161.3502398468756
 20
41.66082863355975
 30
0.0
 11
-161.3502398468756
 21
41.57655050014842
 31
0.0
  0
LINE
  5
6179
330
6C
100
AcDbEntity
  8
0
 62
     0
370
     0
100
AcDbLine
 10
-161.3502398468756
 20
41.66082863355975
 30
0.0
 11
-161.3850926088464
 21
41.67570364870414
 31
0.0
  0
LINE
  5
617A
330
6C
100
AcDbEntity
  8
0
 62
     0
370
     0
100
AcDbLine
 10
-161.4153657120818
 20
41.69000328980521
 30
0.0
 11
-161.4153657120818
 21
41.71764701264195
 31
0.0
  0
LINE
  5
617B
330
6C
100
AcDbEntity
  8
0
 62
     0
370
     0
100
AcDbLine
 10
-161.4137499450388
 20
41.71833661535564
 30
0.0
 11
-161.4153657120818
 21
41.71764701264195
 31
0.0
  0
LINE
  5
617C
330
6C
100
AcDbEntity
  8
0
 62
     0
370
     0
100
AcDbLine
 10
-161.3162388996273
 20
41.6753400976918
 30
0.0
 11
-161.3162388996273
 21
41.59106196428047
 31
0.0
  0
LINE
  5
617D
330
6C
100
AcDbEntity
  8
0
 62
     0
370
     0
100
AcDbLine
 10
-161.4153657120818
 20
41.71764701264195
 30
0.0
 11
-161.3162388996273
 21
41.6753400976918
 31
0.0
  0
LINE
  5
617E
330
6C
100
AcDbEntity
  8
0
 62
     0
370
     0
100
AcDbLine
 10
-161.3146231325843
 20
41.59175156699416
 30
0.0
 11
-161.3146231325843
 21
41.6760297004055
 31
0.0
  0
LINE
  5
617F
330
6C
100
AcDbEntity
  8
0
 62
     0
370
     0
100
AcDbLine
 10
-161.3146231325843
 20
41.6760297004055
 30
0.0
 11
-161.3162388996273
 21
41.6753400976918
 31
0.0
  0
LINE
  5
6180
330
6C
100
AcDbEntity
  8
0
 62
     0
370
     0
100
AcDbLine
 10
-161.3184917817286
 20
41.58721913977977
 30
0.0
 11
-161.3463711977314
 21
41.57532031995006
 31
0.0
  0
LINE
  5
6181
330
6C
100
AcDbEntity
  8
0
 62
     0
370
     0
100
AcDbLine
 10
-161.3146231325843
 20
41.6760297004055
 30
0.0
 11
-161.4137499450388
 21
41.71833661535564
 31
0.0
  0
LINE
  5
6182
330
6C
100
AcDbEntity
  8
0
 62
     0
370
     0
100
AcDbLine
 10
-161.3486240798326
 20
41.66151823627344
 30
0.0
 11
-161.4477508922872
 21
41.70382515122358
 31
0.0
  0
LINE
  5
6183
330
6C
100
AcDbEntity
  8
0
 62
     0
370
     0
100
AcDbLine
 10
-161.3486240798326
 20
41.5772401028621
 30
0.0
 11
-161.3486240798326
 21
41.66151823627344
 31
0.0
  0
LINE
  5
6184
330
6C
100
AcDbEntity
  8
0
 62
     0
370
     0
100
AcDbLine
 10
-161.3463711977314
 20
41.57325384893185
 30
0.0
 11
-161.3184917817285
 21
41.58515266876157
 31
0.0
  0
LINE
  5
6185
330
6C
100
AcDbEntity
  8
0
 62
     0
370
     0
100
AcDbLine
 10
-161.4493666593302
 20
41.7031355485099
 30
0.0
 11
-161.4477508922872
 21
41.70382515122358
 31
0.0
  0
LINE
  5
6186
330
6C
100
AcDbEntity
  8
0
 62
     0
370
     0
100
AcDbLine
 10
-161.3502398468756
 20
41.66082863355975
 30
0.0
 11
-161.3486240798326
 21
41.66151823627344
 31
0.0
  0
ELLIPSE
  5
618D
330
6C
100
AcDbEntity
  8
0
 62
     0
370
     0
100
AcDbEllipse
 10
-161.3184917817286
 20
41.59010044348615
 30
0.0
 11
0.0021476197937576
 21
0.0050319600181286
 31
0.0
210
0.0
220
0.0
230
1.0
 40
0.6394705929763083
 41
3.730117063027535
 42
5.300913389822562
  0
ELLIPSE
  5
618E
330
6C
100
AcDbEntity
  8
0
 62
     0
370
     0
100
AcDbEllipse
 10
-161.3184917817286
 20
41.59010044348615
 30
0.0
 11
-0.0012506521044481
 21
-0.0029303284522061
 31
0.0
210
0.0
220
0.0
230
1.0
 40
0.6394705929763081
 41
0.5885244094382483
 42
2.159320736233063
  0
ELLIPSE
  5
618F
330
6C
100
AcDbEntity
  8
0
 62
     0
370
     0
100
AcDbEllipse
 10
-161.3463711977314
 20
41.57820162365642
 30
0.0
 11
-0.0021476197937579
 21
-0.0050319600181285
 31
0.0
210
0.0
220
0.0
230
1.0
 40
0.6394705929763083
 41
5.300913389822733
 42
6.871709716617646
  0
ELLIPSE
  5
6190
330
6C
100
AcDbEntity
  8
0
 62
     0
370
     0
100
AcDbEllipse
 10
-161.3463711977314
 20
41.57820162365642
 30
0.0
 11
-0.0012506521044479
 21
-0.0029303284522062
 31
0.0
210
0.0
220
0.0
230
1.0
 40
0.6394705929763082
 41
5.300913389822749
 42
6.871709716617646
  0
LINE
  5
6192
330
6C
100
AcDbEntity
  8
0
 62
     0
370
     0
100
AcDbLine
 10
-161.3905778053593
 20
41.59112026627673
 30
0.0
 11
-161.3485188175251
 21
41.57316966363829
 31
0.0
  0
LINE
  5
619B
330
6C
100
AcDbEntity
  8
0
100
AcDbLine
 10
-161.3867083758894
 20
41.67639325141783
 30
0.0
 11
-161.3850926088464
 21
41.67570364870414
 31
0.0
  0
LINE
  5
619C
330
6C
100
AcDbEntity
  8
0
100
AcDbLine
 10
-161.4128981303164
 20
41.68757093065181
 30
0.0
 11
-161.4145138973594
 21
41.68826053336551
 31
0.0
  0
LINE
  5
6556
330
6C
100
AcDbEntity
  8
0
100
AcDbLine
 10
-161.3162388996273
 20
41.67641034242733
 30
0.0
 11
-161.3162388996273
 21
41.73206489380442
 31
0.0
  0
LINE
  5
6557
330
6C
100
AcDbEntity
  8
0
100
AcDbLine
 10
-161.4153657120818
 20
41.71871725737748
 30
0.0
 11
-161.4153657120818
 21
41.77437180875457
 31
0.0
  0
LINE
  5
6558
330
6C
100
AcDbEntity
  8
0
 62
     0
370
     0
100
AcDbLine
 10
-161.4153657120818
 20
41.76514266655438
 30
0.0
 11
-161.3728863722327
 21
41.74701265940863
 31
0.0
  0
HATCH
  5
6559
330
6C
100
AcDbEntity
  8
Layer1
100
AcDbHatch
 10
0.0
 20
0.0
 30
0.0
210
0.0
220
0.0
230
1.0
  2
SOLID
 70
     1
 71
     0
 91
        1
 92
        1
 93
        3
 72
     1
 10
-161.4110278115726
 20
41.76138195467281
 11
-161.4153657120817
 21
41.76514266655424
 72
     1
 10
-161.4153657120817
 20
41.76514266655424
 11
-161.4110278115726
 21
41.76484255179463
 72
     1
 10
-161.4110278115726
 20
41.76484255179463
 11
-161.4110278115726
 21
41.76138195467281
 97
        0
 75
     1
 76
     1
 98
        1
 10
-161.4123452613023
 20
41.76336187519626
1001
GradientColor1ACI
1070
     5
1001
GradientColor2ACI
1070
     2
1001
ACAD
1010
0.0
1020
0.0
1030
0.0
  0
LINE
  5
655A
330
6C
100
AcDbEntity
  8
Layer1
100
AcDbLine
 10
-161.4110278115726
 20
41.7613819546728
 30
0.0
 11
-161.4153657120817
 21
41.76514266655424
 31
0.0
  0
LINE
  5
655B
330
6C
100
AcDbEntity
  8
0
100
AcDbLine
 10
-161.4110278115726
 20
41.76484255179466
 30
0.0
 11
-161.4153657120817
 21
41.76514266655424
 31
0.0
  0
LINE
  5
655C
330
6C
100
AcDbEntity
  8
0
100
AcDbLine
 10
-161.4110278115726
 20
41.7613819546728
 30
0.0
 11
-161.4110278115726
 21
41.76484255179466
 31
0.0
  0
HATCH
  5
6562
330
6C
100
AcDbEntity
  8
Layer1
100
AcDbHatch
 10
0.0
 20
0.0
 30
0.0
210
0.0
220
0.0
230
1.0
  2
SOLID
 70
     1
 71
     0
 91
        1
 92
        1
 93
        3
 72
     1
 10
-161.3205768001364
 20
41.72659646348566
 11
-161.3162388996273
 21
41.72283575160423
 72
     1
 10
-161.3162388996273
 20
41.72283575160423
 11
-161.3205768001364
 21
41.72313586636383
 72
     1
 10
-161.3205768001364
 20
41.72313586636383
 11
-161.3205768001364
 21
41.72659646348566
 97
        0
 75
     1
 76
     1
 98
        1
 10
-161.3192593504067
 20
41.72461654296221
1001
GradientColor1ACI
1070
     5
1001
GradientColor2ACI
1070
     2
1001
ACAD
1010
0.0
1020
0.0
1030
0.0
  0
LINE
  5
6563
330
6C
100
AcDbEntity
  8
Layer1
100
AcDbLine
 10
-161.3205768001364
 20
41.72659646348567
 30
0.0
 11
-161.3162388996273
 21
41.72283575160423
 31
0.0
  0
LINE
  5
6564
330
6C
100
AcDbEntity
  8
0
100
AcDbLine
 10
-161.3205768001364
 20
41.72313586636381
 30
0.0
 11
-161.3162388996273
 21
41.72283575160423
 31
0.0
  0
LINE
  5
6565
330
6C
100
AcDbEntity
  8
0
100
AcDbLine
 10
-161.3205768001364
 20
41.72659646348567
 30
0.0
 11
-161.3205768001364
 21
41.72313586636381
 31
0.0
  0
MTEXT
  5
6566
102
{ACAD_XDICTIONARY
360
6F55
102
}
330
6C
100
AcDbEntity
  8
A-ANNO-TEXT
 62
     7
100
AcDbMText
 10
-161.3640767034951
 20
41.7492924005736
 30
0.0
 40
0.006912
 41
0.0122763356372089
 71
     2
 72
     1
  1
\A1;{\fArial|b0|i0|c0|p34;L}
 73
     2
 44
0.9385317878468564
1001
REVIT
1002
{
1070
     1
1000
332280
1002
}
1002
{
1070
     5
1000
332282
1002
}
1002
{
1070
     2
1000
-2000300
1002
}
1001
ACAD
1000
MTEXTBEGIN
1070
    73
1070
     2
1070
    44
1040
0.9385317878468564
1070
    74
1070
     0
1000
MTEXTEND
1000
ACAD_MTEXT_DEFINED_HEIGHT_BEGIN
1070
    46
1040
0.014367046408497
1000
ACAD_MTEXT_DEFINED_HEIGHT_END
  0
LINE
  5
6568
330
6C
100
AcDbEntity
  8
0
 62
     0
370
     0
100
AcDbLine
 10
-161.3635467100348
 20
41.7430265300811
 30
0.0
 11
-161.3162388996273
 21
41.72283575160423
 31
0.0
  0
LINE
  5
6569
330
6C
100
AcDbEntity
  8
0
 62
     0
370
     0
100
AcDbLine
 10
-161.3138011653487
 20
41.67638051263344
 30
0.0
 11
-161.2867437165814
 21
41.68792852023522
 31
0.0
  0
LINE
  5
656A
330
6C
100
AcDbEntity
  8
0
 62
     0
370
     0
100
AcDbLine
 10
-161.3162388996273
 20
41.5881806605741
 30
0.0
 11
-161.2883594836245
 21
41.60007948040383
 31
0.0
  0
LINE
  5
656B
330
6C
100
AcDbEntity
  8
0
100
AcDbLine
 10
-161.2938006371143
 20
41.68491665564078
 30
0.0
 11
-161.2938006371143
 21
41.650418374708
 31
0.0
  0
HATCH
  5
6570
330
6C
100
AcDbEntity
  8
Layer1
100
AcDbHatch
 10
0.0
 20
0.0
 30
0.0
210
0.0
220
0.0
230
1.0
  2
SOLID
 70
     1
 71
     0
 91
        1
 92
        1
 93
        3
 72
     1
 10
-161.2954174117354
 20
41.67940790128904
 11
-161.2938006371142
 21
41.68491665564067
 72
     1
 10
-161.2938006371142
 20
41.68491665564067
 11
-161.2922170211304
 21
41.68077381480725
 72
     1
 10
-161.2922170211304
 20
41.68077381480725
 11
-161.2954174117354
 21
41.67940790128904
 97
        0
 75
     1
 76
     1
 98
        1
 10
-161.2941644570008
 20
41.68142925318877
1001
GradientColor1ACI
1070
     5
1001
GradientColor2ACI
1070
     2
1001
ACAD
1010
0.0
1020
0.0
1030
0.0
  0
LINE
  5
6571
330
6C
100
AcDbEntity
  8
Layer1
100
AcDbLine
 10
-161.2954174117354
 20
41.67940790128906
 30
0.0
 11
-161.2938006371142
 21
41.6849166556407
 31
0.0
  0
LINE
  5
6572
330
6C
100
AcDbEntity
  8
0
100
AcDbLine
 10
-161.2922391353807
 20
41.68076437653642
 30
0.0
 11
-161.2938006371142
 21
41.6849166556407
 31
0.0
  0
LINE
  5
6573
330
6C
100
AcDbEntity
  8
0
100
AcDbLine
 10
-161.2954174117354
 20
41.67940790128906
 30
0.0
 11
-161.2922170211304
 21
41.68077381480728
 31
0.0
  0
HATCH
  5
6579
330
6C
100
AcDbEntity
  8
Layer1
100
AcDbHatch
 10
0.0
 20
0.0
 30
0.0
210
0.0
220
0.0
230
1.0
  2
SOLID
 70
     1
 71
     0
 91
        1
 92
        1
 93
        3
 72
     1
 10
-161.2921838624931
 20
41.60326597287473
 11
-161.2938006371143
 21
41.5977572185231
 72
     1
 10
-161.2938006371143
 20
41.5977572185231
 11
-161.295384253098
 21
41.60190005935652
 72
     1
 10
-161.295384253098
 20
41.60190005935652
 11
-161.2921838624931
 21
41.60326597287473
 97
        0
 75
     1
 76
     1
 98
        1
 10
-161.2934368172277
 20
41.601244620975
1001
GradientColor1ACI
1070
     5
1001
GradientColor2ACI
1070
     2
1001
ACAD
1010
0.0
1020
0.0
1030
0.0
  0
LINE
  5
657A
330
6C
100
AcDbEntity
  8
Layer1
100
AcDbLine
 10
-161.2921838624931
 20
41.6032659728747
 30
0.0
 11
-161.2938006371143
 21
41.59775721852307
 31
0.0
  0
LINE
  5
657B
330
6C
100
AcDbEntity
  8
0
100
AcDbLine
 10
-161.2953621388478
 20
41.60190949762735
 30
0.0
 11
-161.2938006371143
 21
41.59775721852307
 31
0.0
  0
LINE
  5
657C
330
6C
100
AcDbEntity
  8
0
100
AcDbLine
 10
-161.2921838624931
 20
41.6032659728747
 30
0.0
 11
-161.295384253098
 21
41.60190005935649
 31
0.0
  0
MTEXT
  5
657D
102
{ACAD_XDICTIONARY
360
6F57
102
}
330
6C
100
AcDbEntity
  8
A-ANNO-TEXT
 62
     7
100
AcDbMText
 10
-161.2881580508192
 20
41.64812442853658
 30
0.0
 40
0.006912
 41
0.0203659014665603
 71
     2
 72
     1
  1
\A1;{\fArial|b0|i0|c0|p34;H  =}
 73
     2
 44
0.9385317878468564
1001
REVIT
1002
{
1070
     1
1000
332280
1002
}
1002
{
1070
     5
1000
332282
1002
}
1002
{
1070
     2
1000
-2000300
1002
}
1001
ACAD
1000
MTEXTBEGIN
1070
    73
1070
     2
1070
    44
1040
0.9385317878468564
1070
    74
1070
     0
1000
MTEXTEND
1000
ACAD_MTEXT_DEFINED_HEIGHT_BEGIN
1070
    46
1040
0.014367773750822
1000
ACAD_MTEXT_DEFINED_HEIGHT_END
  0
MTEXT
  5
657E
102
{ACAD_XDICTIONARY
360
6F59
102
}
330
6C
100
AcDbEntity
  8
A-ANNO-TEXT
 62
     7
100
AcDbMText
 10
-161.2851102285948
 20
41.64429365523296
 30
0.0
 40
0.006912
 41
0.0122763356372089
 71
     2
 72
     1
  1
\A1;{\fArial|b0|i0|c0|p34;1}
 73
     2
 44
0.9385317878468564
1001
REVIT
1002
{
1070
     1
1000
332280
1002
}
1002
{
1070
     5
1000
332282
1002
}
1002
{
1070
     2
1000
-2000300
1002
}
1001
ACAD
1000
MTEXTBEGIN
1070
    73
1070
     2
1070
    44
1040
0.9385317878468564
1070
    74
1070
     0
1000
MTEXTEND
1000
ACAD_MTEXT_DEFINED_HEIGHT_BEGIN
1070
    46
1040
0.014367046408497
1000
ACAD_MTEXT_DEFINED_HEIGHT_END
  0
MTEXT
  5
657F
102
{ACAD_XDICTIONARY
360
6F5B
102
}
330
6C
100
AcDbEntity
  8
A-ANNO-TEXT
 62
     7
100
AcDbMText
 10
-161.2881580508192
 20
41.63553448746454
 30
0.0
 40
0.006912
 41
0.0203659014665603
 71
     2
 72
     1
  1
\A1;{\fArial|b0|i0|c0|p34;7"}
 73
     2
 44
0.9385317878468564
1001
REVIT
1002
{
1070
     1
1000
332280
1002
}
1002
{
1070
     5
1000
332282
1002
}
1002
{
1070
     2
1000
-2000300
1002
}
1001
ACAD
1000
MTEXTBEGIN
1070
    73
1070
     2
1070
    44
1040
0.9385317878468564
1070
    74
1070
     0
1000
MTEXTEND
1000
ACAD_MTEXT_DEFINED_HEIGHT_BEGIN
1070
    46
1040
0.014367773750822
1000
ACAD_MTEXT_DEFINED_HEIGHT_END
  0
LINE
  5
6581
330
6C
100
AcDbEntity
  8
0
100
AcDbLine
 10
-161.2938006371143
 20
41.62628219665743
 30
0.0
 11
-161.2938006371143
 21
41.59775721852306
 31
0.0
  0
LINE
  5
662C
330
6C
100
AcDbEntity
  8
0
 62
     0
370
     0
100
AcDbLine
 10
-161.3774891317547
 20
41.47115209104121
 30
0.0
 11
-161.3866812120152
 21
41.47507523300619
 31
0.0
  0
LINE
  5
662E
330
6C
100
AcDbEntity
  8
0
100
AcDbLine
 10
-161.4096665962303
 20
41.50761449035285
 30
0.0
 11
-161.4096665962303
 21
41.47990403379444
 31
0.0
  0
LINE
  5
662F
330
6C
100
AcDbEntity
  8
0
100
AcDbLine
 10
-161.3774891317548
 20
41.49388128115171
 30
0.0
 11
-161.3774891317548
 21
41.46617082459331
 31
0.0
  0
HATCH
  5
6630
330
6C
100
AcDbEntity
  8
Layer1
100
AcDbHatch
 10
0.0
 20
0.0
 30
0.0
210
0.0
220
0.0
230
1.0
  2
SOLID
 70
     1
 71
     0
 91
        1
 92
        1
 93
        3
 72
     1
 10
-161.4053286957215
 20
41.48112458836096
 11
-161.4096665962305
 21
41.4848853002424
 72
     1
 10
-161.4096665962305
 20
41.4848853002424
 11
-161.4053286957215
 21
41.48458518548278
 72
     1
 10
-161.4053286957215
 20
41.48458518548278
 11
-161.4053286957215
 21
41.48112458836096
 97
        0
 75
     1
 76
     1
 98
        1
 10
-161.4066461454512
 20
41.4831045088844
1001
GradientColor1ACI
1070
     5
1001
GradientColor2ACI
1070
     2
1001
ACAD
1010
0.0
1020
0.0
1030
0.0
  0
LINE
  5
6631
330
6C
100
AcDbEntity
  8
Layer1
100
AcDbLine
 10
-161.4053286957215
 20
41.48112458836095
 30
0.0
 11
-161.4096665962306
 21
41.48488530024239
 31
0.0
  0
LINE
  5
6632
330
6C
100
AcDbEntity
  8
0
100
AcDbLine
 10
-161.4053286957215
 20
41.48458518548281
 30
0.0
 11
-161.4096665962306
 21
41.48488530024239
 31
0.0
  0
LINE
  5
6633
330
6C
100
AcDbEntity
  8
0
100
AcDbLine
 10
-161.4053286957215
 20
41.48112458836095
 30
0.0
 11
-161.4053286957215
 21
41.48458518548281
 31
0.0
  0
HATCH
  5
6634
330
6C
100
AcDbEntity
  8
Layer1
100
AcDbHatch
 10
0.0
 20
0.0
 30
0.0
210
0.0
220
0.0
230
1.0
  2
SOLID
 70
     1
 71
     0
 91
        1
 92
        1
 93
        3
 72
     1
 10
-161.3818270322638
 20
41.47491280292264
 11
-161.3774891317547
 21
41.47115209104121
 72
     1
 10
-161.3774891317547
 20
41.47115209104121
 11
-161.3818270322638
 21
41.47145220580082
 72
     1
 10
-161.3818270322638
 20
41.47145220580082
 11
-161.3818270322638
 21
41.47491280292264
 97
        0
 75
     1
 76
     1
 98
        1
 10
-161.3805095825341
 20
41.4729328823992
1001
GradientColor1ACI
1070
     5
1001
GradientColor2ACI
1070
     2
1001
ACAD
1010
0.0
1020
0.0
1030
0.0
  0
LINE
  5
6635
330
6C
100
AcDbEntity
  8
Layer1
100
AcDbLine
 10
-161.3818270322638
 20
41.47491280292265
 30
0.0
 11
-161.3774891317547
 21
41.47115209104121
 31
0.0
  0
LINE
  5
6636
330
6C
100
AcDbEntity
  8
0
100
AcDbLine
 10
-161.3818270322638
 20
41.47145220580079
 30
0.0
 11
-161.3774891317547
 21
41.47115209104121
 31
0.0
  0
LINE
  5
6637
330
6C
100
AcDbEntity
  8
0
100
AcDbLine
 10
-161.3818270322638
 20
41.47491280292265
 30
0.0
 11
-161.3818270322638
 21
41.47145220580079
 31
0.0
  0
MTEXT
  5
6638
102
{ACAD_XDICTIONARY
360
6F5D
102
}
330
6C
100
AcDbEntity
  8
A-ANNO-TEXT
 62
     7
100
AcDbMText
 10
-161.3947247578083
 20
41.48392637443713
 30
0.0
 40
0.006912
 41
0.0122763356372089
 71
     2
 72
     1
  1
\A1;{\fArial|b0|i0|c0|p34;W}
 73
     2
 44
0.9385317878468564
1001
REVIT
1002
{
1070
     1
1000
332280
1002
}
1002
{
1070
     5
1000
332282
1002
}
1002
{
1070
     2
1000
-2000300
1002
}
1001
ACAD
1000
MTEXTBEGIN
1070
    73
1070
     2
1070
    44
1040
0.9385317878468564
1070
    74
1070
     0
1000
MTEXTEND
1000
ACAD_MTEXT_DEFINED_HEIGHT_BEGIN
1070
    46
1040
0.014367046408497
1000
ACAD_MTEXT_DEFINED_HEIGHT_END
  0
MTEXT
  5
6639
102
{ACAD_XDICTIONARY
360
6F5F
102
}
330
6C
100
AcDbEntity
  8
A-ANNO-TEXT
 62
     7
100
AcDbMText
 10
-161.3864375770942
 20
41.47874729779925
 30
0.0
 40
0.006912
 41
0.0122763356372089
 71
     2
 72
     1
  1
\A1;{\fArial|b0|i0|c0|p34;2}
 73
     2
 44
0.9385317878468564
1001
REVIT
1002
{
1070
     1
1000
332280
1002
}
1002
{
1070
     5
1000
332282
1002
}
1002
{
1070
     2
1000
-2000300
1002
}
1001
ACAD
1000
MTEXTBEGIN
1070
    73
1070
     2
1070
    44
1040
0.9385317878468564
1070
    74
1070
     0
1000
MTEXTEND
1000
ACAD_MTEXT_DEFINED_HEIGHT_BEGIN
1070
    46
1040
0.014367046408497
1000
ACAD_MTEXT_DEFINED_HEIGHT_END
  0
LINE
  5
663B
330
6C
100
AcDbEntity
  8
0
 62
     0
370
     0
100
AcDbLine
 10
-161.4024048464706
 20
41.48178601537821
 30
0.0
 11
-161.4096665962303
 21
41.48488530024237
 31
0.0
  0
LINE
  5
66E8
330
6C
100
AcDbEntity
  8
0
 62
     0
370
     0
100
AcDbLine
 10
-161.4719304946309
 20
41.66237616089662
 30
0.0
 11
-161.4499492089416
 21
41.67175768302086
 31
0.0
  0
LINE
  5
66E9
330
6C
100
AcDbEntity
  8
0
 62
     0
370
     0
100
AcDbLine
 10
-161.4719304946309
 20
41.57989884230175
 30
0.0
 11
-161.4489442439362
 21
41.58970927934782
 31
0.0
  0
LINE
  5
66EA
330
6C
100
AcDbEntity
  8
0
 62
     0
370
     0
100
AcDbLine
 10
-161.4670728802882
 20
41.5819720520799
 30
0.0
 11
-161.4670728802881
 21
41.61230451924636
 31
0.0
  0
HATCH
  5
66EC
330
6C
100
AcDbEntity
  8
Layer1
100
AcDbHatch
 10
0.0
 20
0.0
 30
0.0
210
0.0
220
0.0
230
1.0
  2
SOLID
 70
     1
 71
     0
 91
        1
 92
        1
 93
        3
 72
     1
 10
-161.4686896549093
 20
41.658940616323
 11
-161.4670728802881
 21
41.66444937067463
 72
     1
 10
-161.4670728802881
 20
41.66444937067463
 11
-161.4654892643044
 21
41.66030652984122
 72
     1
 10
-161.4654892643044
 20
41.66030652984122
 11
-161.4686896549093
 21
41.658940616323
 97
        0
 75
     1
 76
     1
 98
        1
 10
-161.4674367001747
 20
41.66096196822273
1001
GradientColor1ACI
1070
     5
1001
GradientColor2ACI
1070
     2
1001
ACAD
1010
0.0
1020
0.0
1030
0.0
  0
LINE
  5
66ED
330
6C
100
AcDbEntity
  8
Layer1
100
AcDbLine
 10
-161.4686896549093
 20
41.65894061632303
 30
0.0
 11
-161.4670728802882
 21
41.66444937067466
 31
0.0
  0
LINE
  5
66EE
330
6C
100
AcDbEntity
  8
0
100
AcDbLine
 10
-161.4655113785546
 20
41.66029709157039
 30
0.0
 11
-161.4670728802882
 21
41.66444937067466
 31
0.0
  0
LINE
  5
66EF
330
6C
100
AcDbEntity
  8
0
100
AcDbLine
 10
-161.4686896549093
 20
41.65894061632303
 30
0.0
 11
-161.4654892643044
 21
41.66030652984125
 31
0.0
  0
HATCH
  5
66F0
330
6C
100
AcDbEntity
  8
Layer1
100
AcDbHatch
 10
0.0
 20
0.0
 30
0.0
210
0.0
220
0.0
230
1.0
  2
SOLID
 70
     1
 71
     0
 91
        1
 92
        1
 93
        3
 72
     1
 10
-161.465456105667
 20
41.58748080643156
 11
-161.4670728802882
 21
41.58197205207993
 72
     1
 10
-161.4670728802882
 20
41.58197205207993
 11
-161.468656496272
 21
41.58611489291335
 72
     1
 10
-161.468656496272
 20
41.58611489291335
 11
-161.465456105667
 21
41.58748080643156
 97
        0
 75
     1
 76
     1
 98
        1
 10
-161.4667090604016
 20
41.58545945453183
1001
GradientColor1ACI
1070
     5
1001
GradientColor2ACI
1070
     2
1001
ACAD
1010
0.0
1020
0.0
1030
0.0
  0
LINE
  5
66F1
330
6C
100
AcDbEntity
  8
Layer1
100
AcDbLine
 10
-161.465456105667
 20
41.58748080643153
 30
0.0
 11
-161.4670728802882
 21
41.5819720520799
 31
0.0
  0
LINE
  5
66F2
330
6C
100
AcDbEntity
  8
0
100
AcDbLine
 10
-161.4686343820217
 20
41.58612433118418
 30
0.0
 11
-161.4670728802882
 21
41.5819720520799
 31
0.0
  0
LINE
  5
66F3
330
6C
100
AcDbEntity
  8
0
100
AcDbLine
 10
-161.465456105667
 20
41.58748080643153
 30
0.0
 11
-161.468656496272
 21
41.58611489291332
 31
0.0
  0
MTEXT
  5
66F4
102
{ACAD_XDICTIONARY
360
6F61
102
}
330
6C
100
AcDbEntity
  8
A-ANNO-TEXT
 62
     7
100
AcDbMText
 10
-161.4666696641648
 20
41.62693596868686
 30
0.0
 40
0.006912
 41
0.0122763356372089
 71
     2
 72
     1
  1
\A1;{\fArial|b0|i0|c0|p34;H}
 73
     2
 44
0.9385317878468564
1001
REVIT
1002
{
1070
     1
1000
332280
1002
}
1002
{
1070
     5
1000
332282
1002
}
1002
{
1070
     2
1000
-2000300
1002
}
1001
ACAD
1000
MTEXTBEGIN
1070
    73
1070
     2
1070
    44
1040
0.9385317878468564
1070
    74
1070
     0
1000
MTEXTEND
1000
ACAD_MTEXT_DEFINED_HEIGHT_BEGIN
1070
    46
1040
0.014367046408497
1000
ACAD_MTEXT_DEFINED_HEIGHT_END
  0
MTEXT
  5
66F5
102
{ACAD_XDICTIONARY
360
6F63
102
}
330
6C
100
AcDbEntity
  8
A-ANNO-TEXT
 62
     7
100
AcDbMText
 10
-161.4595770590257
 20
41.62310592272556
 30
0.0
 40
0.006912
 41
0.0122763356372089
 71
     2
 72
     1
  1
\A1;{\fArial|b0|i0|c0|p34;2}
 73
     2
 44
0.9385317878468564
1001
REVIT
1002
{
1070
     1
1000
332280
1002
}
1002
{
1070
     5
1000
332282
1002
}
1002
{
1070
     2
1000
-2000300
1002
}
1001
ACAD
1000
MTEXTBEGIN
1070
    73
1070
     2
1070
    44
1040
0.9385317878468564
1070
    74
1070
     0
1000
MTEXTEND
1000
ACAD_MTEXT_DEFINED_HEIGHT_BEGIN
1070
    46
1040
0.014367046408497
1000
ACAD_MTEXT_DEFINED_HEIGHT_END
  0
LINE
  5
66F7
330
6C
100
AcDbEntity
  8
0
 62
     0
370
     0
100
AcDbLine
 10
-161.4670728802882
 20
41.63095717227561
 30
0.0
 11
-161.4670728802882
 21
41.66444937067476
 31
0.0
  0
LINE
  5
6858
330
6C
100
AcDbEntity
  8
0
100
AcDbLine
 10
-161.4128981303164
 20
41.68831982132188
 30
0.0
 11
-161.4128981303164
 21
41.74098488949616
 31
0.0
  0
LINE
  5
6859
330
6C
100
AcDbEntity
  8
0
100
AcDbLine
 10
-161.3867083758894
 20
41.6771421420879
 30
0.0
 11
-161.3867083758894
 21
41.72980721026217
 31
0.0
  0
LINE
  5
685A
330
6C
100
AcDbEntity
  8
0
 62
     0
370
     0
100
AcDbLine
 10
-161.4128981303163
 20
41.7360375148011
 30
0.0
 11
-161.4068722108723
 21
41.73346567722154
 31
0.0
  0
HATCH
  5
685B
330
6C
100
AcDbEntity
  8
Layer1
100
AcDbHatch
 10
0.0
 20
0.0
 30
0.0
210
0.0
220
0.0
230
1.0
  2
SOLID
 70
     1
 71
     0
 91
        1
 92
        1
 93
        3
 72
     1
 10
-161.408560229807
 20
41.73227680291953
 11
-161.4128981303161
 21
41.73603751480096
 72
     1
 10
-161.4128981303161
 20
41.73603751480096
 11
-161.4085602298071
 21
41.73573740004135
 72
     1
 10
-161.4085602298071
 20
41.73573740004135
 11
-161.408560229807
 21
41.73227680291953
 97
        0
 75
     1
 76
     1
 98
        1
 10
-161.4098776795367
 20
41.73425672344297
1001
GradientColor1ACI
1070
     5
1001
GradientColor2ACI
1070
     2
1001
ACAD
1010
0.0
1020
0.0
1030
0.0
  0
LINE
  5
685C
330
6C
100
AcDbEntity
  8
Layer1
100
AcDbLine
 10
-161.4085602298071
 20
41.73227680291952
 30
0.0
 11
-161.4128981303161
 21
41.73603751480095
 31
0.0
  0
LINE
  5
685D
330
6C
100
AcDbEntity
  8
0
100
AcDbLine
 10
-161.408560229807
 20
41.73573740004138
 30
0.0
 11
-161.4128981303161
 21
41.73603751480095
 31
0.0
  0
LINE
  5
685E
330
6C
100
AcDbEntity
  8
0
100
AcDbLine
 10
-161.4085602298071
 20
41.73227680291952
 30
0.0
 11
-161.4085602298071
 21
41.73573740004138
 31
0.0
  0
LINE
  5
685F
330
6C
100
AcDbEntity
  8
0
 62
     0
370
     0
100
AcDbLine
 10
-161.393642930335
 20
41.72781947481996
 30
0.0
 11
-161.3867083758894
 21
41.72485983556715
 31
0.0
  0
HATCH
  5
6860
330
6C
100
AcDbEntity
  8
Layer1
100
AcDbHatch
 10
0.0
 20
0.0
 30
0.0
210
0.0
220
0.0
230
1.0
  2
SOLID
 70
     1
 71
     0
 91
        1
 92
        1
 93
        3
 72
     1
 10
-161.3910462763986
 20
41.72862054744857
 11
-161.3867083758895
 21
41.72485983556714
 72
     1
 10
-161.3867083758895
 20
41.72485983556714
 11
-161.3910462763985
 21
41.72515995032675
 72
     1
 10
-161.3910462763985
 20
41.72515995032675
 11
-161.3910462763986
 21
41.72862054744857
 97
        0
 75
     1
 76
     1
 98
        1
 10
-161.3897288266689
 20
41.72664062692513
1001
GradientColor1ACI
1070
     5
1001
GradientColor2ACI
1070
     2
1001
ACAD
1010
0.0
1020
0.0
1030
0.0
  0
LINE
  5
6861
330
6C
100
AcDbEntity
  8
Layer1
100
AcDbLine
 10
-161.3910462763985
 20
41.72862054744858
 30
0.0
 11
-161.3867083758894
 21
41.72485983556715
 31
0.0
  0
LINE
  5
6862
330
6C
100
AcDbEntity
  8
0
100
AcDbLine
 10
-161.3910462763986
 20
41.72515995032672
 30
0.0
 11
-161.3867083758894
 21
41.72485983556715
 31
0.0
  0
LINE
  5
6863
330
6C
100
AcDbEntity
  8
0
100
AcDbLine
 10
-161.3910462763985
 20
41.72862054744858
 30
0.0
 11
-161.3910462763985
 21
41.72515995032672
 31
0.0
  0
MTEXT
  5
6864
102
{ACAD_XDICTIONARY
360
6F65
102
}
330
6C
100
AcDbEntity
  8
A-ANNO-TEXT
 62
     7
100
AcDbMText
 10
-161.4003432537638
 20
41.73703792944023
 30
0.0
 40
0.006912
 41
0.0122763356372089
 71
     2
 72
     1
  1
\A1;{\fArial|b0|i0|c0|p34;W}
 73
     2
 44
0.9385317878468564
1001
REVIT
1002
{
1070
     1
1000
332280
1002
}
1002
{
1070
     5
1000
332282
1002
}
1002
{
1070
     2
1000
-2000300
1002
}
1001
ACAD
1000
MTEXTBEGIN
1070
    73
1070
     2
1070
    44
1040
0.9385317878468564
1070
    74
1070
     0
1000
MTEXTEND
1000
ACAD_MTEXT_DEFINED_HEIGHT_BEGIN
1070
    46
1040
0.014367046408497
1000
ACAD_MTEXT_DEFINED_HEIGHT_END
  0
MTEXT
  5
6865
102
{ACAD_XDICTIONARY
360
6F67
102
}
330
6C
100
AcDbEntity
  8
A-ANNO-TEXT
 62
     7
100
AcDbMText
 10
-161.3928791825422
 20
41.73076195314059
 30
0.0
 40
0.006912
 41
0.0122763356372089
 71
     2
 72
     1
  1
\A1;{\fArial|b0|i0|c0|p34;3}
 73
     2
 44
0.9385317878468564
1001
REVIT
1002
{
1070
     1
1000
332280
1002
}
1002
{
1070
     5
1000
332282
1002
}
1002
{
1070
     2
1000
-2000300
1002
}
1001
ACAD
1000
MTEXTBEGIN
1070
    73
1070
     2
1070
    44
1040
0.9385317878468564
1070
    74
1070
     0
1000
MTEXTEND
1000
ACAD_MTEXT_DEFINED_HEIGHT_BEGIN
1070
    46
1040
0.014367046408497
1000
ACAD_MTEXT_DEFINED_HEIGHT_END
  0
LINE
  5
691A
330
6C
100
AcDbEntity
  8
0
100
AcDbLine
 10
-161.4489442439362
 20
41.67293548861275
 30
0.0
 11
-161.4489442439362
 21
41.72560055678702
 31
0.0
  0
LINE
  5
691B
330
6C
100
AcDbEntity
  8
0
 62
     0
370
     0
100
AcDbLine
 10
-161.4489442439362
 20
41.72065318209183
 30
0.0
 11
-161.4366544567986
 21
41.72589841258305
 31
0.0
  0
LINE
  5
6920
330
6C
100
AcDbEntity
  8
0
100
AcDbLine
 10
-161.4173033229528
 20
41.73235585586545
 30
0.0
 11
-161.4173033229528
 21
41.7358126936745
 31
0.0
  0
HATCH
  5
6921
330
6C
100
AcDbEntity
  8
Layer1
100
AcDbHatch
 10
0.0
 20
0.0
 30
0.0
210
0.0
220
0.0
230
1.0
  2
SOLID
 70
     1
 71
     0
 91
        1
 92
        1
 93
        3
 72
     1
 10
-161.4173033229529
 20
41.73235585586545
 11
-161.4128981303164
 21
41.73603751480103
 72
     1
 10
-161.4128981303164
 20
41.73603751480103
 11
-161.4173033229528
 21
41.73581269367447
 72
     1
 10
-161.4173033229528
 20
41.73581269367447
 11
-161.4173033229529
 21
41.73235585586545
 97
        0
 75
     1
 76
     1
 98
        1
 10
-161.4159502876138
 20
41.73431163050507
1001
GradientColor1ACI
1070
     5
1001
GradientColor2ACI
1070
     2
1001
ACAD
1010
0.0
1020
0.0
1030
0.0
  0
LINE
  5
6922
330
6C
100
AcDbEntity
  8
Layer1
100
AcDbLine
 10
-161.4173033229528
 20
41.73235585586545
 30
0.0
 11
-161.4128981303164
 21
41.73603751480103
 31
0.0
  0
LINE
  5
6923
330
6C
100
AcDbEntity
  8
0
100
AcDbLine
 10
-161.4173033229528
 20
41.73581269367447
 30
0.0
 11
-161.4128981303164
 21
41.73603751480094
 31
0.0
  0
LINE
  5
6929
330
6C
100
AcDbEntity
  8
0
100
AcDbLine
 10
-161.4445390512998
 20
41.72433484102731
 30
0.0
 11
-161.4445390512999
 21
41.72087800321826
 31
0.0
  0
HATCH
  5
692A
330
6C
100
AcDbEntity
  8
Layer1
100
AcDbHatch
 10
0.0
 20
0.0
 30
0.0
210
0.0
220
0.0
230
1.0
  2
SOLID
 70
     1
 71
     0
 91
        1
 92
        1
 93
        3
 72
     1
 10
-161.4445390512998
 20
41.72433484102731
 11
-161.4489442439363
 21
41.72065318209173
 72
     1
 10
-161.4489442439363
 20
41.72065318209173
 11
-161.4445390512998
 21
41.72087800321829
 72
     1
 10
-161.4445390512998
 20
41.72087800321829
 11
-161.4445390512998
 21
41.72433484102731
 97
        0
 75
     1
 76
     1
 98
        1
 10
-161.4458920866388
 20
41.7223790663877
1001
GradientColor1ACI
1070
     5
1001
GradientColor2ACI
1070
     2
1001
ACAD
1010
0.0
1020
0.0
1030
0.0
  0
LINE
  5
692B
330
6C
100
AcDbEntity
  8
Layer1
100
AcDbLine
 10
-161.4445390512998
 20
41.72433484102731
 30
0.0
 11
-161.4489442439363
 21
41.72065318209173
 31
0.0
  0
LINE
  5
692C
330
6C
100
AcDbEntity
  8
0
100
AcDbLine
 10
-161.4445390512998
 20
41.72087800321829
 30
0.0
 11
-161.4489442439363
 21
41.72065318209182
 31
0.0
  0
MTEXT
  5
692D
102
{ACAD_XDICTIONARY
360
6F69
102
}
330
6C
100
AcDbEntity
  8
A-ANNO-TEXT
 62
     7
100
AcDbMText
 10
-161.4286569766467
 20
41.73137248018239
 30
0.0
 40
0.006912
 41
0.0122763356372089
 71
     2
 72
     1
  1
\A1;{\fArial|b0|i0|c0|p34;4"}
 73
     2
 44
0.9385317878468564
1001
REVIT
1002
{
1070
     1
1000
332280
1002
}
1002
{
1070
     5
1000
332282
1002
}
1002
{
1070
     2
1000
-2000300
1002
}
1001
ACAD
1000
MTEXTBEGIN
1070
    73
1070
     2
1070
    44
1040
0.9385317878468564
1070
    74
1070
     0
1000
MTEXTEND
1000
ACAD_MTEXT_DEFINED_HEIGHT_BEGIN
1070
    46
1040
0.014367046408497
1000
ACAD_MTEXT_DEFINED_HEIGHT_END
  0
LINE
  5
692F
330
6C
100
AcDbEntity
  8
0
 62
     0
370
     0
100
AcDbLine
 10
-161.4252728604283
 20
41.73075603099842
 30
0.0
 11
-161.4128981303164
 21
41.73603751480096
 31
0.0
  0
LINE
  5
69E7
330
6C
100
AcDbEntity
  8
0
100
AcDbLine
 10
-161.3486240798326
 20
41.66258848100897
 30
0.0
 11
-161.3486240798326
 21
41.69764393814694
 31
0.0
  0
LINE
  5
69E8
330
6C
100
AcDbEntity
  8
0
 62
     0
370
     0
100
AcDbLine
 10
-161.3486240798325
 20
41.69349154634463
 30
0.0
 11
-161.3389687826406
 21
41.69761238738657
 31
0.0
  0
LINE
  5
69E9
330
6C
100
AcDbEntity
  8
0
 62
     0
370
     0
100
AcDbLine
 10
-161.3267371477872
 20
41.70283279872258
 30
0.0
 11
-161.3162388996271
 21
41.70731340776303
 31
0.0
  0
LINE
  5
69EA
330
6C
100
AcDbEntity
  8
0
100
AcDbLine
 10
-161.3206440922636
 20
41.70363174882751
 30
0.0
 11
-161.3206440922636
 21
41.70708858663656
 31
0.0
  0
HATCH
  5
69EB
330
6C
100
AcDbEntity
  8
Layer1
100
AcDbHatch
 10
0.0
 20
0.0
 30
0.0
210
0.0
220
0.0
230
1.0
  2
SOLID
 70
     1
 71
     0
 91
        1
 92
        1
 93
        3
 72
     1
 10
-161.3206440922636
 20
41.70363174882751
 11
-161.3162388996272
 21
41.70731340776309
 72
     1
 10
-161.3162388996272
 20
41.70731340776309
 11
-161.3206440922636
 21
41.70708858663654
 72
     1
 10
-161.3206440922636
 20
41.70708858663654
 11
-161.3206440922636
 21
41.70363174882751
 97
        0
 75
     1
 76
     1
 98
        1
 10
-161.3192910569246
 20
41.70558752346713
1001
GradientColor1ACI
1070
     5
1001
GradientColor2ACI
1070
     2
1001
ACAD
1010
0.0
1020
0.0
1030
0.0
  0
LINE
  5
69EC
330
6C
100
AcDbEntity
  8
Layer1
100
AcDbLine
 10
-161.3206440922636
 20
41.70363174882751
 30
0.0
 11
-161.3162388996271
 21
41.70731340776309
 31
0.0
  0
LINE
  5
69ED
330
6C
100
AcDbEntity
  8
0
100
AcDbLine
 10
-161.3206440922636
 20
41.70708858663654
 30
0.0
 11
-161.3162388996272
 21
41.70731340776301
 31
0.0
  0
LINE
  5
69EE
330
6C
100
AcDbEntity
  8
0
100
AcDbLine
 10
-161.3442188871962
 20
41.69717320528012
 30
0.0
 11
-161.3442188871962
 21
41.69371636747107
 31
0.0
  0
HATCH
  5
69EF
330
6C
100
AcDbEntity
  8
Layer1
100
AcDbHatch
 10
0.0
 20
0.0
 30
0.0
210
0.0
220
0.0
230
1.0
  2
SOLID
 70
     1
 71
     0
 91
        1
 92
        1
 93
        3
 72
     1
 10
-161.3442188871961
 20
41.69717320528012
 11
-161.3486240798326
 21
41.69349154634454
 72
     1
 10
-161.3486240798326
 20
41.69349154634454
 11
-161.3442188871962
 21
41.6937163674711
 72
     1
 10
-161.3442188871962
 20
41.6937163674711
 11
-161.3442188871961
 21
41.69717320528012
 97
        0
 75
     1
 76
     1
 98
        1
 10
-161.3455719225352
 20
41.69521743064051
1001
GradientColor1ACI
1070
     5
1001
GradientColor2ACI
1070
     2
1001
ACAD
1010
0.0
1020
0.0
1030
0.0
  0
LINE
  5
69F0
330
6C
100
AcDbEntity
  8
Layer1
100
AcDbLine
 10
-161.3442188871962
 20
41.69717320528012
 30
0.0
 11
-161.3486240798326
 21
41.69349154634454
 31
0.0
  0
LINE
  5
69F1
330
6C
100
AcDbEntity
  8
0
100
AcDbLine
 10
-161.3442188871962
 20
41.6937163674711
 30
0.0
 11
-161.3486240798326
 21
41.69349154634462
 31
0.0
  0
MTEXT
  5
69F3
102
{ACAD_XDICTIONARY
360
6F6B
102
}
330
6C
100
AcDbEntity
  8
A-ANNO-TEXT
 62
     7
100
AcDbMText
 10
-161.332830614822
 20
41.70491027303785
 30
0.0
 40
0.006912
 41
0.0122763356372089
 71
     2
 72
     1
  1
\A1;{\fArial|b0|i0|c0|p34;W}
 73
     2
 44
0.9385317878468564
1001
REVIT
1002
{
1070
     1
1000
332280
1002
}
1002
{
1070
     5
1000
332282
1002
}
1002
{
1070
     2
1000
-2000300
1002
}
1001
ACAD
1000
MTEXTBEGIN
1070
    73
1070
     2
1070
    44
1040
0.9385317878468564
1070
    74
1070
     0
1000
MTEXTEND
1000
ACAD_MTEXT_DEFINED_HEIGHT_BEGIN
1070
    46
1040
0.014367046408497
1000
ACAD_MTEXT_DEFINED_HEIGHT_END
  0
MTEXT
  5
69F4
102
{ACAD_XDICTIONARY
360
6F6D
102
}
330
6C
100
AcDbEntity
  8
A-ANNO-TEXT
 62
     7
100
AcDbMText
 10
-161.3242983584064
 20
41.70099831321439
 30
0.0
 40
0.006912
 41
0.0122763356372089
 71
     2
 72
     1
  1
\A1;{\fArial|b0|i0|c0|p34;1}
 73
     2
 44
0.9385317878468564
1001
REVIT
1002
{
1070
     1
1000
332280
1002
}
1002
{
1070
     5
1000
332282
1002
}
1002
{
1070
     2
1000
-2000300
1002
}
1001
ACAD
1000
MTEXTBEGIN
1070
    73
1070
     2
1070
    44
1040
0.9385317878468564
1070
    74
1070
     0
1000
MTEXTEND
1000
ACAD_MTEXT_DEFINED_HEIGHT_BEGIN
1070
    46
1040
0.014367046408497
1000
ACAD_MTEXT_DEFINED_HEIGHT_END
  0
LWPOLYLINE
  5
6AAF
330
6C
100
AcDbEntity
  8
A-ANNO-TEXT
 62
     7
100
AcDbPolyline
 90
        4
 70
     1
 43
0.0
 10
-161.5033637904415
 20
41.77036920491156
 10
-161.4481527323992
 20
41.77036920491156
 10
-161.4481527323992
 20
41.74017183649048
 10
-161.5033637904415
 20
41.74017183649048
1001
REVIT
1002
{
1070
     1
1000
332279
1002
}
1002
{
1070
     5
1000
332286
1002
}
1002
{
1070
     2
1000
-2000300
1002
}
  0
MTEXT
  5
6AB0
330
6C
100
AcDbEntity
  8
A-ANNO-TEXT
 62
     7
100
AcDbMText
 10
-161.4752501741022
 20
41.76543212460794
 30
0.0
 40
0.0174664911248931
 41
0.0361434262948207
 71
     2
 72
     1
  1
{\fArial|b1|i0|c163|p34;D\fArial|b1|i0|c0|p34;82}
 73
     2
 44
0.9385317878468564
1001
REVIT
1002
{
1070
     1
1000
332279
1002
}
1002
{
1070
     5
1000
332286
1002
}
1002
{
1070
     2
1000
-2000300
1002
}
1001
ACAD
1000
MTEXTBEGIN
1070
    73
1070
     2
1070
    44
1040
0.9385317878468564
1070
    74
1070
     0
1000
MTEXTEND
  0
ARC
  5
6B6C
330
6C
100
AcDbEntity
  8
0
100
AcDbCircle
 10
-161.3850926088468
 20
41.66490331920343
 30
0.0
 40
0.0015104756557974
100
AcDbArc
 50
59.1670168111521
 51
120.8329831879221
  0
ARC
  5
6B6D
330
6C
100
AcDbEntity
  8
0
100
AcDbCircle
 10
-161.3850926088468
 20
41.66423460384632
 30
0.0
 40
0.0015104756557974
100
AcDbArc
 50
59.1670168111521
 51
120.8329831879221
  0
ARC
  5
6B6E
330
6C
100
AcDbEntity
  8
0
100
AcDbCircle
 10
-161.3850926088469
 20
41.66356588848922
 30
0.0
 40
0.0015104756557974
100
AcDbArc
 50
59.1670168111521
 51
120.8329831879221
  0
ARC
  5
6B6F
330
6C
100
AcDbEntity
  8
0
100
AcDbCircle
 10
-161.3850926088469
 20
41.66289717313211
 30
0.0
 40
0.0015104756557974
100
AcDbArc
 50
59.1670168111521
 51
120.8329831879221
  0
ARC
  5
6B70
330
6C
100
AcDbEntity
  8
0
100
AcDbCircle
 10
-161.3850926088469
 20
41.66222845777499
 30
0.0
 40
0.0015104756557974
100
AcDbArc
 50
59.1670168111521
 51
120.8329831879221
  0
ARC
  5
6B71
330
6C
100
AcDbEntity
  8
0
100
AcDbCircle
 10
-161.3850926088469
 20
41.66155974241789
 30
0.0
 40
0.0015104756557974
100
AcDbArc
 50
59.1670168111521
 51
120.8329831879221
  0
ARC
  5
6B72
330
6C
100
AcDbEntity
  8
0
100
AcDbCircle
 10
-161.385092608847
 20
41.66089102706078
 30
0.0
 40
0.0015104756557974
100
AcDbArc
 50
59.1670168111521
 51
120.8329831879221
  0
ARC
  5
6B73
330
6C
100
AcDbEntity
  8
0
100
AcDbCircle
 10
-161.385092608847
 20
41.66022231170368
 30
0.0
 40
0.0015104756557974
100
AcDbArc
 50
59.1670168111521
 51
120.8329831879221
  0
ARC
  5
6B74
330
6C
100
AcDbEntity
  8
0
100
AcDbCircle
 10
-161.385092608847
 20
41.65955359634657
 30
0.0
 40
0.0015104756557974
100
AcDbArc
 50
59.1670168111521
 51
120.8329831879221
  0
ARC
  5
6B75
330
6C
100
AcDbEntity
  8
0
100
AcDbCircle
 10
-161.3850926088471
 20
41.65888488098945
 30
0.0
 40
0.0015104756557974
100
AcDbArc
 50
59.1670168111521
 51
120.8329831879221
  0
ARC
  5
6B76
330
6C
100
AcDbEntity
  8
0
100
AcDbCircle
 10
-161.3850926088471
 20
41.65821616563235
 30
0.0
 40
0.0015104756557974
100
AcDbArc
 50
59.1670168111521
 51
120.8329831879221
  0
ARC
  5
6B77
330
6C
100
AcDbEntity
  8
0
100
AcDbCircle
 10
-161.3850926088471
 20
41.65754745027524
 30
0.0
 40
0.0015104756557974
100
AcDbArc
 50
59.1670168111521
 51
120.8329831879221
  0
ARC
  5
6B78
330
6C
100
AcDbEntity
  8
0
100
AcDbCircle
 10
-161.3850926088471
 20
41.65687873491814
 30
0.0
 40
0.0015104756557974
100
AcDbArc
 50
59.1670168111521
 51
120.8329831879221
  0
ARC
  5
6B79
330
6C
100
AcDbEntity
  8
0
100
AcDbCircle
 10
-161.3850926088472
 20
41.65621001956103
 30
0.0
 40
0.0015104756557974
100
AcDbArc
 50
59.1670168111521
 51
120.8329831879221
  0
ARC
  5
6B7A
330
6C
100
AcDbEntity
  8
0
100
AcDbCircle
 10
-161.3850926088472
 20
41.65554130420392
 30
0.0
 40
0.0015104756557974
100
AcDbArc
 50
59.1670168111521
 51
120.8329831879221
  0
ARC
  5
6B7B
330
6C
100
AcDbEntity
  8
0
100
AcDbCircle
 10
-161.3850926088472
 20
41.65487258884681
 30
0.0
 40
0.0015104756557974
100
AcDbArc
 50
59.1670168111521
 51
120.8329831879221
  0
ARC
  5
6B7C
330
6C
100
AcDbEntity
  8
0
100
AcDbCircle
 10
-161.3850926088472
 20
41.6542038734897
 30
0.0
 40
0.0015104756557974
100
AcDbArc
 50
59.1670168111521
 51
120.8329831879221
  0
ARC
  5
6B7D
330
6C
100
AcDbEntity
  8
0
100
AcDbCircle
 10
-161.3850926088473
 20
41.6535351581326
 30
0.0
 40
0.0015104756557974
100
AcDbArc
 50
59.1670168111521
 51
120.8329831879221
  0
ARC
  5
6B7E
330
6C
100
AcDbEntity
  8
0
100
AcDbCircle
 10
-161.3850926088473
 20
41.65286644277549
 30
0.0
 40
0.0015104756557974
100
AcDbArc
 50
59.1670168111521
 51
120.8329831879221
  0
ARC
  5
6B7F
330
6C
100
AcDbEntity
  8
0
100
AcDbCircle
 10
-161.3850926088473
 20
41.65219772741838
 30
0.0
 40
0.0015104756557974
100
AcDbArc
 50
59.1670168111521
 51
120.8329831879221
  0
ARC
  5
6B80
330
6C
100
AcDbEntity
  8
0
100
AcDbCircle
 10
-161.3850926088474
 20
41.65152901206127
 30
0.0
 40
0.0015104756557974
100
AcDbArc
 50
59.1670168111521
 51
120.8329831879221
  0
ARC
  5
6B81
330
6C
100
AcDbEntity
  8
0
100
AcDbCircle
 10
-161.3850926088474
 20
41.65086029670416
 30
0.0
 40
0.0015104756557974
100
AcDbArc
 50
59.1670168111521
 51
120.8329831879221
  0
ARC
  5
6B82
330
6C
100
AcDbEntity
  8
0
100
AcDbCircle
 10
-161.3850926088475
 20
41.65019158134706
 30
0.0
 40
0.0015104756557974
100
AcDbArc
 50
59.1670168111521
 51
120.8329831879221
  0
ARC
  5
6B83
330
6C
100
AcDbEntity
  8
0
100
AcDbCircle
 10
-161.3850926088476
 20
41.64952286598995
 30
0.0
 40
0.0015104756557974
100
AcDbArc
 50
59.1670168111521
 51
120.8329831879221
  0
ARC
  5
6B84
330
6C
100
AcDbEntity
  8
0
100
AcDbCircle
 10
-161.3850926088476
 20
41.64885415063284
 30
0.0
 40
0.0015104756557974
100
AcDbArc
 50
59.1670168111521
 51
120.8329831879221
  0
ARC
  5
6B85
330
6C
100
AcDbEntity
  8
0
100
AcDbCircle
 10
-161.3850926088476
 20
41.64818543527573
 30
0.0
 40
0.0015104756557974
100
AcDbArc
 50
59.1670168111521
 51
120.8329831879221
  0
ARC
  5
6B86
330
6C
100
AcDbEntity
  8
0
100
AcDbCircle
 10
-161.3850926088477
 20
41.64751671991862
 30
0.0
 40
0.0015104756557974
100
AcDbArc
 50
59.1670168111521
 51
120.8329831879221
  0
ARC
  5
6B87
330
6C
100
AcDbEntity
  8
0
100
AcDbCircle
 10
-161.3850926088477
 20
41.64684800456152
 30
0.0
 40
0.0015104756557974
100
AcDbArc
 50
59.1670168111521
 51
120.8329831879221
  0
ARC
  5
6B88
330
6C
100
AcDbEntity
  8
0
100
AcDbCircle
 10
-161.3850926088477
 20
41.64617928920441
 30
0.0
 40
0.0015104756557974
100
AcDbArc
 50
59.1670168111521
 51
120.8329831879221
  0
ARC
  5
6B89
330
6C
100
AcDbEntity
  8
0
100
AcDbCircle
 10
-161.3850926088477
 20
41.6455105738473
 30
0.0
 40
0.0015104756557974
100
AcDbArc
 50
59.1670168111521
 51
120.8329831879221
  0
ARC
  5
6B8A
330
6C
100
AcDbEntity
  8
0
100
AcDbCircle
 10
-161.3850926088478
 20
41.64484185849019
 30
0.0
 40
0.0015104756557974
100
AcDbArc
 50
59.1670168111521
 51
120.8329831879221
  0
ARC
  5
6B8B
330
6C
100
AcDbEntity
  8
0
100
AcDbCircle
 10
-161.3850926088478
 20
41.64417314313308
 30
0.0
 40
0.0015104756557974
100
AcDbArc
 50
59.1670168111521
 51
120.8329831879221
  0
ARC
  5
6B8C
330
6C
100
AcDbEntity
  8
0
100
AcDbCircle
 10
-161.3850926088478
 20
41.64350442777598
 30
0.0
 40
0.0015104756557974
100
AcDbArc
 50
59.1670168111521
 51
120.8329831879221
  0
ARC
  5
6B8D
330
6C
100
AcDbEntity
  8
0
100
AcDbCircle
 10
-161.3850926088479
 20
41.64283571241887
 30
0.0
 40
0.0015104756557974
100
AcDbArc
 50
59.1670168111521
 51
120.8329831879221
  0
ARC
  5
6B8E
330
6C
100
AcDbEntity
  8
0
100
AcDbCircle
 10
-161.3850926088479
 20
41.64216699706176
 30
0.0
 40
0.0015104756557974
100
AcDbArc
 50
59.1670168111521
 51
120.8329831879221
  0
ARC
  5
6B8F
330
6C
100
AcDbEntity
  8
0
100
AcDbCircle
 10
-161.3850926088479
 20
41.64149828170465
 30
0.0
 40
0.0015104756557974
100
AcDbArc
 50
59.1670168111521
 51
120.8329831879221
  0
ARC
  5
6B90
330
6C
100
AcDbEntity
  8
0
100
AcDbCircle
 10
-161.3850926088479
 20
41.64082956634755
 30
0.0
 40
0.0015104756557974
100
AcDbArc
 50
59.1670168111521
 51
120.8329831879221
  0
ARC
  5
6B91
330
6C
100
AcDbEntity
  8
0
100
AcDbCircle
 10
-161.385092608848
 20
41.64016085099044
 30
0.0
 40
0.0015104756557974
100
AcDbArc
 50
59.1670168111521
 51
120.8329831879221
  0
ARC
  5
6B92
330
6C
100
AcDbEntity
  8
0
100
AcDbCircle
 10
-161.385092608848
 20
41.63949213563333
 30
0.0
 40
0.0015104756557974
100
AcDbArc
 50
59.1670168111521
 51
120.8329831879221
  0
ARC
  5
6B93
330
6C
100
AcDbEntity
  8
0
100
AcDbCircle
 10
-161.385092608848
 20
41.63882342027622
 30
0.0
 40
0.0015104756557974
100
AcDbArc
 50
59.1670168111521
 51
120.8329831879221
  0
ARC
  5
6B94
330
6C
100
AcDbEntity
  8
0
100
AcDbCircle
 10
-161.385092608848
 20
41.63815470491911
 30
0.0
 40
0.0015104756557974
100
AcDbArc
 50
59.1670168111521
 51
120.8329831879221
  0
ARC
  5
6B95
330
6C
100
AcDbEntity
  8
0
100
AcDbCircle
 10
-161.3850926088481
 20
41.63748598956201
 30
0.0
 40
0.0015104756557974
100
AcDbArc
 50
59.1670168111521
 51
120.8329831879221
  0
ARC
  5
6B96
330
6C
100
AcDbEntity
  8
0
100
AcDbCircle
 10
-161.3850926088481
 20
41.6368172742049
 30
0.0
 40
0.0015104756557974
100
AcDbArc
 50
59.1670168111521
 51
120.8329831879221
  0
ARC
  5
6B97
330
6C
100
AcDbEntity
  8
0
100
AcDbCircle
 10
-161.3850926088481
 20
41.63614855884779
 30
0.0
 40
0.0015104756557974
100
AcDbArc
 50
59.1670168111521
 51
120.8329831879221
  0
ARC
  5
6B98
330
6C
100
AcDbEntity
  8
0
100
AcDbCircle
 10
-161.3850926088482
 20
41.63547984349068
 30
0.0
 40
0.0015104756557974
100
AcDbArc
 50
59.1670168111521
 51
120.8329831879221
  0
ARC
  5
6B99
330
6C
100
AcDbEntity
  8
0
100
AcDbCircle
 10
-161.3850926088482
 20
41.63481112813357
 30
0.0
 40
0.0015104756557974
100
AcDbArc
 50
59.1670168111521
 51
120.8329831879221
  0
ARC
  5
6B9A
330
6C
100
AcDbEntity
  8
0
100
AcDbCircle
 10
-161.3850926088482
 20
41.63414241277647
 30
0.0
 40
0.0015104756557974
100
AcDbArc
 50
59.1670168111521
 51
120.8329831879221
  0
ARC
  5
6B9B
330
6C
100
AcDbEntity
  8
0
100
AcDbCircle
 10
-161.3850926088483
 20
41.63347369741936
 30
0.0
 40
0.0015104756557974
100
AcDbArc
 50
59.1670168111521
 51
120.8329831879221
  0
ARC
  5
6B9C
330
6C
100
AcDbEntity
  8
0
100
AcDbCircle
 10
-161.3850926088483
 20
41.63280498206225
 30
0.0
 40
0.0015104756557974
100
AcDbArc
 50
59.1670168111521
 51
120.8329831879221
  0
ARC
  5
6B9D
330
6C
100
AcDbEntity
  8
0
100
AcDbCircle
 10
-161.3850926088483
 20
41.63213626670514
 30
0.0
 40
0.0015104756557974
100
AcDbArc
 50
59.1670168111521
 51
120.8329831879221
  0
ARC
  5
6B9E
330
6C
100
AcDbEntity
  8
0
100
AcDbCircle
 10
-161.3850926088483
 20
41.63146755134803
 30
0.0
 40
0.0015104756557974
100
AcDbArc
 50
59.1670168111521
 51
120.8329831879221
  0
ARC
  5
6B9F
330
6C
100
AcDbEntity
  8
0
100
AcDbCircle
 10
-161.3850926088484
 20
41.63079883599093
 30
0.0
 40
0.0015104756557974
100
AcDbArc
 50
59.1670168111521
 51
120.8329831879221
  0
ARC
  5
6BA0
330
6C
100
AcDbEntity
  8
0
100
AcDbCircle
 10
-161.3850926088485
 20
41.63013012063382
 30
0.0
 40
0.0015104756557974
100
AcDbArc
 50
59.1670168111521
 51
120.8329831879221
  0
ARC
  5
6BA1
330
6C
100
AcDbEntity
  8
0
100
AcDbCircle
 10
-161.3850926088485
 20
41.62946140527671
 30
0.0
 40
0.0015104756557974
100
AcDbArc
 50
59.1670168111521
 51
120.8329831879221
  0
ARC
  5
6BA2
330
6C
100
AcDbEntity
  8
0
100
AcDbCircle
 10
-161.3850926088486
 20
41.6287926899196
 30
0.0
 40
0.0015104756557974
100
AcDbArc
 50
59.1670168111521
 51
120.8329831879221
  0
ARC
  5
6BA3
330
6C
100
AcDbEntity
  8
0
100
AcDbCircle
 10
-161.3850926088486
 20
41.62812397456249
 30
0.0
 40
0.0015104756557974
100
AcDbArc
 50
59.1670168111521
 51
120.8329831879221
  0
ARC
  5
6BA4
330
6C
100
AcDbEntity
  8
0
100
AcDbCircle
 10
-161.3850926088486
 20
41.62745525920539
 30
0.0
 40
0.0015104756557974
100
AcDbArc
 50
59.1670168111521
 51
120.8329831879221
  0
ARC
  5
6BA5
330
6C
100
AcDbEntity
  8
0
100
AcDbCircle
 10
-161.3850926088487
 20
41.62678654384828
 30
0.0
 40
0.0015104756557974
100
AcDbArc
 50
59.1670168111521
 51
120.8329831879221
  0
ARC
  5
6BA6
330
6C
100
AcDbEntity
  8
0
100
AcDbCircle
 10
-161.3850926088487
 20
41.62611782849118
 30
0.0
 40
0.0015104756557974
100
AcDbArc
 50
59.1670168111521
 51
120.8329831879221
  0
ARC
  5
6BA7
330
6C
100
AcDbEntity
  8
0
100
AcDbCircle
 10
-161.3850926088487
 20
41.62544911313406
 30
0.0
 40
0.0015104756557974
100
AcDbArc
 50
59.1670168111521
 51
120.8329831879221
  0
ARC
  5
6BA8
330
6C
100
AcDbEntity
  8
0
100
AcDbCircle
 10
-161.3850926088487
 20
41.62478039777695
 30
0.0
 40
0.0015104756557974
100
AcDbArc
 50
59.1670168111521
 51
120.8329831879221
  0
ARC
  5
6BA9
330
6C
100
AcDbEntity
  8
0
100
AcDbCircle
 10
-161.3850926088488
 20
41.62411168241985
 30
0.0
 40
0.0015104756557974
100
AcDbArc
 50
59.1670168111521
 51
120.8329831879221
  0
ARC
  5
6BAA
330
6C
100
AcDbEntity
  8
0
100
AcDbCircle
 10
-161.3850926088488
 20
41.62344296706274
 30
0.0
 40
0.0015104756557974
100
AcDbArc
 50
59.1670168111521
 51
120.8329831879221
  0
ARC
  5
6BAB
330
6C
100
AcDbEntity
  8
0
100
AcDbCircle
 10
-161.3850926088488
 20
41.62277425170564
 30
0.0
 40
0.0015104756557974
100
AcDbArc
 50
59.1670168111521
 51
120.8329831879221
  0
ARC
  5
6BAC
330
6C
100
AcDbEntity
  8
0
100
AcDbCircle
 10
-161.3850926088488
 20
41.62210553634852
 30
0.0
 40
0.0015104756557974
100
AcDbArc
 50
59.1670168111521
 51
120.8329831879221
  0
ARC
  5
6BAD
330
6C
100
AcDbEntity
  8
0
100
AcDbCircle
 10
-161.3850926088489
 20
41.62143682099141
 30
0.0
 40
0.0015104756557974
100
AcDbArc
 50
59.1670168111521
 51
120.8329831879221
  0
ARC
  5
6BAE
330
6C
100
AcDbEntity
  8
0
100
AcDbCircle
 10
-161.3850926088489
 20
41.62076810563431
 30
0.0
 40
0.0015104756557974
100
AcDbArc
 50
59.1670168111521
 51
120.8329831879221
  0
ARC
  5
6BAF
330
6C
100
AcDbEntity
  8
0
100
AcDbCircle
 10
-161.3850926088489
 20
41.6200993902772
 30
0.0
 40
0.0015104756557974
100
AcDbArc
 50
59.1670168111521
 51
120.8329831879221
  0
ARC
  5
6BB0
330
6C
100
AcDbEntity
  8
0
100
AcDbCircle
 10
-161.385092608849
 20
41.6194306749201
 30
0.0
 40
0.0015104756557974
100
AcDbArc
 50
59.1670168111521
 51
120.8329831879221
  0
ARC
  5
6BB1
330
6C
100
AcDbEntity
  8
0
100
AcDbCircle
 10
-161.385092608849
 20
41.61876195956298
 30
0.0
 40
0.0015104756557974
100
AcDbArc
 50
59.1670168111521
 51
120.8329831879221
  0
ARC
  5
6BB2
330
6C
100
AcDbEntity
  8
0
100
AcDbCircle
 10
-161.385092608849
 20
41.61809324420588
 30
0.0
 40
0.0015104756557974
100
AcDbArc
 50
59.1670168111521
 51
120.8329831879221
  0
ARC
  5
6BB3
330
6C
100
AcDbEntity
  8
0
100
AcDbCircle
 10
-161.3850926088491
 20
41.61742452884877
 30
0.0
 40
0.0015104756557974
100
AcDbArc
 50
59.1670168111521
 51
120.8329831879221
  0
ARC
  5
6BB4
330
6C
100
AcDbEntity
  8
0
100
AcDbCircle
 10
-161.3850926088491
 20
41.61675581349166
 30
0.0
 40
0.0015104756557974
100
AcDbArc
 50
59.1670168111521
 51
120.8329831879221
  0
ARC
  5
6BB5
330
6C
100
AcDbEntity
  8
0
100
AcDbCircle
 10
-161.3850926088491
 20
41.61608709813456
 30
0.0
 40
0.0015104756557974
100
AcDbArc
 50
59.1670168111521
 51
120.8329831879221
  0
ARC
  5
6BB6
330
6C
100
AcDbEntity
  8
0
100
AcDbCircle
 10
-161.3850926088491
 20
41.61541838277744
 30
0.0
 40
0.0015104756557974
100
AcDbArc
 50
59.1670168111521
 51
120.8329831879221
  0
ARC
  5
6BB7
330
6C
100
AcDbEntity
  8
0
100
AcDbCircle
 10
-161.3850926088492
 20
41.61474966742034
 30
0.0
 40
0.0015104756557974
100
AcDbArc
 50
59.1670168111521
 51
120.8329831879221
  0
ARC
  5
6BB8
330
6C
100
AcDbEntity
  8
0
100
AcDbCircle
 10
-161.3850926088492
 20
41.61408095206323
 30
0.0
 40
0.0015104756557974
100
AcDbArc
 50
59.1670168111521
 51
120.8329831879221
  0
ARC
  5
6BB9
330
6C
100
AcDbEntity
  8
0
100
AcDbCircle
 10
-161.3850926088492
 20
41.61341223670612
 30
0.0
 40
0.0015104756557974
100
AcDbArc
 50
59.1670168111521
 51
120.8329831879221
  0
ARC
  5
6BBA
330
6C
100
AcDbEntity
  8
0
100
AcDbCircle
 10
-161.3850926088493
 20
41.61274352134902
 30
0.0
 40
0.0015104756557974
100
AcDbArc
 50
59.1670168111521
 51
120.8329831879221
  0
ARC
  5
6BBB
330
6C
100
AcDbEntity
  8
0
100
AcDbCircle
 10
-161.3850926088493
 20
41.6120748059919
 30
0.0
 40
0.0015104756557974
100
AcDbArc
 50
59.1670168111521
 51
120.8329831879221
  0
ARC
  5
6BBC
330
6C
100
AcDbEntity
  8
0
100
AcDbCircle
 10
-161.3850926088493
 20
41.6114060906348
 30
0.0
 40
0.0015104756557974
100
AcDbArc
 50
59.1670168111521
 51
120.8329831879221
  0
ARC
  5
6BBD
330
6C
100
AcDbEntity
  8
0
100
AcDbCircle
 10
-161.3850926088493
 20
41.61073737527769
 30
0.0
 40
0.0015104756557974
100
AcDbArc
 50
59.1670168111521
 51
120.8329831879221
  0
ARC
  5
6BBE
330
6C
100
AcDbEntity
  8
0
100
AcDbCircle
 10
-161.3850926088491
 20
41.61006865992058
 30
0.0
 40
0.0015104756557974
100
AcDbArc
 50
59.1670168111521
 51
120.8329831879221
  0
ARC
  5
6BBF
330
6C
100
AcDbEntity
  8
0
100
AcDbCircle
 10
-161.3850926088491
 20
41.60939994456348
 30
0.0
 40
0.0015104756557974
100
AcDbArc
 50
59.1670168111521
 51
120.8329831879221
  0
ARC
  5
6BC0
330
6C
100
AcDbEntity
  8
0
100
AcDbCircle
 10
-161.3850926088492
 20
41.60873122920636
 30
0.0
 40
0.0015104756557974
100
AcDbArc
 50
59.1670168111521
 51
120.8329831879221
  0
ARC
  5
6BC1
330
6C
100
AcDbEntity
  8
0
100
AcDbCircle
 10
-161.3850926088492
 20
41.60806251384926
 30
0.0
 40
0.0015104756557974
100
AcDbArc
 50
59.1670168111521
 51
120.8329831879221
  0
ARC
  5
6BC2
330
6C
100
AcDbEntity
  8
0
100
AcDbCircle
 10
-161.3850926088492
 20
41.60739379849215
 30
0.0
 40
0.0015104756557974
100
AcDbArc
 50
59.1670168111521
 51
120.8329831879221
  0
ARC
  5
6BC3
330
6C
100
AcDbEntity
  8
0
100
AcDbCircle
 10
-161.3850926088493
 20
41.60672508313504
 30
0.0
 40
0.0015104756557974
100
AcDbArc
 50
59.1670168111521
 51
120.8329831879221
  0
ARC
  5
6BC4
330
6C
100
AcDbEntity
  8
0
100
AcDbCircle
 10
-161.3850926088465
 20
41.6709217574174
 30
0.0
 40
0.0015104756557974
100
AcDbArc
 50
59.1670168111521
 51
120.8329831879221
  0
ARC
  5
6BC5
330
6C
100
AcDbEntity
  8
0
100
AcDbCircle
 10
-161.3850926088466
 20
41.67025304206029
 30
0.0
 40
0.0015104756557974
100
AcDbArc
 50
59.1670168111521
 51
120.8329831879221
  0
ARC
  5
6BC6
330
6C
100
AcDbEntity
  8
0
100
AcDbCircle
 10
-161.3850926088466
 20
41.66958432670319
 30
0.0
 40
0.0015104756557974
100
AcDbArc
 50
59.1670168111521
 51
120.8329831879221
  0
ARC
  5
6BC7
330
6C
100
AcDbEntity
  8
0
100
AcDbCircle
 10
-161.3850926088466
 20
41.66891561134607
 30
0.0
 40
0.0015104756557974
100
AcDbArc
 50
59.1670168111521
 51
120.8329831879221
  0
ARC
  5
6BC8
330
6C
100
AcDbEntity
  8
0
100
AcDbCircle
 10
-161.3850926088467
 20
41.66824689598897
 30
0.0
 40
0.0015104756557974
100
AcDbArc
 50
59.1670168111521
 51
120.8329831879221
  0
ARC
  5
6BC9
330
6C
100
AcDbEntity
  8
0
100
AcDbCircle
 10
-161.3850926088467
 20
41.66757818063186
 30
0.0
 40
0.0015104756557974
100
AcDbArc
 50
59.1670168111521
 51
120.8329831879221
  0
ARC
  5
6BCA
330
6C
100
AcDbEntity
  8
0
100
AcDbCircle
 10
-161.3850926088467
 20
41.66690946527475
 30
0.0
 40
0.0015104756557974
100
AcDbArc
 50
59.1670168111521
 51
120.8329831879221
  0
ARC
  5
6BCB
330
6C
100
AcDbEntity
  8
0
100
AcDbCircle
 10
-161.3850926088467
 20
41.66624074991765
 30
0.0
 40
0.0015104756557974
100
AcDbArc
 50
59.1670168111521
 51
120.8329831879221
  0
ARC
  5
6BCC
330
6C
100
AcDbEntity
  8
0
100
AcDbCircle
 10
-161.3850926088468
 20
41.66557203456053
 30
0.0
 40
0.0015104756557974
100
AcDbArc
 50
59.1670168111521
 51
120.8329831879221
  0
ARC
  5
6BCD
330
6C
100
AcDbEntity
  8
0
100
AcDbCircle
 10
-161.3850926088465
 20
41.67292790348873
 30
0.0
 40
0.0015104756557974
100
AcDbArc
 50
59.1670168111521
 51
120.8329831879221
  0
ARC
  5
6BCE
330
6C
100
AcDbEntity
  8
0
100
AcDbCircle
 10
-161.3850926088465
 20
41.67225918813161
 30
0.0
 40
0.0015104756557974
100
AcDbArc
 50
59.1670168111521
 51
120.8329831879221
  0
ARC
  5
6BCF
330
6C
100
AcDbEntity
  8
0
100
AcDbCircle
 10
-161.3850926088465
 20
41.67159047277451
 30
0.0
 40
0.0015104756557974
100
AcDbArc
 50
59.1670168111521
 51
120.8329831879221
  0
ARC
  5
6BD0
330
6C
100
AcDbEntity
  8
0
100
AcDbCircle
 10
-161.3850926088464
 20
41.67359661884583
 30
0.0
 40
0.0015104756557974
100
AcDbArc
 50
59.1670168111521
 51
120.8329831879221
  0
ARC
  5
6BD1
330
6C
100
AcDbEntity
  8
0
100
AcDbCircle
 10
-161.3850926088493
 20
41.60605636777794
 30
0.0
 40
0.0015104756557974
100
AcDbArc
 50
59.1670168111521
 51
120.8329831879221
  0
ARC
  5
6BD2
330
6C
100
AcDbEntity
  8
0
100
AcDbCircle
 10
-161.3850926088493
 20
41.60538765242082
 30
0.0
 40
0.0015104756557974
100
AcDbArc
 50
59.1670168111521
 51
120.8329831879221
  0
ARC
  5
6BD3
330
6C
100
AcDbEntity
  8
0
100
AcDbCircle
 10
-161.3850926088493
 20
41.60471893706372
 30
0.0
 40
0.0015104756557974
100
AcDbArc
 50
59.1670168111521
 51
120.8329831879221
  0
ARC
  5
6BD4
330
6C
100
AcDbEntity
  8
0
100
AcDbCircle
 10
-161.3850926088491
 20
41.60405022170661
 30
0.0
 40
0.0015104756557974
100
AcDbArc
 50
59.1670168111521
 51
120.8329831879221
  0
ARC
  5
6BD5
330
6C
100
AcDbEntity
  8
0
100
AcDbCircle
 10
-161.3850926088491
 20
41.60338150634951
 30
0.0
 40
0.0015104756557974
100
AcDbArc
 50
59.1670168111521
 51
120.8329831879221
  0
ARC
  5
6BD6
330
6C
100
AcDbEntity
  8
0
100
AcDbCircle
 10
-161.3850926088492
 20
41.6027127909924
 30
0.0
 40
0.0015104756557974
100
AcDbArc
 50
59.1670168111521
 51
120.8329831879221
  0
ARC
  5
6BD7
330
6C
100
AcDbEntity
  8
0
100
AcDbCircle
 10
-161.3850926088492
 20
41.60204407563528
 30
0.0
 40
0.0015104756557974
100
AcDbArc
 50
59.1670168111521
 51
120.8329831879221
  0
ARC
  5
6BD8
330
6C
100
AcDbEntity
  8
0
100
AcDbCircle
 10
-161.3850926088492
 20
41.60137536027818
 30
0.0
 40
0.0015104756557974
100
AcDbArc
 50
59.1670168111521
 51
120.8329831879221
  0
ARC
  5
6BD9
330
6C
100
AcDbEntity
  8
0
100
AcDbCircle
 10
-161.3850926088493
 20
41.60070664492107
 30
0.0
 40
0.0015104756557974
100
AcDbArc
 50
59.1670168111521
 51
120.8329831879221
  0
ARC
  5
6BDA
330
6C
100
AcDbEntity
  8
0
100
AcDbCircle
 10
-161.3850926088493
 20
41.60003792956397
 30
0.0
 40
0.0015104756557974
100
AcDbArc
 50
59.1670168111521
 51
120.8329831879221
  0
ARC
  5
6BDB
330
6C
100
AcDbEntity
  8
0
100
AcDbCircle
 10
-161.3850926088493
 20
41.59936921420686
 30
0.0
 40
0.0015104756557974
100
AcDbArc
 50
59.1670168111521
 51
120.8329831879221
  0
ARC
  5
6BDC
330
6C
100
AcDbEntity
  8
0
100
AcDbCircle
 10
-161.3850926088493
 20
41.59870049884974
 30
0.0
 40
0.0015104756557974
100
AcDbArc
 50
59.1670168111521
 51
120.8329831879221
  0
ARC
  5
6BDD
330
6C
100
AcDbEntity
  8
0
100
AcDbCircle
 10
-161.3850926088491
 20
41.59803178349264
 30
0.0
 40
0.0015104756557974
100
AcDbArc
 50
59.1670168111521
 51
120.8329831879221
  0
ARC
  5
6BDE
330
6C
100
AcDbEntity
  8
0
100
AcDbCircle
 10
-161.3850926088491
 20
41.59736306813553
 30
0.0
 40
0.0015104756557974
100
AcDbArc
 50
59.1670168111521
 51
120.8329831879221
  0
ARC
  5
6BDF
330
6C
100
AcDbEntity
  8
0
100
AcDbCircle
 10
-161.3850926088492
 20
41.59669435277843
 30
0.0
 40
0.0015104756557974
100
AcDbArc
 50
59.1670168111521
 51
120.8329831879221
  0
ARC
  5
6BE0
330
6C
100
AcDbEntity
  8
0
100
AcDbCircle
 10
-161.3850926088492
 20
41.59602563742132
 30
0.0
 40
0.0015104756557974
100
AcDbArc
 50
59.1670168111521
 51
120.8329831879221
  0
ARC
  5
6BE1
330
6C
100
AcDbEntity
  8
0
100
AcDbCircle
 10
-161.3850926088492
 20
41.59535692206421
 30
0.0
 40
0.0015104756557974
100
AcDbArc
 50
59.1670168111521
 51
120.8329831879221
  0
ARC
  5
6BE2
330
6C
100
AcDbEntity
  8
0
100
AcDbCircle
 10
-161.3850926088493
 20
41.5946882067071
 30
0.0
 40
0.0015104756557974
100
AcDbArc
 50
59.1670168111521
 51
120.8329831879221
  0
ARC
  5
6BE3
330
6C
100
AcDbEntity
  8
0
100
AcDbCircle
 10
-161.3850926088493
 20
41.59401949134999
 30
0.0
 40
0.0015104756557974
100
AcDbArc
 50
59.1670168111521
 51
120.8329831879221
  0
LINE
  5
6CA7
330
6C
100
AcDbEntity
  8
0
 62
     0
370
     0
100
AcDbLine
 10
-161.4227544895093
 20
41.60184496005586
 30
0.0
 11
-161.4476390414769
 21
41.59122433585143
 31
0.0
  0
LINE
  5
6CA8
330
6C
100
AcDbEntity
  8
0
 62
     0
370
     0
100
AcDbLine
 10
-161.4227544895093
 20
41.60070355147738
 30
0.0
 11
-161.4470504518513
 21
41.59033413489878
 31
0.0
  0
LINE
  5
6CAA
330
6C
100
AcDbEntity
  8
0
 62
     0
370
     0
100
AcDbLine
 10
-161.3486240798326
 20
41.60296078411021
 30
0.0
 11
-161.3182095834793
 21
41.58998000243661
 31
0.0
  0
LINE
  5
6CAB
330
6C
100
AcDbEntity
  8
0
 62
     0
370
     0
100
AcDbLine
 10
-161.3486240798326
 20
41.60181937557479
 30
0.0
 11
-161.3186556463814
 21
41.58902897170907
 31
0.0
  0
ENDSEC
  0
SECTION
  2
OBJECTS
  0
DICTIONARY
  5
C
330
0
100
AcDbDictionary
281
     1
  3
ACAD_CIP_PREVIOUS_PRODUCT_INFO
350
75
  3
ACAD_COLOR
350
63
  3
ACAD_GROUP
350
D
  3
ACAD_IMAGE_VARS
350
76
  3
ACAD_LAYOUT
350
62
  3
ACAD_MATERIAL
350
10
  3
ACAD_MLEADERSTYLE
350
66
  3
ACAD_MLINESTYLE
350
5F
  3
ACAD_PLOTSETTINGS
350
61
  3
ACAD_PLOTSTYLENAME
350
E
  3
ACAD_SCALELIST
350
42
  3
ACAD_TABLESTYLE
350
64
  3
ACAD_VISUALSTYLE
350
29
  3
ACDB_RECOMPOSE_DATA
350
6F6F
  3
AcDbVariableDictionary
350
4B8
  3
DWGPROPS
350
6F70
  3
REVIT_DICTIONARY
350
4AE
  0
DICTIONARY
  5
49E7
330
8
100
AcDbDictionary
280
     1
281
     1
  0
DICTIONARY
  5
F67
330
2
100
AcDbDictionary
280
     1
281
     1
  3
ACAD_LAYERSTATES
360
F68
  0
DICTIONARY
  5
4B3
330
6C
100
AcDbDictionary
280
     1
281
     1
  3
ACAD_SORTENTS
360
4B4
  0
DICTIONARY
  5
6F53
330
57BC
100
AcDbDictionary
280
     1
281
     1
  3
ACAD_MTEXT_2008_RT
360
6F54
  0
DICTIONARY
  5
6F55
330
6566
100
AcDbDictionary
280
     1
281
     1
  3
ACAD_MTEXT_2008_RT
360
6F56
  0
DICTIONARY
  5
6F57
330
657D
100
AcDbDictionary
280
     1
281
     1
  3
ACAD_MTEXT_2008_RT
360
6F58
  0
DICTIONARY
  5
6F59
330
657E
100
AcDbDictionary
280
     1
281
     1
  3
ACAD_MTEXT_2008_RT
360
6F5A
  0
DICTIONARY
  5
6F5B
330
657F
100
AcDbDictionary
280
     1
281
     1
  3
ACAD_MTEXT_2008_RT
360
6F5C
  0
DICTIONARY
  5
6F5D
330
6638
100
AcDbDictionary
280
     1
281
     1
  3
ACAD_MTEXT_2008_RT
360
6F5E
  0
DICTIONARY
  5
6F5F
330
6639
100
AcDbDictionary
280
     1
281
     1
  3
ACAD_MTEXT_2008_RT
360
6F60
  0
DICTIONARY
  5
6F61
330
66F4
100
AcDbDictionary
280
     1
281
     1
  3
ACAD_MTEXT_2008_RT
360
6F62
  0
DICTIONARY
  5
6F63
330
66F5
100
AcDbDictionary
280
     1
281
     1
  3
ACAD_MTEXT_2008_RT
360
6F64
  0
DICTIONARY
  5
6F65
330
6864
100
AcDbDictionary
280
     1
281
     1
  3
ACAD_MTEXT_2008_RT
360
6F66
  0
DICTIONARY
  5
6F67
330
6865
100
AcDbDictionary
280
     1
281
     1
  3
ACAD_MTEXT_2008_RT
360
6F68
  0
DICTIONARY
  5
6F69
330
692D
100
AcDbDictionary
280
     1
281
     1
  3
ACAD_MTEXT_2008_RT
360
6F6A
  0
DICTIONARY
  5
6F6B
330
69F3
100
AcDbDictionary
280
     1
281
     1
  3
ACAD_MTEXT_2008_RT
360
6F6C
  0
DICTIONARY
  5
6F6D
330
69F4
100
AcDbDictionary
280
     1
281
     1
  3
ACAD_MTEXT_2008_RT
360
6F6E
  0
XRECORD
  5
75
102
{ACAD_REACTORS
330
C
102
}
330
C
100
AcDbXrecord
280
     1
300
ACD
300
2012
300
85730ACD_2012_0F
  0
DICTIONARY
  5
63
102
{ACAD_REACTORS
330
C
102
}
330
C
100
AcDbDictionary
281
     1
  0
DICTIONARY
  5
D
102
{ACAD_REACTORS
330
C
102
}
330
C
100
AcDbDictionary
281
     1
  0
RASTERVARIABLES
  5
76
102
{ACAD_REACTORS
330
C
102
}
330
C
100
AcDbRasterVariables
 90
        0
 70
     0
 71
     1
 72
     5
  0
DICTIONARY
  5
62
102
{ACAD_REACTORS
330
C
102
}
330
C
100
AcDbDictionary
281
     1
  3
Layout1
350
6B
  3
Layout2
350
73
  3
Model
350
6F
  0
DICTIONARY
  5
10
102
{ACAD_REACTORS
330
C
102
}
330
C
100
AcDbDictionary
281
     1
  3
ByBlock
350
19
  3
ByLayer
350
11
  3
Global
350
21
  0
DICTIONARY
  5
66
102
{ACAD_REACTORS
330
C
102
}
330
C
100
AcDbDictionary
281
     1
  3
Standard
350
67
  0
DICTIONARY
  5
5F
102
{ACAD_REACTORS
330
C
102
}
330
C
100
AcDbDictionary
281
     1
  3
Standard
350
60
  0
DICTIONARY
  5
61
102
{ACAD_REACTORS
330
C
102
}
330
C
100
AcDbDictionary
281
     1
  0
ACDBDICTIONARYWDFLT
  5
E
102
{ACAD_REACTORS
330
C
102
}
330
C
100
AcDbDictionary
281
     1
  3
Normal
350
F
100
AcDbDictionaryWithDefault
340
F
  0
DICTIONARY
  5
42
102
{ACAD_REACTORS
330
C
102
}
330
C
100
AcDbDictionary
281
     1
  3
A0
350
43
  3
A1
350
44
  3
A2
350
45
  3
A3
350
46
  3
A4
350
47
  3
A5
350
48
  3
A6
350
49
  3
A7
350
4A
  3
A8
350
4B
  3
A9
350
4C
  3
B0
350
4D
  3
B1
350
4E
  3
B2
350
4F
  3
B3
350
50
  3
B4
350
51
  3
B5
350
52
  3
B6
350
53
  0
DICTIONARY
  5
64
102
{ACAD_REACTORS
330
C
102
}
330
C
100
AcDbDictionary
281
     1
  3
Standard
350
65
  0
DICTIONARY
  5
29
102
{ACAD_REACTORS
330
C
102
}
330
C
100
AcDbDictionary
281
     1
  3
2dWireframe
350
2F
  3
Basic
350
2E
  3
Brighten
350
35
  3
ColorChange
350
39
  3
Conceptual
350
32
  3
Dim
350
34
  3
EdgeColorOff
350
41
  3
Facepattern
350
38
  3
Flat
350
2A
  3
FlatWithEdges
350
2B
  3
Gouraud
350
2C
  3
GouraudWithEdges
350
2D
  3
Hidden
350
31
  3
JitterOff
350
3F
  3
Linepattern
350
37
  3
OverhangOff
350
40
  3
Realistic
350
33
  3
Shaded
350
3E
  3
Shaded with edges
350
3D
  3
Shades of Gray
350
3A
  3
Sketchy
350
3B
  3
Thicken
350
36
  3
Wireframe
350
30
  3
X-Ray
350
3C
  0
XRECORD
  5
6F6F
102
{ACAD_REACTORS
330
C
102
}
330
C
100
AcDbXrecord
280
     1
 90
        1
330
65
330
57BC
330
6566
330
657D
330
657E
330
657F
330
6638
330
6639
330
66F4
330
66F5
330
6864
330
6865
330
692D
330
69F3
330
69F4
  0
DICTIONARY
  5
4B8
102
{ACAD_REACTORS
330
C
102
}
330
C
100
AcDbDictionary
281
     1
  3
CANNOSCALE
350
4BB
  3
CMLEADERSTYLE
350
4BA
  3
CTABLESTYLE
350
4B9
  3
DIMASSOC
350
4A4F
  3
HIDETEXT
350
4A4E
  3
INDEXCTL
350
4A4D
  3
LATITUDE
350
520B
  3
LAYEREVAL
350
4A4A
  3
LAYERNOTIFY
350
4A4B
  3
LIGHTINGUNITS
350
4A49
  3
LONGITUDE
350
520C
  3
MSLTSCALE
350
4A48
  3
SORTENTS
350
4A4C
  3
TIMEZONE
350
520D
  3
XCLIPFRAME
350
520E
  0
XRECORD
  5
6F70
102
{ACAD_REACTORS
330
C
102
}
330
C
100
AcDbXrecord
280
     1
  1
DWGPROPS COOKIE
  2

  3

  4

  6

  7

  8
VPhan
  9

300
=
301
=
302
=
303
=
304
=
305
=
306
=
307
=
308
=
309
=
 40
0.2869259143518518
 41
2456195.353039664
 42
2456197.436989711
  1

 90
        0
  0
DICTIONARY
  5
4AE
102
{ACAD_REACTORS
330
C
102
}
330
C
100
AcDbDictionary
281
     1
  3
DRAWING_TOOL
350
4B2
  3
REVIT_CATEGORY_MAPPING
350
4B0
  3
REVIT_SUB_CATEGORY_MAPPING
350
4B1
  3
REVIT_TYPE_MAPPING
350
4AF
  0
DICTIONARY
  5
F68
102
{ACAD_REACTORS
330
F67
102
}
330
F67
100
AcDbDictionary
281
     1
  0
SORTENTSTABLE
  5
4B4
102
{ACAD_REACTORS
330
4B3
102
}
330
4B3
100
AcDbSortentsTable
330
6C
331
6573
  5
6579
331
600F
  5
600F
331
617E
  5
617E
331
617A
  5
617A
331
608E
  5
608E
331
6176
  5
6176
331
6104
  5
6104
331
6172
  5
6172
331
613F
  5
613F
331
6100
  5
6100
331
60C5
  5
60C5
331
60C1
  5
60C1
331
656B
  5
656B
331
6007
  5
6007
331
6563
  5
6564
331
6042
  5
6042
331
6003
  5
6003
331
60BD
  5
60BD
331
6166
  5
6166
331
607A
  5
607A
331
6162
  5
6162
331
612F
  5
612F
331
612B
  5
612B
331
6072
  5
6072
331
60E8
  5
60E8
331
692C
  5
692D
331
6920
  5
6921
331
655B
  5
655C
331
6557
  5
6557
331
66F7
  5
66EC
331
66F3
  5
66F4
331
6865
  5
6865
331
6861
  5
6861
331
615A
  5
615A
331
6127
  5
6127
331
60AD
  5
60AD
331
685D
  5
685D
331
6156
  5
6156
331
60A9
  5
60A9
331
6123
  5
6123
331
60E4
  5
60E4
331
606A
  5
606A
331
6859
  5
6859
331
6152
  5
6152
331
60E0
  5
60E0
331
6066
  5
6066
331
657E
  5
657F
331
657A
  5
657B
331
66EF
  5
66F0
331
6638
  5
6639
331
6634
  5
6635
331
6630
  5
6631
331
618D
  5
618D
331
605E
  5
605E
331
6185
  5
6185
331
6146
  5
6146
331
6099
  5
6099
331
6181
  5
6181
331
6142
  5
6142
331
6095
  5
6095
331
6056
  5
6056
331
610B
  5
610B
331
6572
  5
6573
331
600E
  5
600E
331
662C
  5
662C
331
600A
  5
600A
331
617D
  5
617D
331
6179
  5
6179
331
6107
  5
6107
331
608D
  5
608D
331
6175
  5
6175
331
6103
  5
6103
331
6089
  5
6089
331
6171
  5
6171
331
613E
  5
613E
331
60C4
  5
60C4
331
60C0
  5
60C0
331
656A
  5
656A
331
6566
  5
6567
331
6006
  5
6006
331
6562
  5
6563
331
6041
  5
6041
331
6002
  5
6002
331
60BC
  5
60BC
331
6165
  5
6165
331
6079
  5
6079
331
6161
  5
6161
331
612E
  5
612E
331
612A
  5
612A
331
6071
  5
6071
331
692F
  5
6920
331
692B
  5
692C
331
6923
  5
6929
331
655A
  5
655B
331
6556
  5
6556
331
66F2
  5
66F3
331
6864
  5
6864
331
619C
  5
619C
331
615D
  5
615D
331
6860
  5
6860
331
6159
  5
6159
331
6126
  5
6126
331
60E7
  5
60E7
331
60AC
  5
60AC
331
685C
  5
685C
331
6155
  5
6155
331
6122
  5
6122
331
60E3
  5
60E3
331
60A8
  5
60A8
331
6858
  5
6858
331
6190
  5
6190
331
60DF
  5
60DF
331
6065
  5
6065
331
691B
  5
691B
331
6581
  5
6570
331
657D
  5
657E
331
6579
  5
657A
331
66EE
  5
66EF
331
663B
  5
662E
331
66EA
  5
66EA
331
6637
  5
6638
331
6633
  5
6634
331
605D
  5
605D
331
6184
  5
6184
331
6145
  5
6145
331
6098
  5
6098
331
6180
  5
6180
331
6141
  5
6141
331
6094
  5
6094
331
6055
  5
6055
331
610A
  5
610A
331
6051
  5
6051
331
6571
  5
6572
331
662F
  5
6630
331
6048
  5
6048
331
6009
  5
6009
331
617C
  5
617C
331
6178
  5
6178
331
6106
  5
6106
331
608C
  5
608C
331
6174
  5
6174
331
60C7
  5
60C7
331
6102
  5
6102
331
6088
  5
6088
331
6170
  5
6170
331
60C3
  5
60C3
331
6080
  5
6080
331
6569
  5
6569
331
6565
  5
6566
331
6040
  5
6040
331
60BF
  5
60BF
331
60BB
  5
60BB
331
6164
  5
6164
331
6131
  5
6131
331
6078
  5
6078
331
6160
  5
6160
331
612D
  5
612D
331
6074
  5
6074
331
6129
  5
6129
331
60EA
  5
60EA
331
692A
  5
692B
331
6922
  5
6923
331
6559
  5
655A
331
66F5
  5
66F6
331
66F1
  5
66F2
331
6863
  5
6863
331
619B
  5
619B
331
615C
  5
615C
331
685F
  5
685F
331
6158
  5
6158
331
6125
  5
6125
331
60E6
  5
60E6
331
60AB
  5
60AB
331
685B
  5
685B
331
6154
  5
6154
331
60E2
  5
60E2
331
60A7
  5
60A7
331
6150
  5
6150
331
60DE
  5
60DE
331
691A
  5
691A
331
657C
  5
657D
331
66ED
  5
66EE
331
66E9
  5
66E9
331
6636
  5
6637
331
6632
  5
6633
331
618F
  5
618F
331
605C
  5
605C
331
6183
  5
6183
331
6144
  5
6144
331
6097
  5
6097
331
6140
  5
6140
331
6093
  5
6093
331
610D
  5
610D
331
6054
  5
6054
331
6050
  5
6050
331
6570
  5
6571
331
662E
  5
662F
331
617F
  5
617F
331
617B
  5
617B
331
608F
  5
608F
331
6177
  5
6177
331
6105
  5
6105
331
6173
  5
6173
331
6101
  5
6101
331
60C6
  5
60C6
331
60C2
  5
60C2
331
6568
  5
6559
331
6047
  5
6047
331
6564
  5
6565
331
6043
  5
6043
331
6004
  5
6004
331
6000
  5
6000
331
616F
  5
616F
331
60BE
  5
60BE
331
607F
  5
607F
331
6167
  5
6167
331
60BA
  5
60BA
331
607B
  5
607B
331
6163
  5
6163
331
6130
  5
6130
331
612C
  5
612C
331
6073
  5
6073
331
6128
  5
6128
331
60E9
  5
60E9
331
692D
  5
692E
331
6929
  5
692A
331
6921
  5
6922
331
655C
  5
6562
331
6558
  5
6558
331
66F4
  5
66F5
331
66F0
  5
66F1
331
57BC
  5
57BC
331
615F
  5
615F
331
6862
  5
6862
331
685E
  5
685E
331
6157
  5
6157
331
60AA
  5
60AA
331
6124
  5
6124
331
60E5
  5
60E5
331
606B
  5
606B
331
685A
  5
685A
331
6192
  5
6192
331
6153
  5
6153
331
60E1
  5
60E1
331
60A6
  5
60A6
331
60DD
  5
60DD
331
657F
  5
6580
331
657B
  5
657C
331
66EC
  5
66ED
331
6639
  5
663A
331
66E8
  5
66E8
331
6635
  5
6636
331
6631
  5
6632
331
618E
  5
618E
331
614F
  5
614F
331
6186
  5
6186
331
6147
  5
6147
331
605B
  5
605B
331
6182
  5
6182
331
6143
  5
6143
331
6096
  5
6096
331
6057
  5
6057
331
610C
  5
610C
331
6092
  5
6092
331
6108
  5
6108
  0
XRECORD
  5
6F54
102
{ACAD_REACTORS
330
6F53
102
}
330
6F53
100
AcDbXrecord
280
     1
 40
58288.0
  1
\A1;\pxqc;{\fArial|b1|i0|c0|p34;CCTQ-SDS2.5}
  0
XRECORD
  5
6F56
102
{ACAD_REACTORS
330
6F55
102
}
330
6F55
100
AcDbXrecord
280
     1
 40
36040.0
  1
\A1;\pxql;{\fArial|b0|i0|c0|p34;L}
  0
XRECORD
  5
6F58
102
{ACAD_REACTORS
330
6F57
102
}
330
6F57
100
AcDbXrecord
280
     1
 40
39961.0
  1
\A1;\pxql;{\fArial|b0|i0|c0|p34;H  =}
  0
XRECORD
  5
6F5A
102
{ACAD_REACTORS
330
6F59
102
}
330
6F59
100
AcDbXrecord
280
     1
 40
35311.0
  1
\A1;\pxql;{\fArial|b0|i0|c0|p34;1}
  0
XRECORD
  5
6F5C
102
{ACAD_REACTORS
330
6F5B
102
}
330
6F5B
100
AcDbXrecord
280
     1
 40
36550.0
  1
\A1;\pxql;{\fArial|b0|i0|c0|p34;7"}
  0
XRECORD
  5
6F5E
102
{ACAD_REACTORS
330
6F5D
102
}
330
6F5D
100
AcDbXrecord
280
     1
 40
36337.0
  1
\A1;\pxql;{\fArial|b0|i0|c0|p34;W}
  0
XRECORD
  5
6F60
102
{ACAD_REACTORS
330
6F5F
102
}
330
6F5F
100
AcDbXrecord
280
     1
 40
35338.0
  1
\A1;\pxql;{\fArial|b0|i0|c0|p34;2}
  0
XRECORD
  5
6F62
102
{ACAD_REACTORS
330
6F61
102
}
330
6F61
100
AcDbXrecord
280
     1
 40
35932.0
  1
\A1;\pxql;{\fArial|b0|i0|c0|p34;H}
  0
XRECORD
  5
6F64
102
{ACAD_REACTORS
330
6F63
102
}
330
6F63
100
AcDbXrecord
280
     1
 40
35338.0
  1
\A1;\pxql;{\fArial|b0|i0|c0|p34;2}
  0
XRECORD
  5
6F66
102
{ACAD_REACTORS
330
6F65
102
}
330
6F65
100
AcDbXrecord
280
     1
 40
36337.0
  1
\A1;\pxql;{\fArial|b0|i0|c0|p34;W}
  0
XRECORD
  5
6F68
102
{ACAD_REACTORS
330
6F67
102
}
330
6F67
100
AcDbXrecord
280
     1
 40
35365.0
  1
\A1;\pxql;{\fArial|b0|i0|c0|p34;3}
  0
XRECORD
  5
6F6A
102
{ACAD_REACTORS
330
6F69
102
}
330
6F69
100
AcDbXrecord
280
     1
 40
36469.0
  1
\A1;\pxql;{\fArial|b0|i0|c0|p34;4"}
  0
XRECORD
  5
6F6C
102
{ACAD_REACTORS
330
6F6B
102
}
330
6F6B
100
AcDbXrecord
280
     1
 40
36337.0
  1
\A1;\pxql;{\fArial|b0|i0|c0|p34;W}
  0
XRECORD
  5
6F6E
102
{ACAD_REACTORS
330
6F6D
102
}
330
6F6D
100
AcDbXrecord
280
     1
 40
35311.0
  1
\A1;\pxql;{\fArial|b0|i0|c0|p34;1}
  0
LAYOUT
  5
6B
102
{ACAD_XDICTIONARY
360
6FA5
102
}
102
{ACAD_REACTORS
330
62
102
}
330
62
100
AcDbPlotSettings
  1

  2

  4

  6

 40
0.0
 41
0.0
 42
0.0
 43
0.0
 44
0.0
 45
0.0
 46
0.0
 47
0.0
 48
0.0
 49
0.0
140
0.0
141
0.0
142
1.0
143
1.0
 70
   688
 72
     0
 73
     0
 74
     5
  7

 75
    16
147
1.0
148
0.0
149
0.0
100
AcDbLayout
  1
Layout1
 70
     1
 71
     1
 10
0.0
 20
0.0
 11
12.0
 21
9.0
 12
0.0
 22
0.0
 32
0.0
 14
1.000000000000000E+20
 24
1.000000000000000E+20
 34
1.000000000000000E+20
 15
-1.000000000000000E+20
 25
-1.000000000000000E+20
 35
-1.000000000000000E+20
146
0.0
 13
0.0
 23
0.0
 33
0.0
 16
1.0
 26
0.0
 36
0.0
 17
0.0
 27
1.0
 37
0.0
 76
     0
330
68
  0
LAYOUT
  5
73
102
{ACAD_XDICTIONARY
360
6FA9
102
}
102
{ACAD_REACTORS
330
62
102
}
330
62
100
AcDbPlotSettings
  1

  2

  4

  6

 40
0.0
 41
0.0
 42
0.0
 43
0.0
 44
0.0
 45
0.0
 46
0.0
 47
0.0
 48
0.0
 49
0.0
140
0.0
141
0.0
142
1.0
143
1.0
 70
   688
 72
     0
 73
     0
 74
     5
  7

 75
    16
147
1.0
148
0.0
149
0.0
100
AcDbLayout
  1
Layout2
 70
     1
 71
     2
 10
0.0
 20
0.0
 11
12.0
 21
9.0
 12
0.0
 22
0.0
 32
0.0
 14
0.0
 24
0.0
 34
0.0
 15
0.0
 25
0.0
 35
0.0
146
0.0
 13
0.0
 23
0.0
 33
0.0
 16
1.0
 26
0.0
 36
0.0
 17
0.0
 27
1.0
 37
0.0
 76
     0
330
70
  0
LAYOUT
  5
6F
102
{ACAD_XDICTIONARY
360
6FA7
102
}
102
{ACAD_REACTORS
330
62
102
}
330
62
100
AcDbPlotSettings
  1

  2

  4

  6

 40
0.0
 41
0.0
 42
0.0
 43
0.0
 44
0.0
 45
0.0
 46
0.0
 47
0.0
 48
0.0
 49
0.0
140
0.0
141
0.0
142
1.0
143
1.0
 70
  1712
 72
     0
 73
     0
 74
     0
  7

 75
     0
147
1.0
148
0.0
149
0.0
100
AcDbLayout
  1
Model
 70
     1
 71
     0
 10
0.0
 20
0.0
 11
12.0
 21
9.0
 12
0.0
 22
0.0
 32
0.0
 14
0.0
 24
0.0
 34
0.0
 15
0.0
 25
0.0
 35
0.0
146
0.0
 13
0.0
 23
0.0
 33
0.0
 16
1.0
 26
0.0
 36
0.0
 17
0.0
 27
1.0
 37
0.0
 76
     0
330
6C
331
57
  0
MATERIAL
  5
19
102
{ACAD_XDICTIONARY
360
1A
102
}
102
{ACAD_REACTORS
330
10
102
}
330
10
100
AcDbMaterial
  1
ByBlock
 72
     0
 43
0.0208333333333333
 43
0.0
 43
0.0
 43
0.0
 43
0.0
 43
0.0208333333333333
 43
0.0
 43
0.0
 43
0.0
 43
0.0
 43
1.0
 43
0.0
 43
0.0
 43
0.0
 43
0.0
 43
1.0
 77
     0
 47
0.0208333333333333
 47
0.0
 47
0.0
 47
0.0
 47
0.0
 47
0.0208333333333333
 47
0.0
 47
0.0
 47
0.0
 47
0.0
 47
1.0
 47
0.0
 47
0.0
 47
0.0
 47
0.0
 47
1.0
171
     0
 49
0.0208333333333333
 49
0.0
 49
0.0
 49
0.0
 49
0.0
 49
0.0208333333333333
 49
0.0
 49
0.0
 49
0.0
 49
0.0
 49
1.0
 49
0.0
 49
0.0
 49
0.0
 49
0.0
 49
1.0
175
     0
142
0.0208333333333333
142
0.0
142
0.0
142
0.0
142
0.0
142
0.0208333333333333
142
0.0
142
0.0
142
0.0
142
0.0
142
1.0
142
0.0
142
0.0
142
0.0
142
0.0
142
1.0
179
     0
144
0.0208333333333333
144
0.0
144
0.0
144
0.0
144
0.0
144
0.0208333333333333
144
0.0
144
0.0
144
0.0
144
0.0
144
1.0
144
0.0
144
0.0
144
0.0
144
0.0
144
1.0
147
0.0208333333333333
147
0.0
147
0.0
147
0.0
147
0.0
147
0.0208333333333333
147
0.0
147
0.0
147
0.0
147
0.0
147
1.0
147
0.0
147
0.0
147
0.0
147
0.0
147
1.0
  0
MATERIAL
  5
11
102
{ACAD_XDICTIONARY
360
12
102
}
102
{ACAD_REACTORS
330
10
102
}
330
10
100
AcDbMaterial
  1
ByLayer
 72
     0
 43
0.0208333333333333
 43
0.0
 43
0.0
 43
0.0
 43
0.0
 43
0.0208333333333333
 43
0.0
 43
0.0
 43
0.0
 43
0.0
 43
1.0
 43
0.0
 43
0.0
 43
0.0
 43
0.0
 43
1.0
 77
     0
 47
0.0208333333333333
 47
0.0
 47
0.0
 47
0.0
 47
0.0
 47
0.0208333333333333
 47
0.0
 47
0.0
 47
0.0
 47
0.0
 47
1.0
 47
0.0
 47
0.0
 47
0.0
 47
0.0
 47
1.0
171
     0
 49
0.0208333333333333
 49
0.0
 49
0.0
 49
0.0
 49
0.0
 49
0.0208333333333333
 49
0.0
 49
0.0
 49
0.0
 49
0.0
 49
1.0
 49
0.0
 49
0.0
 49
0.0
 49
0.0
 49
1.0
175
     0
142
0.0208333333333333
142
0.0
142
0.0
142
0.0
142
0.0
142
0.0208333333333333
142
0.0
142
0.0
142
0.0
142
0.0
142
1.0
142
0.0
142
0.0
142
0.0
142
0.0
142
1.0
179
     0
144
0.0208333333333333
144
0.0
144
0.0
144
0.0
144
0.0
144
0.0208333333333333
144
0.0
144
0.0
144
0.0
144
0.0
144
1.0
144
0.0
144
0.0
144
0.0
144
0.0
144
1.0
147
0.0208333333333333
147
0.0
147
0.0
147
0.0
147
0.0
147
0.0208333333333333
147
0.0
147
0.0
147
0.0
147
0.0
147
1.0
147
0.0
147
0.0
147
0.0
147
0.0
147
1.0
  0
MATERIAL
  5
21
102
{ACAD_XDICTIONARY
360
22
102
}
102
{ACAD_REACTORS
330
10
102
}
330
10
100
AcDbMaterial
  1
Global
 72
     0
 43
0.0208333333333333
 43
0.0
 43
0.0
 43
0.0
 43
0.0
 43
0.0208333333333333
 43
0.0
 43
0.0
 43
0.0
 43
0.0
 43
1.0
 43
0.0
 43
0.0
 43
0.0
 43
0.0
 43
1.0
 77
     0
 47
0.0208333333333333
 47
0.0
 47
0.0
 47
0.0
 47
0.0
 47
0.0208333333333333
 47
0.0
 47
0.0
 47
0.0
 47
0.0
 47
1.0
 47
0.0
 47
0.0
 47
0.0
 47
0.0
 47
1.0
171
     0
 49
0.0208333333333333
 49
0.0
 49
0.0
 49
0.0
 49
0.0
 49
0.0208333333333333
 49
0.0
 49
0.0
 49
0.0
 49
0.0
 49
1.0
 49
0.0
 49
0.0
 49
0.0
 49
0.0
 49
1.0
175
     0
142
0.0208333333333333
142
0.0
142
0.0
142
0.0
142
0.0
142
0.0208333333333333
142
0.0
142
0.0
142
0.0
142
0.0
142
1.0
142
0.0
142
0.0
142
0.0
142
0.0
142
1.0
179
     0
144
0.0208333333333333
144
0.0
144
0.0
144
0.0
144
0.0
144
0.0208333333333333
144
0.0
144
0.0
144
0.0
144
0.0
144
1.0
144
0.0
144
0.0
144
0.0
144
0.0
144
1.0
147
0.0208333333333333
147
0.0
147
0.0
147
0.0
147
0.0
147
0.0208333333333333
147
0.0
147
0.0
147
0.0
147
0.0
147
1.0
147
0.0
147
0.0
147
0.0
147
0.0
147
1.0
  0
MLEADERSTYLE
  5
67
102
{ACAD_XDICTIONARY
360
6F51
102
}
102
{ACAD_REACTORS
330
66
102
}
330
66
100
AcDbMLeaderStyle
170
     2
171
     1
172
     0
 90
        2
 40
0.0
 41
0.0
173
     1
 91
-1056964608
340
5B
 92
       -2
290
     1
 42
0.09
291
     1
 43
0.36
  3
Standard
 44
0.18
300

342
55
174
     1
178
     6
175
     1
176
     0
 93
-1056964608
 45
0.18
292
     0
297
     0
 46
0.18
 94
-1056964608
 47
1.0
 49
1.0
140
1.0
293
     1
141
0.0
294
     1
177
     0
142
1.0
295
     0
296
     0
143
0.125
1001
ACAD_MLEADERVER
1070
     2
  0
MLINESTYLE
  5
60
102
{ACAD_REACTORS
330
5F
102
}
330
5F
100
AcDbMlineStyle
  2
STANDARD
 70
     0
  3

 62
   256
 51
90.0
 52
90.0
 71
     2
 49
0.5
 62
   256
  6
BYLAYER
 49
-0.5
 62
   256
  6
BYLAYER
  0
ACDBPLACEHOLDER
  5
F
102
{ACAD_REACTORS
330
E
102
}
330
E
  0
SCALE
  5
43
102
{ACAD_REACTORS
330
42
102
}
330
42
100
AcDbScale
 70
     0
300
1:1
140
1.0
141
1.0
290
     1
  0
SCALE
  5
44
102
{ACAD_REACTORS
330
42
102
}
330
42
100
AcDbScale
 70
     0
300
1/128" = 1'-0"
140
0.0078125
141
12.0
290
     0
  0
SCALE
  5
45
102
{ACAD_REACTORS
330
42
102
}
330
42
100
AcDbScale
 70
     0
300
1/64" = 1'-0"
140
0.015625
141
12.0
290
     0
  0
SCALE
  5
46
102
{ACAD_REACTORS
330
42
102
}
330
42
100
AcDbScale
 70
     0
300
1/32" = 1'-0"
140
0.03125
141
12.0
290
     0
  0
SCALE
  5
47
102
{ACAD_REACTORS
330
42
102
}
330
42
100
AcDbScale
 70
     0
300
1/16" = 1'-0"
140
0.0625
141
12.0
290
     0
  0
SCALE
  5
48
102
{ACAD_REACTORS
330
42
102
}
330
42
100
AcDbScale
 70
     0
300
3/32" = 1'-0"
140
0.09375
141
12.0
290
     0
  0
SCALE
  5
49
102
{ACAD_REACTORS
330
42
102
}
330
42
100
AcDbScale
 70
     0
300
1/8" = 1'-0"
140
0.125
141
12.0
290
     0
  0
SCALE
  5
4A
102
{ACAD_REACTORS
330
42
102
}
330
42
100
AcDbScale
 70
     0
300
3/16" = 1'-0"
140
0.1875
141
12.0
290
     0
  0
SCALE
  5
4B
102
{ACAD_REACTORS
330
42
102
}
330
42
100
AcDbScale
 70
     0
300
1/4" = 1'-0"
140
0.25
141
12.0
290
     0
  0
SCALE
  5
4C
102
{ACAD_REACTORS
330
42
102
}
330
42
100
AcDbScale
 70
     0
300
3/8" = 1'-0"
140
0.375
141
12.0
290
     0
  0
SCALE
  5
4D
102
{ACAD_REACTORS
330
42
102
}
330
42
100
AcDbScale
 70
     0
300
1/2" = 1'-0"
140
0.5
141
12.0
290
     0
  0
SCALE
  5
4E
102
{ACAD_REACTORS
330
42
102
}
330
42
100
AcDbScale
 70
     0
300
3/4" = 1'-0"
140
0.75
141
12.0
290
     0
  0
SCALE
  5
4F
102
{ACAD_REACTORS
330
42
102
}
330
42
100
AcDbScale
 70
     0
300
1" = 1'-0"
140
1.0
141
12.0
290
     0
  0
SCALE
  5
50
102
{ACAD_REACTORS
330
42
102
}
330
42
100
AcDbScale
 70
     0
300
1-1/2" = 1'-0"
140
1.5
141
12.0
290
     0
  0
SCALE
  5
51
102
{ACAD_REACTORS
330
42
102
}
330
42
100
AcDbScale
 70
     0
300
3" = 1'-0"
140
3.0
141
12.0
290
     0
  0
SCALE
  5
52
102
{ACAD_REACTORS
330
42
102
}
330
42
100
AcDbScale
 70
     0
300
6" = 1'-0"
140
6.0
141
12.0
290
     0
  0
SCALE
  5
53
102
{ACAD_REACTORS
330
42
102
}
330
42
100
AcDbScale
 70
     0
300
1'-0" = 1'-0"
140
12.0
141
12.0
290
     0
  0
TABLESTYLE
  5
65
102
{ACAD_XDICTIONARY
360
49DD
102
}
102
{ACAD_REACTORS
330
64
102
}
330
64
100
AcDbTableStyle
  3
Standard
 70
     0
 71
     0
 40
0.06
 41
0.06
280
     0
281
     0
  7
Standard
140
0.18
170
     2
 62
     0
 63
     7
283
     0
274
    -2
284
     1
 64
     0
275
    -2
285
     1
 65
     0
276
    -2
286
     1
 66
     0
277
    -2
287
     1
 67
     0
278
    -2
288
     1
 68
     0
279
    -2
289
     1
 69
     0
  7
Standard
140
0.25
170
     5
 62
     0
 63
     7
283
     0
274
    -2
284
     1
 64
     0
275
    -2
285
     1
 65
     0
276
    -2
286
     1
 66
     0
277
    -2
287
     1
 67
     0
278
    -2
288
     1
 68
     0
279
    -2
289
     1
 69
     0
  7
Standard
140
0.18
170
     5
 62
     0
 63
     7
283
     0
274
    -2
284
     1
 64
     0
275
    -2
285
     1
 65
     0
276
    -2
286
     1
 66
     0
277
    -2
287
     1
 67
     0
278
    -2
288
     1
 68
     0
279
    -2
289
     1
 69
     0
  0
VISUALSTYLE
  5
2F
102
{ACAD_XDICTIONARY
360
6F7E
102
}
102
{ACAD_REACTORS
330
29
102
}
330
29
100
AcDbVisualStyle
  2
2dWireframe
 70
     4
 71
     0
 72
     2
 73
     0
 90
        0
 40
-0.6
 41
-30.0
 62
     5
 63
     7
 74
     1
 91
        4
 64
     7
 65
   257
 75
     1
175
     1
 42
1.0
 92
        0
 66
   257
 43
1.0
 76
     1
 77
     6
 78
     2
 67
     7
 79
     5
170
     0
171
     0
290
     0
174
     0
 93
        1
 44
0.0
173
     0
291
     0
 45
0.0
1001
ACAD
1000
AcDbSavedByObjectVersion
1070
     0
  0
VISUALSTYLE
  5
2E
102
{ACAD_XDICTIONARY
360
6F7C
102
}
102
{ACAD_REACTORS
330
29
102
}
330
29
100
AcDbVisualStyle
  2
Basic
 70
     7
 71
     1
 72
     0
 73
     1
 90
        0
 40
-0.6
 41
-30.0
 62
     5
 63
     7
 74
     0
 91
        4
 64
     7
 65
   257
 75
     1
175
     1
 42
1.0
 92
        8
 66
     7
 43
1.0
 76
     1
 77
     6
 78
     2
 67
     7
 79
     5
170
     0
171
     0
290
     0
174
     0
 93
        1
 44
0.0
173
     0
291
     1
 45
0.0
1001
ACAD
1000
AcDbSavedByObjectVersion
1070
     0
  0
VISUALSTYLE
  5
35
102
{ACAD_XDICTIONARY
360
6F8A
102
}
102
{ACAD_REACTORS
330
29
102
}
330
29
100
AcDbVisualStyle
  2
Brighten
 70
    12
 71
     2
 72
     2
 73
     0
 90
        0
 40
-0.6
 41
-30.0
 62
     5
 63
     7
 74
     1
 91
        4
 64
     7
 65
   257
 75
     1
175
     1
 42
1.0
 92
        8
 66
     7
 43
1.0
 76
     1
 77
     6
 78
     2
 67
     7
 79
     5
170
     0
171
     0
290
     0
174
     0
 93
        1
 44
50.0
173
     0
291
     1
 45
0.0
1001
ACAD
1000
AcDbSavedByObjectVersion
1070
     0
  0
VISUALSTYLE
  5
39
102
{ACAD_XDICTIONARY
360
6F92
102
}
102
{ACAD_REACTORS
330
29
102
}
330
29
100
AcDbVisualStyle
  2
ColorChange
 70
    16
 71
     2
 72
     2
 73
     3
 90
        0
 40
-0.6
 41
-30.0
 62
     5
 63
     8
 74
     1
 91
        4
 64
     7
 65
   257
 75
     1
175
     1
 42
1.0
 92
        8
 66
     8
 43
1.0
 76
     1
 77
     6
 78
     2
 67
     7
 79
     5
170
     0
171
     0
290
     0
174
     0
 93
        1
 44
0.0
173
     0
291
     1
 45
0.0
1001
ACAD
1000
AcDbSavedByObjectVersion
1070
     0
  0
VISUALSTYLE
  5
32
102
{ACAD_XDICTIONARY
360
6F84
102
}
102
{ACAD_REACTORS
330
29
102
}
330
29
100
AcDbVisualStyle
  2
Conceptual
 70
     9
 71
     3
 72
     2
 73
     0
 90
        0
 40
-0.6
 41
-30.0
 62
     5
 63
     7
 74
     2
 91
        2
 64
     7
 65
   257
 75
     1
175
     1
 42
179.0
 92
        8
 66
     7
 43
1.0
 76
     1
 77
     6
 78
     2
 67
     7
 79
     3
170
     0
171
     0
290
     0
174
     0
 93
        1
 44
0.0
173
     0
291
     0
 45
0.0
1001
ACAD
1000
AcDbSavedByObjectVersion
1070
     0
  0
VISUALSTYLE
  5
34
102
{ACAD_XDICTIONARY
360
6F88
102
}
102
{ACAD_REACTORS
330
29
102
}
330
29
100
AcDbVisualStyle
  2
Dim
 70
    11
 71
     2
 72
     2
 73
     0
 90
        0
 40
-0.6
 41
-30.0
 62
     5
 63
     7
 74
     1
 91
        4
 64
     7
 65
   257
 75
     1
175
     1
 42
1.0
 92
        8
 66
     7
 43
1.0
 76
     1
 77
     6
 78
     2
 67
     7
 79
     5
170
     0
171
     0
290
     0
174
     0
 93
        1
 44
-50.0
173
     0
291
     1
 45
0.0
1001
ACAD
1000
AcDbSavedByObjectVersion
1070
     0
  0
VISUALSTYLE
  5
41
102
{ACAD_XDICTIONARY
360
6FA2
102
}
102
{ACAD_REACTORS
330
29
102
}
330
29
100
AcDbVisualStyle
  2
EdgeColorOff
 70
    22
 71
     2
 72
     2
 73
     0
 90
        0
 40
-0.6
 41
-30.0
 62
     5
 63
     7
 74
     1
 91
        4
 64
     7
 65
   257
 75
     1
175
     1
 42
1.0
 92
        8
 66
     7
 43
1.0
 76
     1
 77
     6
 78
     2
 67
     7
 79
     5
170
     0
171
     0
290
     0
174
     0
 93
        1
 44
0.0
173
     0
291
     1
 45
0.0
1001
ACAD
1000
AcDbSavedByObjectVersion
1070
     0
  0
VISUALSTYLE
  5
38
102
{ACAD_XDICTIONARY
360
6F90
102
}
102
{ACAD_REACTORS
330
29
102
}
330
29
100
AcDbVisualStyle
  2
Facepattern
 70
    15
 71
     2
 72
     2
 73
     0
 90
        0
 40
-0.6
 41
-30.0
 62
     5
 63
     7
 74
     1
 91
        4
 64
     7
 65
   257
 75
     1
175
     1
 42
1.0
 92
        8
 66
     7
 43
1.0
 76
     1
 77
     6
 78
     2
 67
     7
 79
     5
170
     0
171
     0
290
     0
174
     0
 93
        1
 44
0.0
173
     0
291
     1
 45
0.0
1001
ACAD
1000
AcDbSavedByObjectVersion
1070
     0
  0
VISUALSTYLE
  5
2A
102
{ACAD_XDICTIONARY
360
6F74
102
}
102
{ACAD_REACTORS
330
29
102
}
330
29
100
AcDbVisualStyle
  2
Flat
 70
     0
 71
     2
 72
     1
 73
     1
 90
        2
 40
-0.6
 41
30.0
 62
     5
 63
     7
 74
     0
 91
        0
 64
     7
 65
   257
 75
     1
175
     1
 42
1.0
 92
        8
 66
     7
 43
1.0
 76
     1
 77
     6
 78
     2
 67
     7
 79
     5
170
     0
171
     0
290
     0
174
     0
 93
       13
 44
0.0
173
     0
291
     1
 45
0.0
1001
ACAD
1000
AcDbSavedByObjectVersion
1070
     0
  0
VISUALSTYLE
  5
2B
102
{ACAD_XDICTIONARY
360
6F76
102
}
102
{ACAD_REACTORS
330
29
102
}
330
29
100
AcDbVisualStyle
  2
FlatWithEdges
 70
     1
 71
     2
 72
     1
 73
     1
 90
        2
 40
-0.6
 41
30.0
 62
     5
 63
     7
 74
     1
 91
        0
 64
     7
 65
   257
 75
     1
175
     1
 42
1.0
 92
        0
 66
   257
 43
1.0
 76
     1
 77
     6
 78
     2
 67
     7
 79
     5
170
     0
171
     0
290
     0
174
     0
 93
       13
 44
0.0
173
     0
291
     1
 45
0.0
1001
ACAD
1000
AcDbSavedByObjectVersion
1070
     0
  0
VISUALSTYLE
  5
2C
102
{ACAD_XDICTIONARY
360
6F78
102
}
102
{ACAD_REACTORS
330
29
102
}
330
29
100
AcDbVisualStyle
  2
Gouraud
 70
     2
 71
     2
 72
     2
 73
     1
 90
        2
 40
-0.6
 41
30.0
 62
     5
 63
     7
 74
     0
 91
        0
 64
     7
 65
   257
 75
     1
175
     1
 42
1.0
 92
        0
 66
     7
 43
1.0
 76
     1
 77
     6
 78
     2
 67
     7
 79
     5
170
     0
171
     0
290
     0
174
     0
 93
       13
 44
0.0
173
     0
291
     1
 45
0.0
1001
ACAD
1000
AcDbSavedByObjectVersion
1070
     0
  0
VISUALSTYLE
  5
2D
102
{ACAD_XDICTIONARY
360
6F7A
102
}
102
{ACAD_REACTORS
330
29
102
}
330
29
100
AcDbVisualStyle
  2
GouraudWithEdges
 70
     3
 71
     2
 72
     2
 73
     1
 90
        2
 40
-0.6
 41
30.0
 62
     5
 63
     7
 74
     1
 91
        0
 64
     7
 65
   257
 75
     1
175
     1
 42
1.0
 92
        0
 66
   257
 43
1.0
 76
     1
 77
     6
 78
     2
 67
     7
 79
     5
170
     0
171
     0
290
     0
174
     0
 93
       13
 44
0.0
173
     0
291
     1
 45
0.0
1001
ACAD
1000
AcDbSavedByObjectVersion
1070
     0
  0
VISUALSTYLE
  5
31
102
{ACAD_XDICTIONARY
360
6F82
102
}
102
{ACAD_REACTORS
330
29
102
}
330
29
100
AcDbVisualStyle
  2
Hidden
 70
     6
 71
     1
 72
     2
 73
     2
 90
        0
 40
-0.6
 41
-30.0
 62
     5
 63
     7
 74
     2
 91
        2
 64
     7
 65
   257
 75
     2
175
     1
 42
40.0
 92
        0
 66
   257
 43
1.0
 76
     1
 77
     6
 78
     2
 67
     7
 79
     3
170
     0
171
     0
290
     0
174
     0
 93
        1
 44
0.0
173
     0
291
     0
 45
0.0
1001
ACAD
1000
AcDbSavedByObjectVersion
1070
     0
  0
VISUALSTYLE
  5
3F
102
{ACAD_XDICTIONARY
360
6F9E
102
}
102
{ACAD_REACTORS
330
29
102
}
330
29
100
AcDbVisualStyle
  2
JitterOff
 70
    20
 71
     2
 72
     2
 73
     0
 90
        0
 40
-0.6
 41
-30.0
 62
     5
 63
     7
 74
     1
 91
        4
 64
     7
 65
   257
 75
     1
175
     1
 42
1.0
 92
       10
 66
     7
 43
1.0
 76
     1
 77
     6
 78
     2
 67
     7
 79
     5
170
     0
171
     0
290
     0
174
     0
 93
        1
 44
0.0
173
     0
291
     1
 45
0.0
1001
ACAD
1000
AcDbSavedByObjectVersion
1070
     0
  0
VISUALSTYLE
  5
37
102
{ACAD_XDICTIONARY
360
6F8E
102
}
102
{ACAD_REACTORS
330
29
102
}
330
29
100
AcDbVisualStyle
  2
Linepattern
 70
    14
 71
     2
 72
     2
 73
     0
 90
        0
 40
-0.6
 41
-30.0
 62
     5
 63
     7
 74
     1
 91
        4
 64
     7
 65
   257
 75
     7
175
     7
 42
1.0
 92
        8
 66
     7
 43
1.0
 76
     1
 77
     6
 78
     2
 67
     7
 79
     5
170
     0
171
     0
290
     0
174
     0
 93
        1
 44
0.0
173
     0
291
     1
 45
0.0
1001
ACAD
1000
AcDbSavedByObjectVersion
1070
     0
  0
VISUALSTYLE
  5
40
102
{ACAD_XDICTIONARY
360
6FA0
102
}
102
{ACAD_REACTORS
330
29
102
}
330
29
100
AcDbVisualStyle
  2
OverhangOff
 70
    21
 71
     2
 72
     2
 73
     0
 90
        0
 40
-0.6
 41
-30.0
 62
     5
 63
     7
 74
     1
 91
        4
 64
     7
 65
   257
 75
     1
175
     1
 42
1.0
 92
        9
 66
     7
 43
1.0
 76
     1
 77
     6
 78
     2
 67
     7
 79
     5
170
     0
171
     0
290
     0
174
     0
 93
        1
 44
0.0
173
     0
291
     1
 45
0.0
1001
ACAD
1000
AcDbSavedByObjectVersion
1070
     0
  0
VISUALSTYLE
  5
33
102
{ACAD_XDICTIONARY
360
6F86
102
}
102
{ACAD_REACTORS
330
29
102
}
330
29
100
AcDbVisualStyle
  2
Realistic
 70
     8
 71
     2
 72
     2
 73
     0
 90
        2
 40
-0.6
 41
30.0
 62
     5
 63
     7
 74
     0
 91
        0
 64
     7
 65
   257
 75
     1
175
     1
 42
1.0
 92
        8
 66
   257
 43
1.0
 76
     1
 77
     6
 78
     2
 67
     7
 79
     3
170
     0
171
     0
290
     0
174
     0
 93
       13
 44
0.0
173
     0
291
     0
 45
0.0
1001
ACAD
1000
AcDbSavedByObjectVersion
1070
     0
  0
VISUALSTYLE
  5
3E
102
{ACAD_XDICTIONARY
360
6F9C
102
}
102
{ACAD_REACTORS
330
29
102
}
330
29
100
AcDbVisualStyle
  2
Shaded
 70
    27
 71
     2
 72
     2
 73
     1
 90
        2
 40
-0.6
 41
30.0
 62
     5
 63
     7
 74
     0
 91
        4
 64
     7
 65
   257
 75
     1
175
     1
 42
1.0
 92
        8
 66
   257
 43
1.0
 76
     1
 77
     6
 78
     2
 67
     8
 79
     3
170
     0
171
     0
290
     0
174
     0
 93
        5
 44
0.0
173
     0
291
     0
 45
0.0
1001
ACAD
1000
AcDbSavedByObjectVersion
1070
     0
  0
VISUALSTYLE
  5
3D
102
{ACAD_XDICTIONARY
360
6F9A
102
}
102
{ACAD_REACTORS
330
29
102
}
330
29
100
AcDbVisualStyle
  2
Shaded with edges
 70
    26
 71
     2
 72
     2
 73
     1
 90
        2
 40
-0.6
 41
30.0
 62
     5
 63
     7
 74
     1
 91
       10
 64
     7
 65
   257
 75
     2
175
     1
 42
1.0
 92
        8
 66
   257
 43
1.0
 76
     1
 77
     6
 78
     2
 67
     7
 79
     3
170
     0
171
     0
290
     0
174
     0
 93
        5
 44
0.0
173
     0
291
     0
 45
0.0
1001
ACAD
1000
AcDbSavedByObjectVersion
1070
     0
  0
VISUALSTYLE
  5
3A
102
{ACAD_XDICTIONARY
360
6F94
102
}
102
{ACAD_REACTORS
330
29
102
}
330
29
100
AcDbVisualStyle
  2
Shades of Gray
 70
    23
 71
     2
 72
     2
 73
     3
 90
        0
 40
-0.6
 41
-30.0
 62
     5
 63
     7
 74
     2
 91
        2
 64
     7
 65
     7
 75
     1
175
     1
 42
40.0
 92
        8
 66
     7
 43
1.0
 76
     1
 77
     6
 78
     2
 67
     7
 79
     3
170
     0
171
     0
290
     0
174
     0
 93
        1
 44
0.0
173
     0
291
     0
 45
0.0
1001
ACAD
1000
AcDbSavedByObjectVersion
1070
     0
  0
VISUALSTYLE
  5
3B
102
{ACAD_XDICTIONARY
360
6F96
102
}
102
{ACAD_REACTORS
330
29
102
}
330
29
100
AcDbVisualStyle
  2
Sketchy
 70
    24
 71
     1
 72
     2
 73
     2
 90
        0
 40
-0.6
 41
-30.0
 62
     5
 63
     7
 74
     2
 91
        2
 64
     7
 65
     7
 75
     1
175
     1
 42
40.0
 92
       11
 66
     7
 43
1.0
 76
     1
 77
     6
 78
     2
 67
     7
 79
     6
170
     0
171
     0
290
     0
174
     0
 93
        1
 44
0.0
173
     0
291
     0
 45
0.0
1001
ACAD
1000
AcDbSavedByObjectVersion
1070
     0
  0
VISUALSTYLE
  5
36
102
{ACAD_XDICTIONARY
360
6F8C
102
}
102
{ACAD_REACTORS
330
29
102
}
330
29
100
AcDbVisualStyle
  2
Thicken
 70
    13
 71
     2
 72
     2
 73
     0
 90
        0
 40
-0.6
 41
-30.0
 62
     5
 63
     7
 74
     1
 91
        4
 64
     7
 65
   257
 75
     1
175
     1
 42
1.0
 92
       12
 66
     7
 43
1.0
 76
     1
 77
     6
 78
     2
 67
     7
 79
     5
170
     0
171
     0
290
     0
174
     0
 93
        1
 44
0.0
173
     0
291
     1
 45
0.0
1001
ACAD
1000
AcDbSavedByObjectVersion
1070
     0
  0
VISUALSTYLE
  5
30
102
{ACAD_XDICTIONARY
360
6F80
102
}
102
{ACAD_REACTORS
330
29
102
}
330
29
100
AcDbVisualStyle
  2
Wireframe
 70
     5
 71
     0
 72
     2
 73
     0
 90
        0
 40
-0.6
 41
-30.0
 62
     5
 63
     7
 74
     1
 91
        4
 64
     7
 65
   257
 75
     1
175
     1
 42
1.0
 92
        0
 66
   257
 43
1.0
 76
     1
 77
     6
 78
     2
 67
     7
 79
     3
170
     0
171
     0
290
     0
174
     0
 93
        1
 44
0.0
173
     0
291
     0
 45
0.0
1001
ACAD
1000
AcDbSavedByObjectVersion
1070
     0
  0
VISUALSTYLE
  5
3C
102
{ACAD_XDICTIONARY
360
6F98
102
}
102
{ACAD_REACTORS
330
29
102
}
330
29
100
AcDbVisualStyle
  2
X-Ray
 70
    25
 71
     2
 72
     2
 73
     1
 90
        1
 40
0.5
 41
-30.0
 62
     5
 63
     7
 74
     1
 91
        0
 64
     7
 65
   257
 75
     1
175
     1
 42
1.0
 92
        8
 66
     7
 43
1.0
 76
     1
 77
     6
 78
     2
 67
     7
 79
     3
170
     0
171
     0
290
     0
174
     0
 93
       13
 44
0.0
173
     0
291
     0
 45
0.0
1001
ACAD
1000
AcDbSavedByObjectVersion
1070
     0
  0
DICTIONARYVAR
  5
4BB
102
{ACAD_REACTORS
330
4B8
102
}
330
4B8
100
DictionaryVariables
280
     0
  1
1:1
  0
DICTIONARYVAR
  5
4BA
102
{ACAD_REACTORS
330
4B8
102
}
330
4B8
100
DictionaryVariables
280
     0
  1
STANDARD
  0
DICTIONARYVAR
  5
4B9
102
{ACAD_REACTORS
330
4B8
102
}
330
4B8
100
DictionaryVariables
280
     0
  1
STANDARD
  0
DICTIONARYVAR
  5
4A4F
102
{ACAD_REACTORS
330
4B8
102
}
330
4B8
100
DictionaryVariables
280
     0
  1
2
  0
DICTIONARYVAR
  5
4A4E
102
{ACAD_REACTORS
330
4B8
102
}
330
4B8
100
DictionaryVariables
280
     0
  1
1
  0
DICTIONARYVAR
  5
4A4D
102
{ACAD_REACTORS
330
4B8
102
}
330
4B8
100
DictionaryVariables
280
     0
  1
0
  0
DICTIONARYVAR
  5
520B
102
{ACAD_REACTORS
330
4B8
102
}
330
4B8
100
DictionaryVariables
280
     0
  1
0.000000
  0
DICTIONARYVAR
  5
4A4A
102
{ACAD_REACTORS
330
4B8
102
}
330
4B8
100
DictionaryVariables
280
     0
  1
0
  0
DICTIONARYVAR
  5
4A4B
102
{ACAD_REACTORS
330
4B8
102
}
330
4B8
100
DictionaryVariables
280
     0
  1
0
  0
DICTIONARYVAR
  5
4A49
102
{ACAD_REACTORS
330
4B8
102
}
330
4B8
100
DictionaryVariables
280
     0
  1
2
  0
DICTIONARYVAR
  5
520C
102
{ACAD_REACTORS
330
4B8
102
}
330
4B8
100
DictionaryVariables
280
     0
  1
0.000000
  0
DICTIONARYVAR
  5
4A48
102
{ACAD_REACTORS
330
4B8
102
}
330
4B8
100
DictionaryVariables
280
     0
  1
1
  0
DICTIONARYVAR
  5
4A4C
102
{ACAD_REACTORS
330
4B8
102
}
330
4B8
100
DictionaryVariables
280
     0
  1
127
  0
DICTIONARYVAR
  5
520D
102
{ACAD_REACTORS
330
4B8
102
}
330
4B8
100
DictionaryVariables
280
     0
  1
0
  0
DICTIONARYVAR
  5
520E
102
{ACAD_REACTORS
330
4B8
102
}
330
4B8
100
DictionaryVariables
280
     0
  1
2
  0
XRECORD
  5
4B2
102
{ACAD_REACTORS
330
4AE
102
}
330
4AE
100
AcDbXrecord
280
     1
  1
BUILDING_ID
  1
D77
  1
FLOOR_ID
  1
249849
  0
XRECORD
  5
4B0
102
{ACAD_REACTORS
330
4AE
102
}
330
4AE
100
AcDbXrecord
280
     1
  1
-2000151
  1
Generic Models
  1
-2000300
  1
Text Notes
  1
-2001330
  1
Structural Columns
  0
XRECORD
  5
4B1
102
{ACAD_REACTORS
330
4AE
102
}
330
4AE
100
AcDbXrecord
280
     1
  1
248192
  1
MSTA12, 10d, detail D77
  1
249699
  1
A34, 10d, detail D77
  0
XRECORD
  5
4AF
102
{ACAD_REACTORS
330
4AE
102
}
330
4AE
100
AcDbXrecord
280
     1
  1
247167
  1
MSTA12 : MSTA12
  1
248809
  1
d77 : d77
  1
249730
  1
A34 : A34
  1
249858
  1
Text : 3/32"
  1
249862
  1
Text : 1/16"
  1
249866
  1
Text : 1/20"
  0
DICTIONARY
  5
6FA5
330
6B
100
AcDbDictionary
280
     1
281
     1
  3
ACAD_XREC_ROUNDTRIP
360
6FA6
  0
DICTIONARY
  5
6FA9
330
73
100
AcDbDictionary
280
     1
281
     1
  3
ACAD_XREC_ROUNDTRIP
360
6FAA
  0
DICTIONARY
  5
6FA7
330
6F
100
AcDbDictionary
280
     1
281
     1
  3
ACAD_XREC_ROUNDTRIP
360
6FA8
  0
DICTIONARY
  5
1A
330
19
100
AcDbDictionary
280
     1
281
     1
  3
ACAD_XREC_ROUNDTRIP
360
6F72
  3
BUMPTILE
360
1C
  3
DIFFUSETILE
360
1B
  3
OPACITYTILE
360
1F
  3
REFLECTIONTILE
360
1E
  3
REFRACTIONTILE
360
20
  3
SPECULARTILE
360
1D
  0
DICTIONARY
  5
12
330
11
100
AcDbDictionary
280
     1
281
     1
  3
ACAD_XREC_ROUNDTRIP
360
6F71
  3
BUMPTILE
360
14
  3
DIFFUSETILE
360
13
  3
OPACITYTILE
360
17
  3
REFLECTIONTILE
360
16
  3
REFRACTIONTILE
360
18
  3
SPECULARTILE
360
15
  0
DICTIONARY
  5
22
330
21
100
AcDbDictionary
280
     1
281
     1
  3
ACAD_XREC_ROUNDTRIP
360
6F73
  3
BUMPTILE
360
24
  3
DIFFUSETILE
360
23
  3
OPACITYTILE
360
27
  3
REFLECTIONTILE
360
26
  3
REFRACTIONTILE
360
28
  3
SPECULARTILE
360
25
  0
DICTIONARY
  5
6F51
330
67
100
AcDbDictionary
280
     1
281
     1
  3
ACAD_XREC_ROUNDTRIP
360
6F52
  0
DICTIONARY
  5
49DD
330
65
100
AcDbDictionary
280
     1
281
     1
  3
ACAD_ROUNDTRIP_2008_TABLESTYLE_CELLSTYLEMAP
360
6F50
  3
ACAD_XREC_ROUNDTRIP
360
6FA4
  0
DICTIONARY
  5
6F7E
330
2F
100
AcDbDictionary
280
     1
281
     1
  3
ACAD_XREC_ROUNDTRIP
360
6F7F
  0
DICTIONARY
  5
6F7C
330
2E
100
AcDbDictionary
280
     1
281
     1
  3
ACAD_XREC_ROUNDTRIP
360
6F7D
  0
DICTIONARY
  5
6F8A
330
35
100
AcDbDictionary
280
     1
281
     1
  3
ACAD_XREC_ROUNDTRIP
360
6F8B
  0
DICTIONARY
  5
6F92
330
39
100
AcDbDictionary
280
     1
281
     1
  3
ACAD_XREC_ROUNDTRIP
360
6F93
  0
DICTIONARY
  5
6F84
330
32
100
AcDbDictionary
280
     1
281
     1
  3
ACAD_XREC_ROUNDTRIP
360
6F85
  0
DICTIONARY
  5
6F88
330
34
100
AcDbDictionary
280
     1
281
     1
  3
ACAD_XREC_ROUNDTRIP
360
6F89
  0
DICTIONARY
  5
6FA2
330
41
100
AcDbDictionary
280
     1
281
     1
  3
ACAD_XREC_ROUNDTRIP
360
6FA3
  0
DICTIONARY
  5
6F90
330
38
100
AcDbDictionary
280
     1
281
     1
  3
ACAD_XREC_ROUNDTRIP
360
6F91
  0
DICTIONARY
  5
6F74
330
2A
100
AcDbDictionary
280
     1
281
     1
  3
ACAD_XREC_ROUNDTRIP
360
6F75
  0
DICTIONARY
  5
6F76
330
2B
100
AcDbDictionary
280
     1
281
     1
  3
ACAD_XREC_ROUNDTRIP
360
6F77
  0
DICTIONARY
  5
6F78
330
2C
100
AcDbDictionary
280
     1
281
     1
  3
ACAD_XREC_ROUNDTRIP
360
6F79
  0
DICTIONARY
  5
6F7A
330
2D
100
AcDbDictionary
280
     1
281
     1
  3
ACAD_XREC_ROUNDTRIP
360
6F7B
  0
DICTIONARY
  5
6F82
330
31
100
AcDbDictionary
280
     1
281
     1
  3
ACAD_XREC_ROUNDTRIP
360
6F83
  0
DICTIONARY
  5
6F9E
330
3F
100
AcDbDictionary
280
     1
281
     1
  3
ACAD_XREC_ROUNDTRIP
360
6F9F
  0
DICTIONARY
  5
6F8E
330
37
100
AcDbDictionary
280
     1
281
     1
  3
ACAD_XREC_ROUNDTRIP
360
6F8F
  0
DICTIONARY
  5
6FA0
330
40
100
AcDbDictionary
280
     1
281
     1
  3
ACAD_XREC_ROUNDTRIP
360
6FA1
  0
DICTIONARY
  5
6F86
330
33
100
AcDbDictionary
280
     1
281
     1
  3
ACAD_XREC_ROUNDTRIP
360
6F87
  0
DICTIONARY
  5
6F9C
330
3E
100
AcDbDictionary
280
     1
281
     1
  3
ACAD_XREC_ROUNDTRIP
360
6F9D
  0
DICTIONARY
  5
6F9A
330
3D
100
AcDbDictionary
280
     1
281
     1
  3
ACAD_XREC_ROUNDTRIP
360
6F9B
  0
DICTIONARY
  5
6F94
330
3A
100
AcDbDictionary
280
     1
281
     1
  3
ACAD_XREC_ROUNDTRIP
360
6F95
  0
DICTIONARY
  5
6F96
330
3B
100
AcDbDictionary
280
     1
281
     1
  3
ACAD_XREC_ROUNDTRIP
360
6F97
  0
DICTIONARY
  5
6F8C
330
36
100
AcDbDictionary
280
     1
281
     1
  3
ACAD_XREC_ROUNDTRIP
360
6F8D
  0
DICTIONARY
  5
6F80
330
30
100
AcDbDictionary
280
     1
281
     1
  3
ACAD_XREC_ROUNDTRIP
360
6F81
  0
DICTIONARY
  5
6F98
330
3C
100
AcDbDictionary
280
     1
281
     1
  3
ACAD_XREC_ROUNDTRIP
360
6F99
  0
XRECORD
  5
6FA6
102
{ACAD_REACTORS
330
6FA5
102
}
330
6FA5
100
AcDbXrecord
280
     1
102
SHADEPLOT
 70
     0
102
SHADEPLOTRESLEVEL
 70
     2
102
SHADEPLOTCUSTOMDPI
 70
   300
  0
XRECORD
  5
6FAA
102
{ACAD_REACTORS
330
6FA9
102
}
330
6FA9
100
AcDbXrecord
280
     1
102
SHADEPLOT
 70
     0
102
SHADEPLOTRESLEVEL
 70
     2
102
SHADEPLOTCUSTOMDPI
 70
   300
  0
XRECORD
  5
6FA8
102
{ACAD_REACTORS
330
6FA7
102
}
330
6FA7
100
AcDbXrecord
280
     1
102
SHADEPLOT
 70
     0
102
SHADEPLOTRESLEVEL
 70
     2
102
SHADEPLOTCUSTOMDPI
 70
   300
  0
XRECORD
  5
6F72
102
{ACAD_REACTORS
330
1A
102
}
330
1A
100
AcDbXrecord
280
     1
102
MATERIAL
148
0.0
149
0.0
149
0.0
 93
        0
 94
      127
282
     0
 72
     0
 77
     0
171
     0
175
     0
179
     0
273
     0
  0
XRECORD
  5
1C
102
{ACAD_REACTORS
330
1A
102
}
330
1A
100
AcDbXrecord
280
     1
270
     1
271
     1
  0
XRECORD
  5
1B
102
{ACAD_REACTORS
330
1A
102
}
330
1A
100
AcDbXrecord
280
     1
270
     1
271
     1
  0
XRECORD
  5
1F
102
{ACAD_REACTORS
330
1A
102
}
330
1A
100
AcDbXrecord
280
     1
270
     1
271
     1
  0
XRECORD
  5
1E
102
{ACAD_REACTORS
330
1A
102
}
330
1A
100
AcDbXrecord
280
     1
270
     1
271
     1
  0
XRECORD
  5
20
102
{ACAD_REACTORS
330
1A
102
}
330
1A
100
AcDbXrecord
280
     1
270
     1
271
     1
  0
XRECORD
  5
1D
102
{ACAD_REACTORS
330
1A
102
}
330
1A
100
AcDbXrecord
280
     1
270
     1
271
     1
  0
XRECORD
  5
6F71
102
{ACAD_REACTORS
330
12
102
}
330
12
100
AcDbXrecord
280
     1
102
MATERIAL
148
0.0
149
0.0
149
0.0
 93
        0
 94
      127
282
     0
 72
     0
 77
     0
171
     0
175
     0
179
     0
273
     0
  0
XRECORD
  5
14
102
{ACAD_REACTORS
330
12
102
}
330
12
100
AcDbXrecord
280
     1
270
     1
271
     1
  0
XRECORD
  5
13
102
{ACAD_REACTORS
330
12
102
}
330
12
100
AcDbXrecord
280
     1
270
     1
271
     1
  0
XRECORD
  5
17
102
{ACAD_REACTORS
330
12
102
}
330
12
100
AcDbXrecord
280
     1
270
     1
271
     1
  0
XRECORD
  5
16
102
{ACAD_REACTORS
330
12
102
}
330
12
100
AcDbXrecord
280
     1
270
     1
271
     1
  0
XRECORD
  5
18
102
{ACAD_REACTORS
330
12
102
}
330
12
100
AcDbXrecord
280
     1
270
     1
271
     1
  0
XRECORD
  5
15
102
{ACAD_REACTORS
330
12
102
}
330
12
100
AcDbXrecord
280
     1
270
     1
271
     1
  0
XRECORD
  5
6F73
102
{ACAD_REACTORS
330
22
102
}
330
22
100
AcDbXrecord
280
     1
102
MATERIAL
148
0.0
149
0.0
149
0.0
 93
        0
 94
      127
282
     0
 72
     0
 77
     0
171
     0
175
     0
179
     0
273
     0
  0
XRECORD
  5
24
102
{ACAD_REACTORS
330
22
102
}
330
22
100
AcDbXrecord
280
     1
270
     1
271
     1
  0
XRECORD
  5
23
102
{ACAD_REACTORS
330
22
102
}
330
22
100
AcDbXrecord
280
     1
270
     1
271
     1
  0
XRECORD
  5
27
102
{ACAD_REACTORS
330
22
102
}
330
22
100
AcDbXrecord
280
     1
270
     1
271
     1
  0
XRECORD
  5
26
102
{ACAD_REACTORS
330
22
102
}
330
22
100
AcDbXrecord
280
     1
270
     1
271
     1
  0
XRECORD
  5
28
102
{ACAD_REACTORS
330
22
102
}
330
22
100
AcDbXrecord
280
     1
270
     1
271
     1
  0
XRECORD
  5
25
102
{ACAD_REACTORS
330
22
102
}
330
22
100
AcDbXrecord
280
     1
270
     1
271
     1
  0
XRECORD
  5
6F52
102
{ACAD_REACTORS
330
6F51
102
}
330
6F51
100
AcDbXrecord
280
     1
102
ACAD_ROUNDTRIP_2012_MLEADER_STYLE
298
     1
  0
CELLSTYLEMAP
  5
6F50
102
{ACAD_REACTORS
330
49DD
102
}
330
49DD
100
AcDbCellStyleMap
 90
        3
300
CELLSTYLE
  1
TABLEFORMAT_BEGIN
 90
        5
170
     1
 91
        0
 92
    32768
 62
   257
 93
        1
300
CONTENTFORMAT
  1
CONTENTFORMAT_BEGIN
 90
        0
 91
        0
 92
      512
 93
        0
300

 40
0.0
140
1.0
 94
        5
 62
     0
340
55
144
0.25
309
CONTENTFORMAT_END
171
     0
 94
        0
309
TABLEFORMAT_END
  1
CELLSTYLE_BEGIN
 90
        1
 91
        1
300
_TITLE
309
CELLSTYLE_END
300
CELLSTYLE
  1
TABLEFORMAT_BEGIN
 90
        5
170
     1
 91
        0
 92
        0
 62
   257
 93
        1
300
CONTENTFORMAT
  1
CONTENTFORMAT_BEGIN
 90
        0
 91
        0
 92
      512
 93
        0
300

 40
0.0
140
1.0
 94
        5
 62
     0
340
55
144
0.18
309
CONTENTFORMAT_END
171
     0
 94
        0
309
TABLEFORMAT_END
  1
CELLSTYLE_BEGIN
 90
        2
 91
        1
300
_HEADER
309
CELLSTYLE_END
300
CELLSTYLE
  1
TABLEFORMAT_BEGIN
 90
        5
170
     1
 91
        0
 92
        0
 62
   257
 93
        1
300
CONTENTFORMAT
  1
CONTENTFORMAT_BEGIN
 90
        0
 91
        0
 92
      512
 93
        0
300

 40
0.0
140
1.0
 94
        2
 62
     0
340
55
144
0.18
309
CONTENTFORMAT_END
171
     0
 94
        0
309
TABLEFORMAT_END
  1
CELLSTYLE_BEGIN
 90
        3
 91
        2
300
_DATA
309
CELLSTYLE_END
  0
XRECORD
  5
6FA4
102
{ACAD_REACTORS
330
49DD
102
}
330
49DD
100
AcDbXrecord
280
     1
102
ACAD_ROUNDTRIP_PRE2007_TABLESTYLE
 90
      512
 91
        0
  1

 92
      512
 93
        0
  2

 94
      512
 95
        0
  3

  0
XRECORD
  5
6F7F
102
{ACAD_REACTORS
330
6F7E
102
}
330
6F7E
100
AcDbXrecord
280
     1
102
RTVSPropertyOp0
 70
     1
102
RTVSPropertyOp1
 70
     1
102
RTVSPropertyOp2
 70
     1
102
RTVSPropertyOp3
 70
     1
102
RTVSPropertyOp4
 70
     1
102
RTVSPropertyOp5
 70
     1
102
RTVSPropertyOp6
 70
     1
102
RTVSPropertyOp7
 70
     1
102
RTVSPropertyOp8
 70
     1
102
RTVSPropertyOp9
 70
     1
102
RTVSPropertyOp10
 70
     1
102
RTVSPropertyOp11
 70
     1
102
RTVSPropertyOp12
 70
     1
102
RTVSPropertyOp13
 70
     1
102
RTVSPropertyOp14
 70
     1
102
RTVSPropertyOp15
 70
     1
102
RTVSPropertyOp16
 70
     1
102
RTVSPropertyOp17
 70
     1
102
RTVSPropertyOp18
 70
     1
102
RTVSPropertyOp19
 70
     1
102
RTVSPropertyOp20
 70
     1
102
RTVSPropertyOp21
 70
     1
102
RTVSPropertyOp22
 70
     1
102
RTVSPropertyOp23
 70
     1
102
RTVSPropertyOp24
 70
     1
102
RTVSPropertyOp25
 70
     1
102
RTVSPropertyOp26
 70
     1
102
RTVSPropertyOp27
 70
     1
102
RTVSPropertyOp28
 70
     1
102
RTVSPropertyOp29
 70
     1
102
RTVSPropertyOp30
 70
     1
102
RTVSPropertyOp31
 70
     1
102
RTVSPropertyOp32
 70
     1
  0
XRECORD
  5
6F7D
102
{ACAD_REACTORS
330
6F7C
102
}
330
6F7C
100
AcDbXrecord
280
     1
102
RTVSPropertyOp0
 70
     1
102
RTVSPropertyOp1
 70
     1
102
RTVSPropertyOp2
 70
     1
102
RTVSPropertyOp3
 70
     1
102
RTVSPropertyOp4
 70
     1
102
RTVSPropertyOp5
 70
     1
102
RTVSPropertyOp6
 70
     1
102
RTVSPropertyOp7
 70
     1
102
RTVSPropertyOp8
 70
     1
102
RTVSPropertyOp9
 70
     1
102
RTVSPropertyOp10
 70
     1
102
RTVSPropertyOp11
 70
     1
102
RTVSPropertyOp12
 70
     1
102
RTVSPropertyOp13
 70
     1
102
RTVSPropertyOp14
 70
     1
102
RTVSPropertyOp15
 70
     1
102
RTVSPropertyOp16
 70
     1
102
RTVSPropertyOp17
 70
     1
102
RTVSPropertyOp18
 70
     1
102
RTVSPropertyOp19
 70
     1
102
RTVSPropertyOp20
 70
     1
102
RTVSPropertyOp21
 70
     1
102
RTVSPropertyOp22
 70
     1
102
RTVSPropertyOp23
 70
     1
102
RTVSPropertyOp24
 70
     1
102
RTVSPropertyOp25
 70
     1
102
RTVSPropertyOp26
 70
     1
102
RTVSPropertyOp27
 70
     1
102
RTVSPropertyOp28
 70
     1
102
RTVSPropertyOp29
 70
     1
102
RTVSPropertyOp30
 70
     1
102
RTVSPropertyOp31
 70
     1
102
RTVSPropertyOp32
 70
     1
  0
XRECORD
  5
6F8B
102
{ACAD_REACTORS
330
6F8A
102
}
330
6F8A
100
AcDbXrecord
280
     1
102
RTVSPropertyOp0
 70
     1
102
RTVSPropertyOp1
 70
     1
102
RTVSPropertyOp2
 70
     1
102
RTVSPropertyOp3
 70
     1
102
RTVSPropertyOp4
 70
     1
102
RTVSPropertyOp5
 70
     1
102
RTVSPropertyOp6
 70
     1
102
RTVSPropertyOp7
 70
     1
102
RTVSPropertyOp8
 70
     1
102
RTVSPropertyOp9
 70
     1
102
RTVSPropertyOp10
 70
     1
102
RTVSPropertyOp11
 70
     1
102
RTVSPropertyOp12
 70
     1
102
RTVSPropertyOp13
 70
     1
102
RTVSPropertyOp14
 70
     1
102
RTVSPropertyOp15
 70
     1
102
RTVSPropertyOp16
 70
     1
102
RTVSPropertyOp17
 70
     1
102
RTVSPropertyOp18
 70
     1
102
RTVSPropertyOp19
 70
     1
102
RTVSPropertyOp20
 70
     1
102
RTVSPropertyOp21
 70
     1
102
RTVSPropertyOp22
 70
     1
102
RTVSPropertyOp23
 70
     1
102
RTVSPropertyOp24
 70
     1
102
RTVSPropertyOp25
 70
     1
102
RTVSPropertyOp26
 70
     1
102
RTVSPropertyOp27
 70
     1
102
RTVSPropertyOp28
 70
     1
102
RTVSPropertyOp29
 70
     1
102
RTVSPropertyOp30
 70
     1
102
RTVSPropertyOp31
 70
     1
102
RTVSPropertyOp32
 70
     1
  0
XRECORD
  5
6F93
102
{ACAD_REACTORS
330
6F92
102
}
330
6F92
100
AcDbXrecord
280
     1
102
RTVSPropertyOp0
 70
     1
102
RTVSPropertyOp1
 70
     1
102
RTVSPropertyOp2
 70
     1
102
RTVSPropertyOp3
 70
     1
102
RTVSPropertyOp4
 70
     1
102
RTVSPropertyOp5
 70
     1
102
RTVSPropertyOp6
 70
     1
102
RTVSPropertyOp7
 70
     1
102
RTVSPropertyOp8
 70
     1
102
RTVSPropertyOp9
 70
     1
102
RTVSPropertyOp10
 70
     1
102
RTVSPropertyOp11
 70
     1
102
RTVSPropertyOp12
 70
     1
102
RTVSPropertyOp13
 70
     1
102
RTVSPropertyOp14
 70
     1
102
RTVSPropertyOp15
 70
     1
102
RTVSPropertyOp16
 70
     1
102
RTVSPropertyOp17
 70
     1
102
RTVSPropertyOp18
 70
     1
102
RTVSPropertyOp19
 70
     1
102
RTVSPropertyOp20
 70
     1
102
RTVSPropertyOp21
 70
     1
102
RTVSPropertyOp22
 70
     1
102
RTVSPropertyOp23
 70
     1
102
RTVSPropertyOp24
 70
     1
102
RTVSPropertyOp25
 70
     1
102
RTVSPropertyOp26
 70
     1
102
RTVSPropertyOp27
 70
     1
102
RTVSPropertyOp28
 70
     1
102
RTVSPropertyOp29
 70
     1
102
RTVSPropertyOp30
 70
     1
102
RTVSPropertyOp31
 70
     1
102
RTVSPropertyOp32
 70
     1
  0
XRECORD
  5
6F85
102
{ACAD_REACTORS
330
6F84
102
}
330
6F84
100
AcDbXrecord
280
     1
102
RTVSPropertyOp0
 70
     1
102
RTVSPropertyOp1
 70
     1
102
RTVSPropertyOp2
 70
     1
102
RTVSPropertyOp3
 70
     1
102
RTVSPropertyOp4
 70
     1
102
RTVSPropertyOp5
 70
     1
102
RTVSPropertyOp6
 70
     1
102
RTVSPropertyOp7
 70
     1
102
RTVSPropertyOp8
 70
     1
102
RTVSPropertyOp9
 70
     1
102
RTVSPropertyOp10
 70
     1
102
RTVSPropertyOp11
 70
     1
102
RTVSPropertyOp12
 70
     1
102
RTVSPropertyOp13
 70
     1
102
RTVSPropertyOp14
 70
     1
102
RTVSPropertyOp15
 70
     1
102
RTVSPropertyOp16
 70
     1
102
RTVSPropertyOp17
 70
     1
102
RTVSPropertyOp18
 70
     1
102
RTVSPropertyOp19
 70
     1
102
RTVSPropertyOp20
 70
     1
102
RTVSPropertyOp21
 70
     1
102
RTVSPropertyOp22
 70
     1
102
RTVSPropertyOp23
 70
     1
102
RTVSPropertyOp24
 70
     1
102
RTVSPropertyOp25
 70
     1
102
RTVSPropertyOp26
 70
     1
102
RTVSPropertyOp27
 70
     1
102
RTVSPropertyOp28
 70
     1
102
RTVSPropertyOp29
 70
     1
102
RTVSPropertyOp30
 70
     1
102
RTVSPropertyOp31
 70
     1
102
RTVSPropertyOp32
 70
     1
  0
XRECORD
  5
6F89
102
{ACAD_REACTORS
330
6F88
102
}
330
6F88
100
AcDbXrecord
280
     1
102
RTVSPropertyOp0
 70
     1
102
RTVSPropertyOp1
 70
     1
102
RTVSPropertyOp2
 70
     1
102
RTVSPropertyOp3
 70
     1
102
RTVSPropertyOp4
 70
     1
102
RTVSPropertyOp5
 70
     1
102
RTVSPropertyOp6
 70
     1
102
RTVSPropertyOp7
 70
     1
102
RTVSPropertyOp8
 70
     1
102
RTVSPropertyOp9
 70
     1
102
RTVSPropertyOp10
 70
     1
102
RTVSPropertyOp11
 70
     1
102
RTVSPropertyOp12
 70
     1
102
RTVSPropertyOp13
 70
     1
102
RTVSPropertyOp14
 70
     1
102
RTVSPropertyOp15
 70
     1
102
RTVSPropertyOp16
 70
     1
102
RTVSPropertyOp17
 70
     1
102
RTVSPropertyOp18
 70
     1
102
RTVSPropertyOp19
 70
     1
102
RTVSPropertyOp20
 70
     1
102
RTVSPropertyOp21
 70
     1
102
RTVSPropertyOp22
 70
     1
102
RTVSPropertyOp23
 70
     1
102
RTVSPropertyOp24
 70
     1
102
RTVSPropertyOp25
 70
     1
102
RTVSPropertyOp26
 70
     1
102
RTVSPropertyOp27
 70
     1
102
RTVSPropertyOp28
 70
     1
102
RTVSPropertyOp29
 70
     1
102
RTVSPropertyOp30
 70
     1
102
RTVSPropertyOp31
 70
     1
102
RTVSPropertyOp32
 70
     1
  0
XRECORD
  5
6FA3
102
{ACAD_REACTORS
330
6FA2
102
}
330
6FA2
100
AcDbXrecord
280
     1
102
RTVSPropertyOp0
 70
     0
102
RTVSPropertyOp1
 70
     0
102
RTVSPropertyOp2
 70
     0
102
RTVSPropertyOp3
 70
     0
102
RTVSPropertyOp4
 70
     0
102
RTVSPropertyOp5
 70
     0
102
RTVSPropertyOp6
 70
     0
102
RTVSPropertyOp7
 70
     0
102
RTVSPropertyOp8
 70
     0
102
RTVSPropertyOp9
 70
     0
102
RTVSPropertyOp10
 70
     0
102
RTVSPropertyOp11
 70
     0
102
RTVSPropertyOp12
 70
     0
102
RTVSPropertyOp13
 70
     0
102
RTVSPropertyOp14
 70
     2
102
RTVSPropertyOp15
 70
     0
102
RTVSPropertyOp16
 70
     0
102
RTVSPropertyOp17
 70
     0
102
RTVSPropertyOp18
 70
     0
102
RTVSPropertyOp19
 70
     0
102
RTVSPropertyOp20
 70
     0
102
RTVSPropertyOp21
 70
     0
102
RTVSPropertyOp22
 70
     0
102
RTVSPropertyOp23
 70
     0
102
RTVSPropertyOp24
 70
     0
102
RTVSPropertyOp25
 70
     0
102
RTVSPropertyOp26
 70
     0
102
RTVSPropertyOp27
 70
     0
102
RTVSPropertyOp28
 70
     1
102
RTVSPropertyOp29
 70
     1
102
RTVSPropertyOp30
 70
     1
102
RTVSPropertyOp31
 70
     1
102
RTVSPropertyOp32
 70
     1
  0
XRECORD
  5
6F91
102
{ACAD_REACTORS
330
6F90
102
}
330
6F90
100
AcDbXrecord
280
     1
102
RTVSPropertyOp0
 70
     1
102
RTVSPropertyOp1
 70
     1
102
RTVSPropertyOp2
 70
     1
102
RTVSPropertyOp3
 70
     1
102
RTVSPropertyOp4
 70
     1
102
RTVSPropertyOp5
 70
     1
102
RTVSPropertyOp6
 70
     1
102
RTVSPropertyOp7
 70
     1
102
RTVSPropertyOp8
 70
     1
102
RTVSPropertyOp9
 70
     1
102
RTVSPropertyOp10
 70
     1
102
RTVSPropertyOp11
 70
     1
102
RTVSPropertyOp12
 70
     1
102
RTVSPropertyOp13
 70
     1
102
RTVSPropertyOp14
 70
     1
102
RTVSPropertyOp15
 70
     1
102
RTVSPropertyOp16
 70
     1
102
RTVSPropertyOp17
 70
     1
102
RTVSPropertyOp18
 70
     1
102
RTVSPropertyOp19
 70
     1
102
RTVSPropertyOp20
 70
     1
102
RTVSPropertyOp21
 70
     1
102
RTVSPropertyOp22
 70
     1
102
RTVSPropertyOp23
 70
     1
102
RTVSPropertyOp24
 70
     1
102
RTVSPropertyOp25
 70
     1
102
RTVSPropertyOp26
 70
     1
102
RTVSPropertyOp27
 70
     1
102
RTVSPropertyOp28
 70
     1
102
RTVSPropertyOp29
 70
     1
102
RTVSPropertyOp30
 70
     1
102
RTVSPropertyOp31
 70
     1
102
RTVSPropertyOp32
 70
     1
  0
XRECORD
  5
6F75
102
{ACAD_REACTORS
330
6F74
102
}
330
6F74
100
AcDbXrecord
280
     1
102
RTVSPropertyOp0
 70
     1
102
RTVSPropertyOp1
 70
     1
102
RTVSPropertyOp2
 70
     1
102
RTVSPropertyOp3
 70
     1
102
RTVSPropertyOp4
 70
     1
102
RTVSPropertyOp5
 70
     1
102
RTVSPropertyOp6
 70
     1
102
RTVSPropertyOp7
 70
     1
102
RTVSPropertyOp8
 70
     1
102
RTVSPropertyOp9
 70
     1
102
RTVSPropertyOp10
 70
     1
102
RTVSPropertyOp11
 70
     1
102
RTVSPropertyOp12
 70
     1
102
RTVSPropertyOp13
 70
     1
102
RTVSPropertyOp14
 70
     1
102
RTVSPropertyOp15
 70
     1
102
RTVSPropertyOp16
 70
     1
102
RTVSPropertyOp17
 70
     1
102
RTVSPropertyOp18
 70
     1
102
RTVSPropertyOp19
 70
     1
102
RTVSPropertyOp20
 70
     1
102
RTVSPropertyOp21
 70
     1
102
RTVSPropertyOp22
 70
     1
102
RTVSPropertyOp23
 70
     1
102
RTVSPropertyOp24
 70
     1
102
RTVSPropertyOp25
 70
     1
102
RTVSPropertyOp26
 70
     1
102
RTVSPropertyOp27
 70
     1
102
RTVSPropertyOp28
 70
     1
102
RTVSPropertyOp29
 70
     1
102
RTVSPropertyOp30
 70
     1
102
RTVSPropertyOp31
 70
     1
102
RTVSPropertyOp32
 70
     1
  0
XRECORD
  5
6F77
102
{ACAD_REACTORS
330
6F76
102
}
330
6F76
100
AcDbXrecord
280
     1
102
RTVSPropertyOp0
 70
     1
102
RTVSPropertyOp1
 70
     1
102
RTVSPropertyOp2
 70
     1
102
RTVSPropertyOp3
 70
     1
102
RTVSPropertyOp4
 70
     1
102
RTVSPropertyOp5
 70
     1
102
RTVSPropertyOp6
 70
     1
102
RTVSPropertyOp7
 70
     1
102
RTVSPropertyOp8
 70
     1
102
RTVSPropertyOp9
 70
     1
102
RTVSPropertyOp10
 70
     1
102
RTVSPropertyOp11
 70
     1
102
RTVSPropertyOp12
 70
     1
102
RTVSPropertyOp13
 70
     1
102
RTVSPropertyOp14
 70
     1
102
RTVSPropertyOp15
 70
     1
102
RTVSPropertyOp16
 70
     1
102
RTVSPropertyOp17
 70
     1
102
RTVSPropertyOp18
 70
     1
102
RTVSPropertyOp19
 70
     1
102
RTVSPropertyOp20
 70
     1
102
RTVSPropertyOp21
 70
     1
102
RTVSPropertyOp22
 70
     1
102
RTVSPropertyOp23
 70
     1
102
RTVSPropertyOp24
 70
     1
102
RTVSPropertyOp25
 70
     1
102
RTVSPropertyOp26
 70
     1
102
RTVSPropertyOp27
 70
     1
102
RTVSPropertyOp28
 70
     1
102
RTVSPropertyOp29
 70
     1
102
RTVSPropertyOp30
 70
     1
102
RTVSPropertyOp31
 70
     1
102
RTVSPropertyOp32
 70
     1
  0
XRECORD
  5
6F79
102
{ACAD_REACTORS
330
6F78
102
}
330
6F78
100
AcDbXrecord
280
     1
102
RTVSPropertyOp0
 70
     1
102
RTVSPropertyOp1
 70
     1
102
RTVSPropertyOp2
 70
     1
102
RTVSPropertyOp3
 70
     1
102
RTVSPropertyOp4
 70
     1
102
RTVSPropertyOp5
 70
     1
102
RTVSPropertyOp6
 70
     1
102
RTVSPropertyOp7
 70
     1
102
RTVSPropertyOp8
 70
     1
102
RTVSPropertyOp9
 70
     1
102
RTVSPropertyOp10
 70
     1
102
RTVSPropertyOp11
 70
     1
102
RTVSPropertyOp12
 70
     1
102
RTVSPropertyOp13
 70
     1
102
RTVSPropertyOp14
 70
     1
102
RTVSPropertyOp15
 70
     1
102
RTVSPropertyOp16
 70
     1
102
RTVSPropertyOp17
 70
     1
102
RTVSPropertyOp18
 70
     1
102
RTVSPropertyOp19
 70
     1
102
RTVSPropertyOp20
 70
     1
102
RTVSPropertyOp21
 70
     1
102
RTVSPropertyOp22
 70
     1
102
RTVSPropertyOp23
 70
     1
102
RTVSPropertyOp24
 70
     1
102
RTVSPropertyOp25
 70
     1
102
RTVSPropertyOp26
 70
     1
102
RTVSPropertyOp27
 70
     1
102
RTVSPropertyOp28
 70
     1
102
RTVSPropertyOp29
 70
     1
102
RTVSPropertyOp30
 70
     1
102
RTVSPropertyOp31
 70
     1
102
RTVSPropertyOp32
 70
     1
  0
XRECORD
  5
6F7B
102
{ACAD_REACTORS
330
6F7A
102
}
330
6F7A
100
AcDbXrecord
280
     1
102
RTVSPropertyOp0
 70
     1
102
RTVSPropertyOp1
 70
     1
102
RTVSPropertyOp2
 70
     1
102
RTVSPropertyOp3
 70
     1
102
RTVSPropertyOp4
 70
     1
102
RTVSPropertyOp5
 70
     1
102
RTVSPropertyOp6
 70
     1
102
RTVSPropertyOp7
 70
     1
102
RTVSPropertyOp8
 70
     1
102
RTVSPropertyOp9
 70
     1
102
RTVSPropertyOp10
 70
     1
102
RTVSPropertyOp11
 70
     1
102
RTVSPropertyOp12
 70
     1
102
RTVSPropertyOp13
 70
     1
102
RTVSPropertyOp14
 70
     1
102
RTVSPropertyOp15
 70
     1
102
RTVSPropertyOp16
 70
     1
102
RTVSPropertyOp17
 70
     1
102
RTVSPropertyOp18
 70
     1
102
RTVSPropertyOp19
 70
     1
102
RTVSPropertyOp20
 70
     1
102
RTVSPropertyOp21
 70
     1
102
RTVSPropertyOp22
 70
     1
102
RTVSPropertyOp23
 70
     1
102
RTVSPropertyOp24
 70
     1
102
RTVSPropertyOp25
 70
     1
102
RTVSPropertyOp26
 70
     1
102
RTVSPropertyOp27
 70
     1
102
RTVSPropertyOp28
 70
     1
102
RTVSPropertyOp29
 70
     1
102
RTVSPropertyOp30
 70
     1
102
RTVSPropertyOp31
 70
     1
102
RTVSPropertyOp32
 70
     1
  0
XRECORD
  5
6F83
102
{ACAD_REACTORS
330
6F82
102
}
330
6F82
100
AcDbXrecord
280
     1
102
RTVSPropertyOp0
 70
     1
102
RTVSPropertyOp1
 70
     1
102
RTVSPropertyOp2
 70
     1
102
RTVSPropertyOp3
 70
     1
102
RTVSPropertyOp4
 70
     1
102
RTVSPropertyOp5
 70
     1
102
RTVSPropertyOp6
 70
     1
102
RTVSPropertyOp7
 70
     1
102
RTVSPropertyOp8
 70
     1
102
RTVSPropertyOp9
 70
     1
102
RTVSPropertyOp10
 70
     1
102
RTVSPropertyOp11
 70
     1
102
RTVSPropertyOp12
 70
     1
102
RTVSPropertyOp13
 70
     1
102
RTVSPropertyOp14
 70
     1
102
RTVSPropertyOp15
 70
     1
102
RTVSPropertyOp16
 70
     1
102
RTVSPropertyOp17
 70
     1
102
RTVSPropertyOp18
 70
     1
102
RTVSPropertyOp19
 70
     1
102
RTVSPropertyOp20
 70
     1
102
RTVSPropertyOp21
 70
     1
102
RTVSPropertyOp22
 70
     1
102
RTVSPropertyOp23
 70
     1
102
RTVSPropertyOp24
 70
     1
102
RTVSPropertyOp25
 70
     1
102
RTVSPropertyOp26
 70
     1
102
RTVSPropertyOp27
 70
     1
102
RTVSPropertyOp28
 70
     1
102
RTVSPropertyOp29
 70
     1
102
RTVSPropertyOp30
 70
     1
102
RTVSPropertyOp31
 70
     1
102
RTVSPropertyOp32
 70
     1
  0
XRECORD
  5
6F9F
102
{ACAD_REACTORS
330
6F9E
102
}
330
6F9E
100
AcDbXrecord
280
     1
102
RTVSPropertyOp0
 70
     0
102
RTVSPropertyOp1
 70
     0
102
RTVSPropertyOp2
 70
     0
102
RTVSPropertyOp3
 70
     0
102
RTVSPropertyOp4
 70
     0
102
RTVSPropertyOp5
 70
     0
102
RTVSPropertyOp6
 70
     0
102
RTVSPropertyOp7
 70
     0
102
RTVSPropertyOp8
 70
     0
102
RTVSPropertyOp9
 70
     0
102
RTVSPropertyOp10
 70
     0
102
RTVSPropertyOp11
 70
     0
102
RTVSPropertyOp12
 70
     0
102
RTVSPropertyOp13
 70
     0
102
RTVSPropertyOp14
 70
     2
102
RTVSPropertyOp15
 70
     0
102
RTVSPropertyOp16
 70
     0
102
RTVSPropertyOp17
 70
     0
102
RTVSPropertyOp18
 70
     0
102
RTVSPropertyOp19
 70
     0
102
RTVSPropertyOp20
 70
     0
102
RTVSPropertyOp21
 70
     0
102
RTVSPropertyOp22
 70
     0
102
RTVSPropertyOp23
 70
     0
102
RTVSPropertyOp24
 70
     0
102
RTVSPropertyOp25
 70
     0
102
RTVSPropertyOp26
 70
     0
102
RTVSPropertyOp27
 70
     0
102
RTVSPropertyOp28
 70
     1
102
RTVSPropertyOp29
 70
     1
102
RTVSPropertyOp30
 70
     1
102
RTVSPropertyOp31
 70
     1
102
RTVSPropertyOp32
 70
     1
  0
XRECORD
  5
6F8F
102
{ACAD_REACTORS
330
6F8E
102
}
330
6F8E
100
AcDbXrecord
280
     1
102
RTVSPropertyOp0
 70
     1
102
RTVSPropertyOp1
 70
     1
102
RTVSPropertyOp2
 70
     1
102
RTVSPropertyOp3
 70
     1
102
RTVSPropertyOp4
 70
     1
102
RTVSPropertyOp5
 70
     1
102
RTVSPropertyOp6
 70
     1
102
RTVSPropertyOp7
 70
     1
102
RTVSPropertyOp8
 70
     1
102
RTVSPropertyOp9
 70
     1
102
RTVSPropertyOp10
 70
     1
102
RTVSPropertyOp11
 70
     1
102
RTVSPropertyOp12
 70
     1
102
RTVSPropertyOp13
 70
     1
102
RTVSPropertyOp14
 70
     1
102
RTVSPropertyOp15
 70
     1
102
RTVSPropertyOp16
 70
     1
102
RTVSPropertyOp17
 70
     1
102
RTVSPropertyOp18
 70
     1
102
RTVSPropertyOp19
 70
     1
102
RTVSPropertyOp20
 70
     1
102
RTVSPropertyOp21
 70
     1
102
RTVSPropertyOp22
 70
     1
102
RTVSPropertyOp23
 70
     1
102
RTVSPropertyOp24
 70
     1
102
RTVSPropertyOp25
 70
     1
102
RTVSPropertyOp26
 70
     1
102
RTVSPropertyOp27
 70
     1
102
RTVSPropertyOp28
 70
     1
102
RTVSPropertyOp29
 70
     1
102
RTVSPropertyOp30
 70
     1
102
RTVSPropertyOp31
 70
     1
102
RTVSPropertyOp32
 70
     1
  0
XRECORD
  5
6FA1
102
{ACAD_REACTORS
330
6FA0
102
}
330
6FA0
100
AcDbXrecord
280
     1
102
RTVSPropertyOp0
 70
     0
102
RTVSPropertyOp1
 70
     0
102
RTVSPropertyOp2
 70
     0
102
RTVSPropertyOp3
 70
     0
102
RTVSPropertyOp4
 70
     0
102
RTVSPropertyOp5
 70
     0
102
RTVSPropertyOp6
 70
     0
102
RTVSPropertyOp7
 70
     0
102
RTVSPropertyOp8
 70
     0
102
RTVSPropertyOp9
 70
     0
102
RTVSPropertyOp10
 70
     0
102
RTVSPropertyOp11
 70
     0
102
RTVSPropertyOp12
 70
     0
102
RTVSPropertyOp13
 70
     0
102
RTVSPropertyOp14
 70
     2
102
RTVSPropertyOp15
 70
     0
102
RTVSPropertyOp16
 70
     0
102
RTVSPropertyOp17
 70
     0
102
RTVSPropertyOp18
 70
     0
102
RTVSPropertyOp19
 70
     0
102
RTVSPropertyOp20
 70
     0
102
RTVSPropertyOp21
 70
     0
102
RTVSPropertyOp22
 70
     0
102
RTVSPropertyOp23
 70
     0
102
RTVSPropertyOp24
 70
     0
102
RTVSPropertyOp25
 70
     0
102
RTVSPropertyOp26
 70
     0
102
RTVSPropertyOp27
 70
     0
102
RTVSPropertyOp28
 70
     1
102
RTVSPropertyOp29
 70
     1
102
RTVSPropertyOp30
 70
     1
102
RTVSPropertyOp31
 70
     1
102
RTVSPropertyOp32
 70
     1
  0
XRECORD
  5
6F87
102
{ACAD_REACTORS
330
6F86
102
}
330
6F86
100
AcDbXrecord
280
     1
102
RTVSPropertyOp0
 70
     1
102
RTVSPropertyOp1
 70
     1
102
RTVSPropertyOp2
 70
     1
102
RTVSPropertyOp3
 70
     1
102
RTVSPropertyOp4
 70
     1
102
RTVSPropertyOp5
 70
     1
102
RTVSPropertyOp6
 70
     1
102
RTVSPropertyOp7
 70
     1
102
RTVSPropertyOp8
 70
     1
102
RTVSPropertyOp9
 70
     1
102
RTVSPropertyOp10
 70
     1
102
RTVSPropertyOp11
 70
     1
102
RTVSPropertyOp12
 70
     1
102
RTVSPropertyOp13
 70
     1
102
RTVSPropertyOp14
 70
     1
102
RTVSPropertyOp15
 70
     1
102
RTVSPropertyOp16
 70
     1
102
RTVSPropertyOp17
 70
     1
102
RTVSPropertyOp18
 70
     1
102
RTVSPropertyOp19
 70
     1
102
RTVSPropertyOp20
 70
     1
102
RTVSPropertyOp21
 70
     1
102
RTVSPropertyOp22
 70
     1
102
RTVSPropertyOp23
 70
     1
102
RTVSPropertyOp24
 70
     1
102
RTVSPropertyOp25
 70
     1
102
RTVSPropertyOp26
 70
     1
102
RTVSPropertyOp27
 70
     1
102
RTVSPropertyOp28
 70
     1
102
RTVSPropertyOp29
 70
     1
102
RTVSPropertyOp30
 70
     1
102
RTVSPropertyOp31
 70
     1
102
RTVSPropertyOp32
 70
     1
  0
XRECORD
  5
6F9D
102
{ACAD_REACTORS
330
6F9C
102
}
330
6F9C
100
AcDbXrecord
280
     1
102
RTVSPropertyOp0
 70
     1
102
RTVSPropertyOp1
 70
     1
102
RTVSPropertyOp2
 70
     1
102
RTVSPropertyOp3
 70
     1
102
RTVSPropertyOp4
 70
     1
102
RTVSPropertyOp5
 70
     1
102
RTVSPropertyOp6
 70
     1
102
RTVSPropertyOp7
 70
     1
102
RTVSPropertyOp8
 70
     1
102
RTVSPropertyOp9
 70
     1
102
RTVSPropertyOp10
 70
     1
102
RTVSPropertyOp11
 70
     1
102
RTVSPropertyOp12
 70
     1
102
RTVSPropertyOp13
 70
     1
102
RTVSPropertyOp14
 70
     1
102
RTVSPropertyOp15
 70
     1
102
RTVSPropertyOp16
 70
     1
102
RTVSPropertyOp17
 70
     1
102
RTVSPropertyOp18
 70
     1
102
RTVSPropertyOp19
 70
     1
102
RTVSPropertyOp20
 70
     1
102
RTVSPropertyOp21
 70
     1
102
RTVSPropertyOp22
 70
     1
102
RTVSPropertyOp23
 70
     1
102
RTVSPropertyOp24
 70
     1
102
RTVSPropertyOp25
 70
     1
102
RTVSPropertyOp26
 70
     1
102
RTVSPropertyOp27
 70
     1
102
RTVSPropertyOp28
 70
     1
102
RTVSPropertyOp29
 70
     1
102
RTVSPropertyOp30
 70
     1
102
RTVSPropertyOp31
 70
     1
102
RTVSPropertyOp32
 70
     1
  0
XRECORD
  5
6F9B
102
{ACAD_REACTORS
330
6F9A
102
}
330
6F9A
100
AcDbXrecord
280
     1
102
RTVSPropertyOp0
 70
     1
102
RTVSPropertyOp1
 70
     1
102
RTVSPropertyOp2
 70
     1
102
RTVSPropertyOp3
 70
     1
102
RTVSPropertyOp4
 70
     1
102
RTVSPropertyOp5
 70
     1
102
RTVSPropertyOp6
 70
     1
102
RTVSPropertyOp7
 70
     1
102
RTVSPropertyOp8
 70
     1
102
RTVSPropertyOp9
 70
     1
102
RTVSPropertyOp10
 70
     1
102
RTVSPropertyOp11
 70
     1
102
RTVSPropertyOp12
 70
     1
102
RTVSPropertyOp13
 70
     1
102
RTVSPropertyOp14
 70
     1
102
RTVSPropertyOp15
 70
     1
102
RTVSPropertyOp16
 70
     1
102
RTVSPropertyOp17
 70
     1
102
RTVSPropertyOp18
 70
     1
102
RTVSPropertyOp19
 70
     1
102
RTVSPropertyOp20
 70
     1
102
RTVSPropertyOp21
 70
     1
102
RTVSPropertyOp22
 70
     1
102
RTVSPropertyOp23
 70
     1
102
RTVSPropertyOp24
 70
     1
102
RTVSPropertyOp25
 70
     1
102
RTVSPropertyOp26
 70
     1
102
RTVSPropertyOp27
 70
     1
102
RTVSPropertyOp28
 70
     1
102
RTVSPropertyOp29
 70
     1
102
RTVSPropertyOp30
 70
     1
102
RTVSPropertyOp31
 70
     1
102
RTVSPropertyOp32
 70
     1
  0
XRECORD
  5
6F95
102
{ACAD_REACTORS
330
6F94
102
}
330
6F94
100
AcDbXrecord
280
     1
102
RTVSPropertyOp0
 70
     1
102
RTVSPropertyOp1
 70
     1
102
RTVSPropertyOp2
 70
     1
102
RTVSPropertyOp3
 70
     1
102
RTVSPropertyOp4
 70
     1
102
RTVSPropertyOp5
 70
     1
102
RTVSPropertyOp6
 70
     1
102
RTVSPropertyOp7
 70
     1
102
RTVSPropertyOp8
 70
     1
102
RTVSPropertyOp9
 70
     1
102
RTVSPropertyOp10
 70
     1
102
RTVSPropertyOp11
 70
     1
102
RTVSPropertyOp12
 70
     1
102
RTVSPropertyOp13
 70
     1
102
RTVSPropertyOp14
 70
     1
102
RTVSPropertyOp15
 70
     1
102
RTVSPropertyOp16
 70
     1
102
RTVSPropertyOp17
 70
     1
102
RTVSPropertyOp18
 70
     1
102
RTVSPropertyOp19
 70
     1
102
RTVSPropertyOp20
 70
     1
102
RTVSPropertyOp21
 70
     1
102
RTVSPropertyOp22
 70
     1
102
RTVSPropertyOp23
 70
     1
102
RTVSPropertyOp24
 70
     1
102
RTVSPropertyOp25
 70
     1
102
RTVSPropertyOp26
 70
     1
102
RTVSPropertyOp27
 70
     1
102
RTVSPropertyOp28
 70
     1
102
RTVSPropertyOp29
 70
     1
102
RTVSPropertyOp30
 70
     1
102
RTVSPropertyOp31
 70
     1
102
RTVSPropertyOp32
 70
     1
  0
XRECORD
  5
6F97
102
{ACAD_REACTORS
330
6F96
102
}
330
6F96
100
AcDbXrecord
280
     1
102
RTVSPropertyOp0
 70
     1
102
RTVSPropertyOp1
 70
     1
102
RTVSPropertyOp2
 70
     1
102
RTVSPropertyOp3
 70
     1
102
RTVSPropertyOp4
 70
     1
102
RTVSPropertyOp5
 70
     1
102
RTVSPropertyOp6
 70
     1
102
RTVSPropertyOp7
 70
     1
102
RTVSPropertyOp8
 70
     1
102
RTVSPropertyOp9
 70
     1
102
RTVSPropertyOp10
 70
     1
102
RTVSPropertyOp11
 70
     1
102
RTVSPropertyOp12
 70
     1
102
RTVSPropertyOp13
 70
     1
102
RTVSPropertyOp14
 70
     1
102
RTVSPropertyOp15
 70
     1
102
RTVSPropertyOp16
 70
     1
102
RTVSPropertyOp17
 70
     1
102
RTVSPropertyOp18
 70
     1
102
RTVSPropertyOp19
 70
     1
102
RTVSPropertyOp20
 70
     1
102
RTVSPropertyOp21
 70
     1
102
RTVSPropertyOp22
 70
     1
102
RTVSPropertyOp23
 70
     1
102
RTVSPropertyOp24
 70
     1
102
RTVSPropertyOp25
 70
     1
102
RTVSPropertyOp26
 70
     1
102
RTVSPropertyOp27
 70
     1
102
RTVSPropertyOp28
 70
     1
102
RTVSPropertyOp29
 70
     1
102
RTVSPropertyOp30
 70
     1
102
RTVSPropertyOp31
 70
     1
102
RTVSPropertyOp32
 70
     1
  0
XRECORD
  5
6F8D
102
{ACAD_REACTORS
330
6F8C
102
}
330
6F8C
100
AcDbXrecord
280
     1
102
RTVSPropertyOp0
 70
     1
102
RTVSPropertyOp1
 70
     1
102
RTVSPropertyOp2
 70
     1
102
RTVSPropertyOp3
 70
     1
102
RTVSPropertyOp4
 70
     1
102
RTVSPropertyOp5
 70
     1
102
RTVSPropertyOp6
 70
     1
102
RTVSPropertyOp7
 70
     1
102
RTVSPropertyOp8
 70
     1
102
RTVSPropertyOp9
 70
     1
102
RTVSPropertyOp10
 70
     1
102
RTVSPropertyOp11
 70
     1
102
RTVSPropertyOp12
 70
     1
102
RTVSPropertyOp13
 70
     1
102
RTVSPropertyOp14
 70
     1
102
RTVSPropertyOp15
 70
     1
102
RTVSPropertyOp16
 70
     1
102
RTVSPropertyOp17
 70
     1
102
RTVSPropertyOp18
 70
     1
102
RTVSPropertyOp19
 70
     1
102
RTVSPropertyOp20
 70
     1
102
RTVSPropertyOp21
 70
     1
102
RTVSPropertyOp22
 70
     1
102
RTVSPropertyOp23
 70
     1
102
RTVSPropertyOp24
 70
     1
102
RTVSPropertyOp25
 70
     1
102
RTVSPropertyOp26
 70
     1
102
RTVSPropertyOp27
 70
     1
102
RTVSPropertyOp28
 70
     1
102
RTVSPropertyOp29
 70
     1
102
RTVSPropertyOp30
 70
     1
102
RTVSPropertyOp31
 70
     1
102
RTVSPropertyOp32
 70
     1
  0
XRECORD
  5
6F81
102
{ACAD_REACTORS
330
6F80
102
}
330
6F80
100
AcDbXrecord
280
     1
102
RTVSPropertyOp0
 70
     1
102
RTVSPropertyOp1
 70
     1
102
RTVSPropertyOp2
 70
     1
102
RTVSPropertyOp3
 70
     1
102
RTVSPropertyOp4
 70
     1
102
RTVSPropertyOp5
 70
     1
102
RTVSPropertyOp6
 70
     1
102
RTVSPropertyOp7
 70
     1
102
RTVSPropertyOp8
 70
     1
102
RTVSPropertyOp9
 70
     1
102
RTVSPropertyOp10
 70
     1
102
RTVSPropertyOp11
 70
     1
102
RTVSPropertyOp12
 70
     1
102
RTVSPropertyOp13
 70
     1
102
RTVSPropertyOp14
 70
     1
102
RTVSPropertyOp15
 70
     1
102
RTVSPropertyOp16
 70
     1
102
RTVSPropertyOp17
 70
     1
102
RTVSPropertyOp18
 70
     1
102
RTVSPropertyOp19
 70
     1
102
RTVSPropertyOp20
 70
     1
102
RTVSPropertyOp21
 70
     1
102
RTVSPropertyOp22
 70
     1
102
RTVSPropertyOp23
 70
     1
102
RTVSPropertyOp24
 70
     1
102
RTVSPropertyOp25
 70
     1
102
RTVSPropertyOp26
 70
     1
102
RTVSPropertyOp27
 70
     1
102
RTVSPropertyOp28
 70
     1
102
RTVSPropertyOp29
 70
     1
102
RTVSPropertyOp30
 70
     1
102
RTVSPropertyOp31
 70
     1
102
RTVSPropertyOp32
 70
     1
  0
XRECORD
  5
6F99
102
{ACAD_REACTORS
330
6F98
102
}
330
6F98
100
AcDbXrecord
280
     1
102
RTVSPropertyOp0
 70
     1
102
RTVSPropertyOp1
 70
     1
102
RTVSPropertyOp2
 70
     1
102
RTVSPropertyOp3
 70
     1
102
RTVSPropertyOp4
 70
     1
102
RTVSPropertyOp5
 70
     1
102
RTVSPropertyOp6
 70
     1
102
RTVSPropertyOp7
 70
     1
102
RTVSPropertyOp8
 70
     1
102
RTVSPropertyOp9
 70
     1
102
RTVSPropertyOp10
 70
     1
102
RTVSPropertyOp11
 70
     1
102
RTVSPropertyOp12
 70
     1
102
RTVSPropertyOp13
 70
     1
102
RTVSPropertyOp14
 70
     1
102
RTVSPropertyOp15
 70
     1
102
RTVSPropertyOp16
 70
     1
102
RTVSPropertyOp17
 70
     1
102
RTVSPropertyOp18
 70
     1
102
RTVSPropertyOp19
 70
     1
102
RTVSPropertyOp20
 70
     1
102
RTVSPropertyOp21
 70
     1
102
RTVSPropertyOp22
 70
     1
102
RTVSPropertyOp23
 70
     1
102
RTVSPropertyOp24
 70
     1
102
RTVSPropertyOp25
 70
     1
102
RTVSPropertyOp26
 70
     1
102
RTVSPropertyOp27
 70
     1
102
RTVSPropertyOp28
 70
     1
102
RTVSPropertyOp29
 70
     1
102
RTVSPropertyOp30
 70
     1
102
RTVSPropertyOp31
 70
     1
102
RTVSPropertyOp32
 70
     1
  0
ENDSEC
  0
EOF
