  0
SECTION
  2
HEADER
  9
$ACADVER
  1
AC1015
  9
$ACADMAINTVER
 70
    20
  9
$DWGCODEPAGE
  3
ANSI_1258
  9
$INSBASE
 10
0.0
 20
0.0
 30
0.0
  9
$EXTMIN
 10
-383.9472837347038
 20
23.67526952245018
 30
0.0
  9
$EXTMAX
 10
-383.776733093168
 20
23.86732684402542
 30
0.0
  9
$LIMMIN
 10
0.0
 20
0.0
  9
$LIMMAX
 10
12.0
 20
9.0
  9
$ORTHOMODE
 70
     0
  9
$REGENMODE
 70
     1
  9
$FILLMODE
 70
     1
  9
$QTEXTMODE
 70
     0
  9
$MIRRTEXT
 70
     0
  9
$LTSCALE
 40
0.05
  9
$ATTMODE
 70
     1
  9
$TEXTSIZE
 40
0.2
  9
$TRACEWID
 40
0.05
  9
$TEXTSTYLE
  7
Standard
  9
$CLAYER
  8
0
  9
$CELTYPE
  6
ByLayer
  9
$CECOLOR
 62
   256
  9
$CELTSCALE
 40
1.0
  9
$DISPSILH
 70
     0
  9
$DIMSCALE
 40
1.0
  9
$DIMASZ
 40
0.18
  9
$DIMEXO
 40
0.0625
  9
$DIMDLI
 40
0.38
  9
$DIMRND
 40
0.0
  9
$DIMDLE
 40
0.0
  9
$DIMEXE
 40
0.18
  9
$DIMTP
 40
0.0
  9
$DIMTM
 40
0.0
  9
$DIMTXT
 40
0.18
  9
$DIMCEN
 40
0.09
  9
$DIMTSZ
 40
0.0
  9
$DIMTOL
 70
     0
  9
$DIMLIM
 70
     0
  9
$DIMTIH
 70
     1
  9
$DIMTOH
 70
     1
  9
$DIMSE1
 70
     0
  9
$DIMSE2
 70
     0
  9
$DIMTAD
 70
     0
  9
$DIMZIN
 70
     0
  9
$DIMBLK
  1

  9
$DIMASO
 70
     1
  9
$DIMSHO
 70
     1
  9
$DIMPOST
  1

  9
$DIMAPOST
  1

  9
$DIMALT
 70
     0
  9
$DIMALTD
 70
     2
  9
$DIMALTF
 40
25.4
  9
$DIMLFAC
 40
1.0
  9
$DIMTOFL
 70
     0
  9
$DIMTVP
 40
0.0
  9
$DIMTIX
 70
     0
  9
$DIMSOXD
 70
     0
  9
$DIMSAH
 70
     0
  9
$DIMBLK1
  1

  9
$DIMBLK2
  1

  9
$DIMSTYLE
  2
Standard
  9
$DIMCLRD
 70
     0
  9
$DIMCLRE
 70
     0
  9
$DIMCLRT
 70
     0
  9
$DIMTFAC
 40
1.0
  9
$DIMGAP
 40
0.09
  9
$DIMJUST
 70
     0
  9
$DIMSD1
 70
     0
  9
$DIMSD2
 70
     0
  9
$DIMTOLJ
 70
     1
  9
$DIMTZIN
 70
     0
  9
$DIMALTZ
 70
     0
  9
$DIMALTTZ
 70
     0
  9
$DIMUPT
 70
     0
  9
$DIMDEC
 70
     4
  9
$DIMTDEC
 70
     4
  9
$DIMALTU
 70
     4
  9
$DIMALTTD
 70
     2
  9
$DIMTXSTY
  7
Standard
  9
$DIMAUNIT
 70
     0
  9
$DIMADEC
 70
     0
  9
$DIMALTRND
 40
0.0
  9
$DIMAZIN
 70
     0
  9
$DIMDSEP
 70
    46
  9
$DIMATFIT
 70
     3
  9
$DIMFRAC
 70
     0
  9
$DIMLDRBLK
  1

  9
$DIMLUNIT
 70
     4
  9
$DIMLWD
 70
    -2
  9
$DIMLWE
 70
    -2
  9
$DIMTMOVE
 70
     0
  9
$LUNITS
 70
     4
  9
$LUPREC
 70
     4
  9
$SKETCHINC
 40
0.1
  9
$FILLETRAD
 40
0.0
  9
$AUNITS
 70
     0
  9
$AUPREC
 70
     0
  9
$MENU
  1
.
  9
$ELEVATION
 40
0.0
  9
$PELEVATION
 40
0.0
  9
$THICKNESS
 40
0.0
  9
$LIMCHECK
 70
     0
  9
$CHAMFERA
 40
0.0
  9
$CHAMFERB
 40
0.0
  9
$CHAMFERC
 40
0.0
  9
$CHAMFERD
 40
0.0
  9
$SKPOLY
 70
     0
  9
$TDCREATE
 40
2456195.363362812
  9
$TDUCREATE
 40
2456195.071696146
  9
$TDUPDATE
 40
2456196.624649305
  9
$TDUUPDATE
 40
2456196.332982639
  9
$TDINDWG
 40
0.0145431944
  9
$TDUSRTIMER
 40
0.0145431944
  9
$USRTIMER
 70
     1
  9
$ANGBASE
 50
0.0
  9
$ANGDIR
 70
     0
  9
$PDMODE
 70
     0
  9
$PDSIZE
 40
0.0
  9
$PLINEWID
 40
0.0
  9
$SPLFRAME
 70
     0
  9
$SPLINETYPE
 70
     6
  9
$SPLINESEGS
 70
     8
  9
$HANDSEED
  5
121B
  9
$SURFTAB1
 70
     6
  9
$SURFTAB2
 70
     6
  9
$SURFTYPE
 70
     6
  9
$SURFU
 70
     6
  9
$SURFV
 70
     6
  9
$UCSBASE
  2

  9
$UCSNAME
  2

  9
$UCSORG
 10
0.0
 20
0.0
 30
0.0
  9
$UCSXDIR
 10
1.0
 20
0.0
 30
0.0
  9
$UCSYDIR
 10
0.0
 20
1.0
 30
0.0
  9
$UCSORTHOREF
  2

  9
$UCSORTHOVIEW
 70
     0
  9
$UCSORGTOP
 10
0.0
 20
0.0
 30
0.0
  9
$UCSORGBOTTOM
 10
0.0
 20
0.0
 30
0.0
  9
$UCSORGLEFT
 10
0.0
 20
0.0
 30
0.0
  9
$UCSORGRIGHT
 10
0.0
 20
0.0
 30
0.0
  9
$UCSORGFRONT
 10
0.0
 20
0.0
 30
0.0
  9
$UCSORGBACK
 10
0.0
 20
0.0
 30
0.0
  9
$PUCSBASE
  2

  9
$PUCSNAME
  2

  9
$PUCSORG
 10
0.0
 20
0.0
 30
0.0
  9
$PUCSXDIR
 10
1.0
 20
0.0
 30
0.0
  9
$PUCSYDIR
 10
0.0
 20
1.0
 30
0.0
  9
$PUCSORTHOREF
  2

  9
$PUCSORTHOVIEW
 70
     0
  9
$PUCSORGTOP
 10
0.0
 20
0.0
 30
0.0
  9
$PUCSORGBOTTOM
 10
0.0
 20
0.0
 30
0.0
  9
$PUCSORGLEFT
 10
0.0
 20
0.0
 30
0.0
  9
$PUCSORGRIGHT
 10
0.0
 20
0.0
 30
0.0
  9
$PUCSORGFRONT
 10
0.0
 20
0.0
 30
0.0
  9
$PUCSORGBACK
 10
0.0
 20
0.0
 30
0.0
  9
$USERI1
 70
     0
  9
$USERI2
 70
     0
  9
$USERI3
 70
     0
  9
$USERI4
 70
     0
  9
$USERI5
 70
     0
  9
$USERR1
 40
0.0
  9
$USERR2
 40
0.0
  9
$USERR3
 40
0.0
  9
$USERR4
 40
0.0
  9
$USERR5
 40
0.0
  9
$WORLDVIEW
 70
     1
  9
$SHADEDGE
 70
     3
  9
$SHADEDIF
 70
    70
  9
$TILEMODE
 70
     1
  9
$MAXACTVP
 70
    64
  9
$PINSBASE
 10
0.0
 20
0.0
 30
0.0
  9
$PLIMCHECK
 70
     0
  9
$PEXTMIN
 10
104.8157895672585
 20
109.4383297104848
 30
-0.0015258207003583
  9
$PEXTMAX
 10
106.4005089970665
 20
110.8093130150537
 30
0.0000000349246037
  9
$PLIMMIN
 10
104.780949166326
 20
109.3963880069323
  9
$PLIMMAX
 10
106.8562867356945
 20
110.8636818723775
  9
$UNITMODE
 70
     0
  9
$VISRETAIN
 70
     1
  9
$PLINEGEN
 70
     0
  9
$PSLTSCALE
 70
     1
  9
$TREEDEPTH
 70
  3020
  9
$CMLSTYLE
  2
Standard
  9
$CMLJUST
 70
     0
  9
$CMLSCALE
 40
1.0
  9
$PROXYGRAPHICS
 70
     1
  9
$MEASUREMENT
 70
     0
  9
$CELWEIGHT
370
    -1
  9
$ENDCAPS
280
     0
  9
$JOINSTYLE
280
     0
  9
$LWDISPLAY
290
     0
  9
$INSUNITS
 70
     1
  9
$HYPERLINKBASE
  1

  9
$STYLESHEET
  1

  9
$XEDIT
290
     1
  9
$CEPSNTYPE
380
     0
  9
$PSTYLEMODE
290
     1
  9
$FINGERPRINTGUID
  2
{F304DA45-ACB9-47CE-95C2-6043AF314999}
  9
$VERSIONGUID
  2
{BC87C300-EF52-4BD1-BC2C-0FF9963AB5FA}
  9
$EXTNAMES
290
     1
  9
$PSVPSCALE
 40
0.0
  9
$OLESTARTUP
290
     0
  0
ENDSEC
  0
SECTION
  2
CLASSES
  0
CLASS
  1
ACDBDICTIONARYWDFLT
  2
AcDbDictionaryWithDefault
  3
ObjectDBX Classes
 90
        0
280
     0
281
     0
  0
CLASS
  1
MATERIAL
  2
AcDbMaterial
  3
ObjectDBX Classes
 90
     1153
280
     0
281
     0
  0
CLASS
  1
VISUALSTYLE
  2
AcDbVisualStyle
  3
ObjectDBX Classes
 90
     4095
280
     0
281
     0
  0
CLASS
  1
SCALE
  2
AcDbScale
  3
ObjectDBX Classes
 90
     1153
280
     0
281
     0
  0
CLASS
  1
TABLESTYLE
  2
AcDbTableStyle
  3
ObjectDBX Classes
 90
     4095
280
     0
281
     0
  0
CLASS
  1
MLEADERSTYLE
  2
AcDbMLeaderStyle
  3
ACDB_MLEADERSTYLE_CLASS
 90
     4095
280
     0
281
     0
  0
CLASS
  1
RASTERVARIABLES
  2
AcDbRasterVariables
  3
ISM
 90
        0
280
     0
281
     0
  0
CLASS
  1
CELLSTYLEMAP
  2
AcDbCellStyleMap
  3
ObjectDBX Classes
 90
     1152
280
     0
281
     0
  0
CLASS
  1
DICTIONARYVAR
  2
AcDbDictionaryVar
  3
ObjectDBX Classes
 90
        0
280
     0
281
     0
  0
CLASS
  1
SORTENTSTABLE
  2
AcDbSortentsTable
  3
ObjectDBX Classes
 90
        0
280
     0
281
     0
  0
CLASS
  1
SUN
  2
AcDbSun
  3
SCENEOE
 90
     1153
280
     0
281
     0
  0
CLASS
  1
ACDBPLACEHOLDER
  2
AcDbPlaceHolder
  3
ObjectDBX Classes
 90
        0
280
     0
281
     0
  0
CLASS
  1
LAYOUT
  2
AcDbLayout
  3
ObjectDBX Classes
 90
        0
280
     0
281
     0
  0
ENDSEC
  0
SECTION
  2
TABLES
  0
TABLE
  2
VPORT
  5
8
102
{ACAD_XDICTIONARY
360
29F
102
}
330
0
100
AcDbSymbolTable
 70
     1
  0
VPORT
  5
57
330
8
100
AcDbSymbolTableRecord
100
AcDbViewportTableRecord
  2
*Active
 70
     0
 10
0.0
 20
0.0
 11
1.0
 21
1.0
 12
-383.8313620802231
 22
23.7750621610105
 13
0.0
 23
0.0
 14
1.0
 24
1.0
 15
0.0
 25
0.0
 16
0.0
 26
0.0
 36
1.0
 17
0.0
 27
0.0
 37
0.0
 40
0.2133475813658698
 41
1.791616766467065
 42
50.0
 43
0.0
 44
0.0
 50
0.0
 51
0.0
 71
     0
 72
  1000
 73
     1
 74
     1
 75
     0
 76
     0
 77
     0
 78
     0
281
     0
 65
     1
110
0.0
120
0.0
130
0.0
111
1.0
121
0.0
131
0.0
112
0.0
122
1.0
132
0.0
 79
     0
146
0.0
1001
ACAD_NAV_VCDISPLAY
1070
     3
  0
ENDTAB
  0
TABLE
  2
LTYPE
  5
5
330
0
100
AcDbSymbolTable
 70
     2
  0
LTYPE
  5
5B
330
5
100
AcDbSymbolTableRecord
100
AcDbLinetypeTableRecord
  2
ByBlock
 70
     0
  3

 72
    65
 73
     0
 40
0.0
  0
LTYPE
  5
5C
330
5
100
AcDbSymbolTableRecord
100
AcDbLinetypeTableRecord
  2
ByLayer
 70
     0
  3

 72
    65
 73
     0
 40
0.0
  0
LTYPE
  5
5D
330
5
100
AcDbSymbolTableRecord
100
AcDbLinetypeTableRecord
  2
Continuous
 70
     0
  3
Solid line
 72
    65
 73
     0
 40
0.0
  0
LTYPE
  5
301
330
5
100
AcDbSymbolTableRecord
100
AcDbLinetypeTableRecord
  2
Dash
 70
     0
  3

 72
    65
 73
     2
 40
0.25
 49
0.125
 74
     0
 49
-0.125
 74
     0
  0
ENDTAB
  0
TABLE
  2
LAYER
  5
2
102
{ACAD_XDICTIONARY
360
2FA
102
}
330
0
100
AcDbSymbolTable
 70
     7
  0
LAYER
  5
54
330
2
100
AcDbSymbolTableRecord
100
AcDbLayerTableRecord
  2
0
 70
     0
 62
     7
  6
Continuous
370
    -3
390
F
  0
LAYER
  5
C6
330
2
100
AcDbSymbolTableRecord
100
AcDbLayerTableRecord
  2
S-FNDN-FTNG
 70
     0
 62
     4
  6
Continuous
370
    13
390
F
  0
LAYER
  5
D9
330
2
100
AcDbSymbolTableRecord
100
AcDbLayerTableRecord
  2
A-GENM
 70
     0
 62
     6
  6
Continuous
370
     9
390
F
  0
LAYER
  5
27B
330
2
100
AcDbSymbolTableRecord
100
AcDbLayerTableRecord
  2
A-ANNO-NPLT
 70
     0
 62
     5
  6
Continuous
290
     0
370
    -3
390
F
  0
LAYER
  5
281
330
2
100
AcDbSymbolTableRecord
100
AcDbLayerTableRecord
  2
A-ANNO-TEXT
 70
     0
 62
     2
  6
Continuous
370
     9
390
F
  0
LAYER
  5
302
330
2
100
AcDbSymbolTableRecord
100
AcDbLayerTableRecord
  2
Hiden
 70
     0
 62
     7
  6
Dash
370
    -3
390
F
1001
AcAecLayerStandard
1000

1000

1001
AcCmTransparency
1071
        0
  0
LAYER
  5
303
330
2
100
AcDbSymbolTableRecord
100
AcDbLayerTableRecord
  2
Layer1
 70
     0
 62
     7
  6
Continuous
370
    -3
390
F
1001
AcAecLayerStandard
1000

1000

1001
AcCmTransparency
1071
        0
  0
ENDTAB
  0
TABLE
  2
STYLE
  5
3
330
0
100
AcDbSymbolTable
 70
     2
  0
STYLE
  5
55
330
3
100
AcDbSymbolTableRecord
100
AcDbTextStyleTableRecord
  2
Standard
 70
     0
 40
0.0
 41
1.0
 50
0.0
 71
     0
 42
0.2
  3
txt
  4

  0
STYLE
  5
5A
330
3
100
AcDbSymbolTableRecord
100
AcDbTextStyleTableRecord
  2
Annotative
 70
     0
 40
0.0
 41
1.0
 50
0.0
 71
     0
 42
0.2
  3
txt
  4

1001
AcadAnnotative
1000
AnnotativeData
1002
{
1070
     1
1070
     1
1002
}
  0
ENDTAB
  0
TABLE
  2
VIEW
  5
6
330
0
100
AcDbSymbolTable
 70
     0
  0
ENDTAB
  0
TABLE
  2
UCS
  5
7
330
0
100
AcDbSymbolTable
 70
     0
  0
ENDTAB
  0
TABLE
  2
APPID
  5
9
330
0
100
AcDbSymbolTable
 70
    11
  0
APPID
  5
56
330
9
100
AcDbSymbolTableRecord
100
AcDbRegAppTableRecord
  2
ACAD
 70
     0
  0
APPID
  5
5E
330
9
100
AcDbSymbolTableRecord
100
AcDbRegAppTableRecord
  2
AcadAnnotative
 70
     0
  0
APPID
  5
74
330
9
100
AcDbSymbolTableRecord
100
AcDbRegAppTableRecord
  2
REVIT
 70
     0
  0
APPID
  5
2D5
330
9
100
AcDbSymbolTableRecord
100
AcDbRegAppTableRecord
  2
ACAD_MLEADERVER
 70
     0
  0
APPID
  5
2F5
330
9
100
AcDbSymbolTableRecord
100
AcDbRegAppTableRecord
  2
ACAD_PSEXT
 70
     0
  0
APPID
  5
304
330
9
100
AcDbSymbolTableRecord
100
AcDbRegAppTableRecord
  2
ACAD_NAV_VCDISPLAY
 70
     0
  0
APPID
  5
305
330
9
100
AcDbSymbolTableRecord
100
AcDbRegAppTableRecord
  2
AcAecLayerStandard
 70
     0
  0
APPID
  5
306
330
9
100
AcDbSymbolTableRecord
100
AcDbRegAppTableRecord
  2
AcCmTransparency
 70
     0
  0
APPID
  5
307
330
9
100
AcDbSymbolTableRecord
100
AcDbRegAppTableRecord
  2
GradientColor1ACI
 70
     0
  0
APPID
  5
308
330
9
100
AcDbSymbolTableRecord
100
AcDbRegAppTableRecord
  2
GradientColor2ACI
 70
     0
  0
APPID
  5
BD9
330
9
100
AcDbSymbolTableRecord
100
AcDbRegAppTableRecord
  2
ACAD_EXEMPT_FROM_CAD_STANDARDS
 70
     0
  0
ENDTAB
  0
TABLE
  2
DIMSTYLE
  5
A
330
0
100
AcDbSymbolTable
 70
     2
100
AcDbDimStyleTable
 71
     1
340
58
  0
DIMSTYLE
105
58
330
A
100
AcDbSymbolTableRecord
100
AcDbDimStyleTableRecord
  2
Standard
 70
     0
340
55
  0
DIMSTYLE
105
59
330
A
100
AcDbSymbolTableRecord
100
AcDbDimStyleTableRecord
  2
Annotative
 70
     0
340
55
1001
AcadAnnotative
1000
AnnotativeData
1002
{
1070
     1
1070
     1
1002
}
  0
ENDTAB
  0
TABLE
  2
BLOCK_RECORD
  5
1
330
0
100
AcDbSymbolTable
 70
     7
  0
BLOCK_RECORD
  5
6C
102
{ACAD_XDICTIONARY
360
294
102
}
330
1
100
AcDbSymbolTableRecord
100
AcDbBlockTableRecord
  2
*Model_Space
340
6F
  0
BLOCK_RECORD
  5
68
330
1
100
AcDbSymbolTableRecord
100
AcDbBlockTableRecord
  2
*Paper_Space
340
6B
  0
BLOCK_RECORD
  5
70
330
1
100
AcDbSymbolTableRecord
100
AcDbBlockTableRecord
  2
*Paper_Space0
340
73
  0
BLOCK_RECORD
  5
12E
330
1
100
AcDbSymbolTableRecord
100
AcDbBlockTableRecord
  2
FP_1-Perspective D90
340
0
  0
BLOCK_RECORD
  5
182
330
1
100
AcDbSymbolTableRecord
100
AcDbBlockTableRecord
  2
FP_2-Perspective D90
340
0
  0
BLOCK_RECORD
  5
1BF
330
1
100
AcDbSymbolTableRecord
100
AcDbBlockTableRecord
  2
FP_3-Perspective D90
340
0
  0
BLOCK_RECORD
  5
211
330
1
100
AcDbSymbolTableRecord
100
AcDbBlockTableRecord
  2
FP_4-Perspective D90
340
0
  0
BLOCK_RECORD
  5
21C
330
1
100
AcDbSymbolTableRecord
100
AcDbBlockTableRecord
  2
FP_5-Perspective D90
340
0
  0
BLOCK_RECORD
  5
228
330
1
100
AcDbSymbolTableRecord
100
AcDbBlockTableRecord
  2
FP_6-Perspective D90
340
0
  0
ENDTAB
  0
ENDSEC
  0
SECTION
  2
BLOCKS
  0
BLOCK
  5
6D
330
6C
100
AcDbEntity
  8
0
100
AcDbBlockBegin
  2
*Model_Space
 70
     0
 10
0.0
 20
0.0
 30
0.0
  3
*Model_Space
  1

  0
ENDBLK
  5
6E
330
6C
100
AcDbEntity
  8
0
100
AcDbBlockEnd
  0
BLOCK
  5
69
330
68
100
AcDbEntity
 67
     1
  8
0
100
AcDbBlockBegin
  2
*Paper_Space
 70
     0
 10
0.0
 20
0.0
 30
0.0
  3
*Paper_Space
  1

  0
ENDBLK
  5
6A
330
68
100
AcDbEntity
 67
     1
  8
0
100
AcDbBlockEnd
  0
BLOCK
  5
71
330
70
100
AcDbEntity
 67
     1
  8
0
100
AcDbBlockBegin
  2
*Paper_Space0
 70
     0
 10
0.0
 20
0.0
 30
0.0
  3
*Paper_Space0
  1

  0
ENDBLK
  5
72
330
70
100
AcDbEntity
 67
     1
  8
0
100
AcDbBlockEnd
  0
BLOCK
  5
17F
330
12E
100
AcDbEntity
  8
0
100
AcDbBlockBegin
  2
FP_1-Perspective D90
 70
     0
 10
0.0
 20
0.0
 30
0.0
  3
FP_1-Perspective D90
  1

  0
LINE
  5
12F
330
12E
100
AcDbEntity
  8
S-FNDN-FTNG
370
     9
100
AcDbLine
 10
-383.8402255360429
 20
23.73383053446539
 30
0.0
 11
-383.8379142845528
 21
23.73383053446539
 31
0.0
1001
REVIT
1002
{
1070
     2
1000
-2001300
1002
}
  0
LINE
  5
130
330
12E
100
AcDbEntity
  8
S-FNDN-FTNG
370
     9
100
AcDbLine
 10
-383.8676015850754
 20
23.73990275808159
 30
0.0
 11
-383.8653430610302
 21
23.73990275808159
 31
0.0
1001
REVIT
1002
{
1070
     2
1000
-2001300
1002
}
  0
LINE
  5
131
330
12E
100
AcDbEntity
  8
S-FNDN-FTNG
370
     9
100
AcDbLine
 10
-383.8265375115267
 20
23.73990275808159
 30
0.0
 11
-383.8242789874814
 21
23.73990275808159
 31
0.0
1001
REVIT
1002
{
1070
     2
1000
-2001300
1002
}
  0
LINE
  5
132
330
12E
100
AcDbEntity
  8
S-FNDN-FTNG
370
     9
100
AcDbLine
 10
-383.8808264872454
 20
23.74283614570023
 30
0.0
 11
-383.8785934349294
 21
23.74283614570023
 31
0.0
1001
REVIT
1002
{
1070
     2
1000
-2001300
1002
}
  0
LINE
  5
133
330
12E
100
AcDbEntity
  8
S-FNDN-FTNG
370
     9
100
AcDbLine
 10
-383.8537591864437
 20
23.74283614570023
 30
0.0
 11
-383.8515261341275
 21
23.74283614570023
 31
0.0
1001
REVIT
1002
{
1070
     2
1000
-2001300
1002
}
  0
LINE
  5
134
330
12E
100
AcDbEntity
  8
S-FNDN-FTNG
370
     9
100
AcDbLine
 10
-383.9071391336826
 20
23.74570410547924
 30
0.0
 11
-383.9049309849604
 21
23.74570410547924
 31
0.0
1001
REVIT
1002
{
1070
     2
1000
-2001300
1002
}
  0
LINE
  5
135
330
12E
100
AcDbEntity
  8
S-FNDN-FTNG
370
     9
100
AcDbLine
 10
-383.8402255360429
 20
23.74570410547924
 30
0.0
 11
-383.8380173873207
 21
23.74570410547924
 31
0.0
1001
REVIT
1002
{
1070
     2
1000
-2001300
1002
}
  0
LINE
  5
136
330
12E
100
AcDbEntity
  8
S-FNDN-FTNG
370
     9
100
AcDbLine
 10
-383.8000773774589
 20
23.74570410547924
 30
0.0
 11
-383.797869228737
 21
23.74570410547924
 31
0.0
1001
REVIT
1002
{
1070
     2
1000
-2001300
1002
}
  0
LINE
  5
137
330
12E
100
AcDbEntity
  8
S-FNDN-FTNG
370
     9
100
AcDbLine
 10
-383.8931660079158
 20
23.74850880228159
 30
0.0
 11
-383.8909822134509
 21
23.74850880228159
 31
0.0
1001
REVIT
1002
{
1070
     2
1000
-2001300
1002
}
  0
LINE
  5
138
330
12E
100
AcDbEntity
  8
S-FNDN-FTNG
370
     9
100
AcDbLine
 10
-383.8534606540113
 20
23.74850880228159
 30
0.0
 11
-383.8517173614121
 21
23.74850880228159
 31
0.0
1001
REVIT
1002
{
1070
     2
1000
-2001300
1002
}
  0
LINE
  5
139
330
12E
100
AcDbEntity
  8
S-FNDN-FTNG
370
     9
100
AcDbLine
 10
-383.8137553001065
 20
23.74850880228159
 30
0.0
 11
-383.8115715056417
 21
23.74850880228159
 31
0.0
1001
REVIT
1002
{
1070
     2
1000
-2001300
1002
}
  0
LINE
  5
13A
330
12E
100
AcDbEntity
  8
S-FNDN-FTNG
370
     9
100
AcDbLine
 10
-383.9056792198619
 20
23.7512523065047
 30
0.0
 11
-383.9035192482955
 21
23.7512523065047
 31
0.0
1001
REVIT
1002
{
1070
     2
1000
-2001300
1002
}
  0
LINE
  5
13B
330
12E
100
AcDbEntity
  8
S-FNDN-FTNG
370
     9
100
AcDbLine
 10
-383.8664070095705
 20
23.7512523065047
 30
0.0
 11
-383.8642470380044
 21
23.7512523065047
 31
0.0
1001
REVIT
1002
{
1070
     2
1000
-2001300
1002
}
  0
LINE
  5
13C
330
12E
100
AcDbEntity
  8
S-FNDN-FTNG
370
     9
100
AcDbLine
 10
-383.7878625889878
 20
23.7512523065047
 30
0.0
 11
-383.7857026174219
 21
23.7512523065047
 31
0.0
1001
REVIT
1002
{
1070
     2
1000
-2001300
1002
}
  0
LINE
  5
13D
330
12E
100
AcDbEntity
  8
S-FNDN-FTNG
370
     9
100
AcDbLine
 10
-383.7485903786966
 20
23.7512523065047
 30
0.0
 11
-383.7464304071306
 21
23.7512523065047
 31
0.0
1001
REVIT
1002
{
1070
     2
1000
-2001300
1002
}
  0
LINE
  5
13E
330
12E
100
AcDbEntity
  8
S-FNDN-FTNG
370
     9
100
AcDbLine
 10
-383.9179223660019
 20
23.7539365991775
 30
0.0
 11
-383.9157857031779
 21
23.7539365991775
 31
0.0
1001
REVIT
1002
{
1070
     2
1000
-2001300
1002
}
  0
LINE
  5
13F
330
12E
100
AcDbEntity
  8
S-FNDN-FTNG
370
     9
100
AcDbLine
 10
-383.8013771210634
 20
23.7539365991775
 30
0.0
 11
-383.7992404582396
 21
23.7539365991775
 31
0.0
1001
REVIT
1002
{
1070
     2
1000
-2001300
1002
}
  0
LINE
  5
140
330
12E
100
AcDbEntity
  8
S-FNDN-FTNG
370
     9
100
AcDbLine
 10
-383.7754781777438
 20
23.7539365991775
 30
0.0
 11
-383.77334151492
 21
23.7539365991775
 31
0.0
1001
REVIT
1002
{
1070
     2
1000
-2001300
1002
}
  0
LINE
  5
141
330
12E
100
AcDbEntity
  8
S-FNDN-FTNG
370
     9
100
AcDbLine
 10
-383.891470427458
 20
23.75656357673091
 30
0.0
 11
-383.8893565756869
 21
23.75656357673091
 31
0.0
1001
REVIT
1002
{
1070
     2
1000
-2001300
1002
}
  0
LINE
  5
142
330
12E
100
AcDbEntity
  8
S-FNDN-FTNG
370
     9
100
AcDbLine
 10
-383.7633581989205
 20
23.75656357673091
 30
0.0
 11
-383.7612443471496
 21
23.75656357673091
 31
0.0
1001
REVIT
1002
{
1070
     2
1000
-2001300
1002
}
  0
LINE
  5
143
330
12E
100
AcDbEntity
  8
S-FNDN-FTNG
370
     9
100
AcDbLine
 10
-383.9036050098424
 20
23.75913505546598
 30
0.0
 11
-383.901513487207
 21
23.75913505546598
 31
0.0
1001
REVIT
1002
{
1070
     2
1000
-2001300
1002
}
  0
LINE
  5
144
330
12E
100
AcDbEntity
  8
S-FNDN-FTNG
370
     9
100
AcDbLine
 10
-383.8782532203227
 20
23.75913505546598
 30
0.0
 11
-383.8761616976873
 21
23.75913505546598
 31
0.0
1001
REVIT
1002
{
1070
     2
1000
-2001300
1002
}
  0
LINE
  5
145
330
12E
100
AcDbEntity
  8
S-FNDN-FTNG
370
     9
100
AcDbLine
 10
-383.814873746523
 20
23.75913505546598
 30
0.0
 11
-383.8127822238876
 21
23.75913505546598
 31
0.0
1001
REVIT
1002
{
1070
     2
1000
-2001300
1002
}
  0
LINE
  5
146
330
12E
100
AcDbEntity
  8
S-FNDN-FTNG
370
     9
100
AcDbLine
 10
-383.7768460622434
 20
23.75913505546598
 30
0.0
 11
-383.7747545396082
 21
23.75913505546598
 31
0.0
1001
REVIT
1002
{
1070
     2
1000
-2001300
1002
}
  0
LINE
  5
147
330
12E
100
AcDbEntity
  8
S-FNDN-FTNG
370
     9
100
AcDbLine
 10
-383.7900519528866
 20
23.76165277574182
 30
0.0
 11
-383.7879822925813
 21
23.76165277574182
 31
0.0
1001
REVIT
1002
{
1070
     2
1000
-2001300
1002
}
  0
LINE
  5
148
330
12E
100
AcDbEntity
  8
S-FNDN-FTNG
370
     9
100
AcDbLine
 10
-383.8774664504691
 20
23.76411840590358
 30
0.0
 11
-383.8754182001758
 21
23.76411840590358
 31
0.0
1001
REVIT
1002
{
1070
     2
1000
-2001300
1002
}
  0
LINE
  5
149
330
12E
100
AcDbEntity
  8
S-FNDN-FTNG
370
     9
100
AcDbLine
 10
-383.9311230797065
 20
23.75567063828092
 30
0.0
 11
-383.932324899187
 21
23.75529596290467
 31
0.0
1001
REVIT
1002
{
1070
     2
1000
-2001300
1002
}
  0
LINE
  5
14A
330
12E
100
AcDbEntity
  8
S-FNDN-FTNG
370
     9
100
AcDbLine
 10
-383.8926074139261
 20
23.76319187284132
 30
0.0
 11
-383.8937149402633
 21
23.76283992643356
 31
0.0
1001
REVIT
1002
{
1070
     2
1000
-2001300
1002
}
  0
LINE
  5
14B
330
12E
100
AcDbEntity
  8
S-FNDN-FTNG
370
     9
100
AcDbLine
 10
-383.8955597380962
 20
23.75757225500283
 30
0.0
 11
-383.8966980788299
 21
23.75720339353386
 31
0.0
1001
REVIT
1002
{
1070
     2
1000
-2001300
1002
}
  0
LINE
  5
14C
330
12E
100
AcDbEntity
  8
S-FNDN-FTNG
370
     9
100
AcDbLine
 10
-383.916812445041
 20
23.75068564849703
 30
0.0
 11
-383.9180164297255
 21
23.75029551613502
 31
0.0
1001
REVIT
1002
{
1070
     2
1000
-2001300
1002
}
  0
LINE
  5
14D
330
12E
100
AcDbEntity
  8
S-FNDN-FTNG
370
     9
100
AcDbLine
 10
-383.8779848548342
 20
23.75851200617308
 30
0.0
 11
-383.8790921392718
 21
23.75814600104225
 31
0.0
1001
REVIT
1002
{
1070
     2
1000
-2001300
1002
}
  0
LINE
  5
14E
330
12E
100
AcDbEntity
  8
S-FNDN-FTNG
370
     9
100
AcDbLine
 10
-383.8916365923606
 20
23.75399951975985
 30
0.0
 11
-383.8927856777924
 21
23.75361969760254
 31
0.0
1001
REVIT
1002
{
1070
     2
1000
-2001300
1002
}
  0
LINE
  5
14F
330
12E
100
AcDbEntity
  8
S-FNDN-FTNG
370
     9
100
AcDbLine
 10
-383.8875960837023
 20
23.75031990430424
 30
0.0
 11
-383.8887560518472
 21
23.74992862555595
 31
0.0
1001
REVIT
1002
{
1070
     2
1000
-2001300
1002
}
  0
LINE
  5
150
330
12E
100
AcDbEntity
  8
S-FNDN-FTNG
370
     9
100
AcDbLine
 10
-383.8695293278342
 20
23.7513166071902
 30
0.0
 11
-383.8706564586705
 21
23.75092844854163
 31
0.0
1001
REVIT
1002
{
1070
     2
1000
-2001300
1002
}
  0
LINE
  5
151
330
12E
100
AcDbEntity
  8
S-FNDN-FTNG
370
     9
100
AcDbLine
 10
-383.8905873567692
 20
23.74406469304696
 30
0.0
 11
-383.8917812374812
 21
23.74365354723423
 31
0.0
1001
REVIT
1002
{
1070
     2
1000
-2001300
1002
}
  0
LINE
  5
152
330
12E
100
AcDbEntity
  8
S-FNDN-FTNG
370
     9
100
AcDbLine
 10
-383.8139816167707
 20
23.76553941306715
 30
0.0
 11
-383.8149624534894
 21
23.76519441502716
 31
0.0
1001
REVIT
1002
{
1070
     2
1000
-2001300
1002
}
  0
LINE
  5
153
330
12E
100
AcDbEntity
  8
S-FNDN-FTNG
370
     9
100
AcDbLine
 10
-383.8150570737623
 20
23.76003195604475
 30
0.0
 11
-383.8154096219245
 21
23.75990524286101
 31
0.0
1001
REVIT
1002
{
1070
     2
1000
-2001300
1002
}
  0
LINE
  5
154
330
12E
100
AcDbEntity
  8
S-FNDN-FTNG
370
     9
100
AcDbLine
 10
-383.8536788337507
 20
23.7461504876577
 30
0.0
 11
-383.8548041616881
 21
23.74574602125865
 31
0.0
1001
REVIT
1002
{
1070
     2
1000
-2001300
1002
}
  0
LINE
  5
155
330
12E
100
AcDbEntity
  8
S-FNDN-FTNG
370
     9
100
AcDbLine
 10
-383.8747152413477
 20
23.73858956275098
 30
0.0
 11
-383.8759086601945
 21
23.73816062305492
 31
0.0
1001
REVIT
1002
{
1070
     2
1000
-2001300
1002
}
  0
LINE
  5
156
330
12E
100
AcDbEntity
  8
S-FNDN-FTNG
370
     9
100
AcDbLine
 10
-383.8354492516027
 20
23.74718068776029
 30
0.0
 11
-383.8365410776612
 21
23.74677950019424
 31
0.0
1001
REVIT
1002
{
1070
     2
1000
-2001300
1002
}
  0
LINE
  5
157
330
12E
100
AcDbEntity
  8
S-FNDN-FTNG
370
     9
100
AcDbLine
 10
-383.8489212574475
 20
23.74223044757047
 30
0.0
 11
-383.8500562935966
 21
23.74181338261179
 31
0.0
1001
REVIT
1002
{
1070
     2
1000
-2001300
1002
}
  0
LINE
  5
158
330
12E
100
AcDbEntity
  8
S-FNDN-FTNG
370
     9
100
AcDbLine
 10
-383.7810110310199
 20
23.76186654523214
 30
0.0
 11
-383.7819579798504
 21
23.76151064541227
 31
0.0
1001
REVIT
1002
{
1070
     2
1000
-2001300
1002
}
  0
LINE
  5
159
330
12E
100
AcDbEntity
  8
S-FNDN-FTNG
370
     9
100
AcDbLine
 10
-383.798682055003
 20
23.75522509423724
 30
0.0
 11
-383.799682602186
 21
23.75484905009344
 31
0.0
1001
REVIT
1002
{
1070
     2
1000
-2001300
1002
}
  0
LINE
  5
15A
330
12E
100
AcDbEntity
  8
S-FNDN-FTNG
370
     9
100
AcDbLine
 10
-383.8110207099721
 20
23.75058775276798
 30
0.0
 11
-383.8120595579073
 21
23.75019731372732
 31
0.0
1001
REVIT
1002
{
1070
     2
1000
-2001300
1002
}
  0
LINE
  5
15B
330
12E
100
AcDbEntity
  8
S-FNDN-FTNG
370
     9
100
AcDbLine
 10
-383.8440144399232
 20
23.73818743907822
 30
0.0
 11
-383.8451592440602
 21
23.73775717761839
 31
0.0
1001
REVIT
1002
{
1070
     2
1000
-2001300
1002
}
  0
LINE
  5
15C
330
12E
100
AcDbEntity
  8
S-FNDN-FTNG
370
     9
100
AcDbLine
 10
-383.7755005794544
 20
23.75842016129939
 30
0.0
 11
-383.7764528988143
 21
23.75805387749979
 31
0.0
1001
REVIT
1002
{
1070
     2
1000
-2001300
1002
}
  0
LINE
  5
15D
330
12E
100
AcDbEntity
  8
S-FNDN-FTNG
370
     9
100
AcDbLine
 10
-383.8057005036324
 20
23.74680457996971
 30
0.0
 11
-383.8067466792463
 21
23.7464021969089
 31
0.0
1001
REVIT
1002
{
1070
     2
1000
-2001300
1002
}
  0
LINE
  5
15E
330
12E
100
AcDbEntity
  8
S-FNDN-FTNG
370
     9
100
AcDbLine
 10
-383.8252558504293
 20
23.73928314647826
 30
0.0
 11
-383.8263651570806
 21
23.7388564817771
 31
0.0
1001
REVIT
1002
{
1070
     2
1000
-2001300
1002
}
  0
LINE
  5
15F
330
12E
100
AcDbEntity
  8
S-FNDN-FTNG
370
     9
100
AcDbLine
 10
-383.7698282857247
 20
23.75487255694431
 30
0.0
 11
-383.7707858845947
 21
23.75449542799015
 31
0.0
1001
REVIT
1002
{
1070
     2
1000
-2001300
1002
}
  0
LINE
  5
160
330
12E
100
AcDbEntity
  8
S-FNDN-FTNG
370
     9
100
AcDbLine
 10
-383.7877119146609
 20
23.74782948861044
 30
0.0
 11
-383.7887253768522
 21
23.74743035913329
 31
0.0
1001
REVIT
1002
{
1070
     2
1000
-2001300
1002
}
  0
LINE
  5
161
330
12E
100
AcDbEntity
  8
S-FNDN-FTNG
370
     9
100
AcDbLine
 10
-383.8066536190864
 20
23.74036972084711
 30
0.0
 11
-383.8077279794278
 21
23.7399466079919
 31
0.0
1001
REVIT
1002
{
1070
     2
1000
-2001300
1002
}
  0
LINE
  5
162
330
12E
100
AcDbEntity
  8
S-FNDN-FTNG
370
     9
100
AcDbLine
 10
-383.7525512479409
 20
23.75583331349542
 30
0.0
 11
-383.7534786114214
 21
23.75545913725507
 31
0.0
1001
REVIT
1002
{
1070
     2
1000
-2001300
1002
}
  0
LINE
  5
163
330
12E
100
AcDbEntity
  8
S-FNDN-FTNG
370
     9
100
AcDbLine
 10
-383.7698683704256
 20
23.74884613325651
 30
0.0
 11
-383.7708496120299
 21
23.74845021806027
 31
0.0
1001
REVIT
1002
{
1070
     2
1000
-2001300
1002
}
  0
LINE
  5
164
330
12E
100
AcDbEntity
  8
S-FNDN-FTNG
370
     9
100
AcDbLine
 10
-383.7634177478404
 20
23.75557661896253
 30
0.0
 11
-383.764594804356
 21
23.75595043604241
 31
0.0
1001
REVIT
1002
{
1070
     2
1000
-2001300
1002
}
  0
LINE
  5
165
330
12E
100
AcDbEntity
  8
S-FNDN-FTNG
370
     9
100
AcDbLine
 10
-383.7842708072703
 20
23.76219926594797
 30
0.0
 11
-383.7853849894285
 21
23.76255311499047
 31
0.0
1001
REVIT
1002
{
1070
     2
1000
-2001300
1002
}
  0
LINE
  5
166
330
12E
100
AcDbEntity
  8
S-FNDN-FTNG
370
     9
100
AcDbLine
 10
-383.7670545614472
 20
23.75194438031551
 30
0.0
 11
-383.7682434377809
 21
23.7523293813679
 31
0.0
1001
REVIT
1002
{
1070
     2
1000
-2001300
1002
}
  0
LINE
  5
167
330
12E
100
AcDbEntity
  8
S-FNDN-FTNG
370
     9
100
AcDbLine
 10
-383.788109025311
 20
23.75876257537475
 30
0.0
 11
-383.7892334915894
 21
23.75912671812723
 31
0.0
1001
REVIT
1002
{
1070
     2
1000
-2001300
1002
}
  0
LINE
  5
168
330
12E
100
AcDbEntity
  8
S-FNDN-FTNG
370
     9
100
AcDbLine
 10
-383.7708010948282
 20
23.74820255991679
 30
0.0
 11
-383.7720019741553
 21
23.74859925446235
 31
0.0
1001
REVIT
1002
{
1070
     2
1000
-2001300
1002
}
  0
LINE
  5
169
330
12E
100
AcDbEntity
  8
S-FNDN-FTNG
370
     9
100
AcDbLine
 10
-383.812164904015
 20
23.76186654523214
 30
0.0
 11
-383.8132390781817
 21
23.76222138440979
 31
0.0
1001
REVIT
1002
{
1070
     2
1000
-2001300
1002
}
  0
LINE
  5
16A
330
12E
100
AcDbEntity
  8
S-FNDN-FTNG
370
     9
100
AcDbLine
 10
-383.7961281865207
 20
23.75158232260101
 30
0.0
 11
-383.7972736051987
 21
23.7519684474807
 31
0.0
1001
REVIT
1002
{
1070
     2
1000
-2001300
1002
}
  0
LINE
  5
16B
330
12E
100
AcDbEntity
  8
S-FNDN-FTNG
370
     9
100
AcDbLine
 10
-383.8003194847536
 20
23.74782948861044
 30
0.0
 11
-383.8014755669622
 21
23.74822735860929
 31
0.0
1001
REVIT
1002
{
1070
     2
1000
-2001300
1002
}
  0
LINE
  5
16C
330
12E
100
AcDbEntity
  8
S-FNDN-FTNG
370
     9
100
AcDbLine
 10
-383.8140909565624
 20
23.75256899193704
 30
0.0
 11
-383.8152040234086
 21
23.7529520580388
 31
0.0
1001
REVIT
1002
{
1070
     2
1000
-2001300
1002
}
  0
LINE
  5
16D
330
12E
100
AcDbEntity
  8
S-FNDN-FTNG
370
     9
100
AcDbLine
 10
-383.7974865401299
 20
23.74144727590046
 30
0.0
 11
-383.7986764171363
 21
23.74186552352975
 31
0.0
1001
REVIT
1002
{
1070
     2
1000
-2001300
1002
}
  0
LINE
  5
16E
330
12E
100
AcDbEntity
  8
S-FNDN-FTNG
370
     9
100
AcDbLine
 10
-383.8161735193084
 20
23.74251592347393
 30
0.0
 11
-383.8173283820119
 21
23.74293072362767
 31
0.0
1001
REVIT
1002
{
1070
     2
1000
-2001300
1002
}
  0
LINE
  5
16F
330
12E
100
AcDbEntity
  8
S-FNDN-FTNG
370
     9
100
AcDbLine
 10
-383.8208342312714
 20
23.73848193523722
 30
0.0
 11
-383.8219995318139
 21
23.73890982370581
 31
0.0
1001
REVIT
1002
{
1070
     2
1000
-2001300
1002
}
  0
LINE
  5
170
330
12E
100
AcDbEntity
  8
S-FNDN-FTNG
370
     9
100
AcDbLine
 10
-383.8414421749921
 20
23.74604899725958
 30
0.0
 11
-383.842541066928
 21
23.74645250105139
 31
0.0
1001
REVIT
1002
{
1070
     2
1000
-2001300
1002
}
  0
LINE
  5
171
330
12E
100
AcDbEntity
  8
S-FNDN-FTNG
370
     9
100
AcDbLine
 10
-383.8792760196828
 20
23.75994126391152
 30
0.0
 11
-383.8802580568011
 21
23.76030185960626
 31
0.0
1001
REVIT
1002
{
1070
     2
1000
-2001300
1002
}
  0
LINE
  5
172
330
12E
100
AcDbEntity
  8
S-FNDN-FTNG
370
     9
100
AcDbLine
 10
-383.8660267681547
 20
23.74948642514335
 30
0.0
 11
-383.8670722743854
 21
23.74987908782263
 31
0.0
1001
REVIT
1002
{
1070
     2
1000
-2001300
1002
}
  0
LINE
  5
173
330
12E
100
AcDbEntity
  8
S-FNDN-FTNG
370
     9
100
AcDbLine
 10
-383.8845374552929
 20
23.75643851762642
 30
0.0
 11
-383.8855257812578
 21
23.75680970500917
 31
0.0
1001
REVIT
1002
{
1070
     2
1000
-2001300
1002
}
  0
LINE
  5
174
330
12E
100
AcDbEntity
  8
S-FNDN-FTNG
370
     9
100
AcDbLine
 10
-383.8963175072415
 20
23.7608627731925
 30
0.0
 11
-383.897270280124
 21
23.76122060783932
 31
0.0
1001
REVIT
1002
{
1070
     2
1000
-2001300
1002
}
  0
LINE
  5
175
330
12E
100
AcDbEntity
  8
S-FNDN-FTNG
370
     9
100
AcDbLine
 10
-383.8515709274516
 20
23.7380794801179
 30
0.0
 11
-383.8526876505786
 21
23.73850868549052
 31
0.0
1001
REVIT
1002
{
1070
     2
1000
-2001300
1002
}
  0
LINE
  5
176
330
12E
100
AcDbEntity
  8
S-FNDN-FTNG
370
     9
100
AcDbLine
 10
-383.8713189664707
 20
23.74566951227688
 30
0.0
 11
-383.872371955712
 21
23.7460742219393
 31
0.0
1001
REVIT
1002
{
1070
     2
1000
-2001300
1002
}
  0
LINE
  5
177
330
12E
100
AcDbEntity
  8
S-FNDN-FTNG
370
     9
100
AcDbLine
 10
-383.8838605256682
 20
23.7504897801293
 30
0.0
 11
-383.8848740095858
 21
23.75087930617398
 31
0.0
1001
REVIT
1002
{
1070
     2
1000
-2001300
1002
}
  0
LINE
  5
178
330
12E
100
AcDbEntity
  8
S-FNDN-FTNG
370
     9
100
AcDbLine
 10
-383.8568775001825
 20
23.73390415620587
 30
0.0
 11
-383.8580031613708
 21
23.73434714316278
 31
0.0
1001
REVIT
1002
{
1070
     2
1000
-2001300
1002
}
  0
LINE
  5
179
330
12E
100
AcDbEntity
  8
S-FNDN-FTNG
370
     9
100
AcDbLine
 10
-383.8702738554076
 20
23.7391760894463
 30
0.0
 11
-383.8713553905563
 21
23.73960171126699
 31
0.0
1001
REVIT
1002
{
1070
     2
1000
-2001300
1002
}
  0
LINE
  5
17A
330
12E
100
AcDbEntity
  8
S-FNDN-FTNG
370
     9
100
AcDbLine
 10
-383.9015519978131
 20
23.75148512991871
 30
0.0
 11
-383.9025339357546
 21
23.75187155676294
 31
0.0
1001
REVIT
1002
{
1070
     2
1000
-2001300
1002
}
  0
LINE
  5
17B
330
12E
100
AcDbEntity
  8
S-FNDN-FTNG
370
     9
100
AcDbLine
 10
-383.9189408411232
 20
23.75832824653659
 30
0.0
 11
-383.9198694859906
 21
23.75869370069651
 31
0.0
1001
REVIT
1002
{
1070
     2
1000
-2001300
1002
}
  0
LINE
  5
17C
330
12E
100
AcDbEntity
  8
S-FNDN-FTNG
370
     9
100
AcDbLine
 10
-383.8888208254201
 20
23.74026355448799
 30
0.0
 11
-383.889867718974
 21
23.74068563745019
 31
0.0
1001
REVIT
1002
{
1070
     2
1000
-2001300
1002
}
  0
LINE
  5
17D
330
12E
100
AcDbEntity
  8
S-FNDN-FTNG
370
     9
100
AcDbLine
 10
-383.907338225675
 20
23.74772933658445
 30
0.0
 11
-383.9083258471498
 21
23.74812752243259
 31
0.0
1001
REVIT
1002
{
1070
     2
1000
-2001300
1002
}
  0
LINE
  5
17E
330
12E
100
AcDbEntity
  8
S-FNDN-FTNG
370
     9
100
AcDbLine
 10
-383.9248208525558
 20
23.75477792229142
 30
0.0
 11
-383.9257540967894
 21
23.75515418450941
 31
0.0
1001
REVIT
1002
{
1070
     2
1000
-2001300
1002
}
  0
ENDBLK
  5
180
330
12E
100
AcDbEntity
  8
0
100
AcDbBlockEnd
  0
BLOCK
  5
1BC
330
182
100
AcDbEntity
  8
0
100
AcDbBlockBegin
  2
FP_2-Perspective D90
 70
     0
 10
0.0
 20
0.0
 30
0.0
  3
FP_2-Perspective D90
  1

  0
LINE
  5
183
330
182
100
AcDbEntity
  8
S-FNDN-FTNG
370
     9
100
AcDbLine
 10
-383.7732020690085
 20
23.7030449094114
 30
0.0
 11
-383.7714449631046
 21
23.70635382645432
 31
0.0
1001
REVIT
1002
{
1070
     2
1000
-2001300
1002
}
  0
LINE
  5
184
330
182
100
AcDbEntity
  8
S-FNDN-FTNG
370
     9
100
AcDbLine
 10
-383.8071330862291
 20
23.69872938703041
 30
0.0
 11
-383.8048284028056
 21
23.70296782680672
 31
0.0
1001
REVIT
1002
{
1070
     2
1000
-2001300
1002
}
  0
LINE
  5
185
330
182
100
AcDbEntity
  8
S-FNDN-FTNG
370
     9
100
AcDbLine
 10
-383.8423772051235
 20
23.69505017770519
 30
0.0
 11
-383.8399507984793
 21
23.69940544915967
 31
0.0
1001
REVIT
1002
{
1070
     2
1000
-2001300
1002
}
  0
LINE
  5
186
330
182
100
AcDbEntity
  8
S-FNDN-FTNG
370
     9
100
AcDbLine
 10
-383.8423772045877
 20
23.69505026092627
 30
0.0
 11
-383.839370103713
 21
23.69536417871498
 31
0.0
1001
REVIT
1002
{
1070
     2
1000
-2001300
1002
}
  0
LINE
  5
187
330
182
100
AcDbEntity
  8
S-FNDN-FTNG
370
     9
100
AcDbLine
 10
-383.8071330856993
 20
23.69872947101189
 30
0.0
 11
-383.8042768087488
 21
23.69902764396371
 31
0.0
1001
REVIT
1002
{
1070
     2
1000
-2001300
1002
}
  0
LINE
  5
188
330
182
100
AcDbEntity
  8
S-FNDN-FTNG
370
     9
100
AcDbLine
 10
-383.7710595437615
 20
23.70352804252124
 30
0.0
 11
-383.7714451398505
 21
23.70635344382403
 31
0.0
1001
REVIT
1002
{
1070
     2
1000
-2001300
1002
}
  0
LINE
  5
189
330
182
100
AcDbEntity
  8
S-FNDN-FTNG
370
     9
100
AcDbLine
 10
-383.8042769943436
 20
23.69902719036819
 30
0.0
 11
-383.8048285857574
 21
23.70296745900113
 31
0.0
1001
REVIT
1002
{
1070
     2
1000
-2001300
1002
}
  0
LINE
  5
18A
330
182
100
AcDbEntity
  8
S-FNDN-FTNG
370
     9
100
AcDbLine
 10
-383.8393702960445
 20
23.69536374140065
 30
0.0
 11
-383.8399509880519
 21
23.69940509694168
 31
0.0
1001
REVIT
1002
{
1070
     2
1000
-2001300
1002
}
  0
LINE
  5
18B
330
182
100
AcDbEntity
  8
S-FNDN-FTNG
370
     9
100
AcDbLine
 10
-383.842287850099
 20
23.68746626999568
 30
0.0
 11
-383.8392253173775
 21
23.6923752107395
 31
0.0
1001
REVIT
1002
{
1070
     2
1000
-2001300
1002
}
  0
LINE
  5
18C
330
182
100
AcDbEntity
  8
S-FNDN-FTNG
370
     9
100
AcDbLine
 10
-383.8388551956725
 20
23.68824032342179
 30
0.0
 11
-383.8392255572025
 21
23.69237476291961
 31
0.0
1001
REVIT
1002
{
1070
     2
1000
-2001300
1002
}
  0
LINE
  5
18D
330
182
100
AcDbEntity
  8
S-FNDN-FTNG
370
     9
100
AcDbLine
 10
-383.7956444187889
 20
23.70904477052079
 30
0.0
 11
-383.7923562758149
 21
23.71148531746854
 31
0.0
1001
REVIT
1002
{
1070
     2
1000
-2001300
1002
}
  0
LINE
  5
18E
330
182
100
AcDbEntity
  8
S-FNDN-FTNG
370
     9
100
AcDbLine
 10
-383.7572242642748
 20
23.73756122846444
 30
0.0
 11
-383.7541218445231
 21
23.73986392670927
 31
0.0
1001
REVIT
1002
{
1070
     2
1000
-2001300
1002
}
  0
LINE
  5
18F
330
182
100
AcDbEntity
  8
S-FNDN-FTNG
370
     9
100
AcDbLine
 10
-383.8243469851779
 20
23.72928714099656
 30
0.0
 11
-383.8209165795736
 21
23.73172910033877
 31
0.0
1001
REVIT
1002
{
1070
     2
1000
-2001300
1002
}
  0
LINE
  5
190
330
182
100
AcDbEntity
  8
S-FNDN-FTNG
370
     9
100
AcDbLine
 10
-383.757224258556
 20
23.73756124366352
 30
0.0
 11
-383.7550187281796
 21
23.73591151925783
 31
0.0
1001
REVIT
1002
{
1070
     2
1000
-2001300
1002
}
  0
LINE
  5
191
330
182
100
AcDbEntity
  8
S-FNDN-FTNG
370
     9
100
AcDbLine
 10
-383.8243469777541
 20
23.72928715987141
 30
0.0
 11
-383.821908193365
 21
23.72756721715522
 31
0.0
1001
REVIT
1002
{
1070
     2
1000
-2001300
1002
}
  0
LINE
  5
192
330
182
100
AcDbEntity
  8
S-FNDN-FTNG
370
     9
100
AcDbLine
 10
-383.7956444106462
 20
23.70904479180862
 30
0.0
 11
-383.7933068008382
 21
23.707396202052
 31
0.0
1001
REVIT
1002
{
1070
     2
1000
-2001300
1002
}
  0
LINE
  5
193
330
182
100
AcDbEntity
  8
S-FNDN-FTNG
370
     9
100
AcDbLine
 10
-383.7550188318987
 20
23.73591106433653
 30
0.0
 11
-383.7541219402086
 21
23.73986348749791
 31
0.0
1001
REVIT
1002
{
1070
     2
1000
-2001300
1002
}
  0
LINE
  5
194
330
182
100
AcDbEntity
  8
S-FNDN-FTNG
370
     9
100
AcDbLine
 10
-383.7933069258043
 20
23.70739576328724
 30
0.0
 11
-383.7923563901704
 21
23.7114849005934
 31
0.0
1001
REVIT
1002
{
1070
     2
1000
-2001300
1002
}
  0
LINE
  5
195
330
182
100
AcDbEntity
  8
S-FNDN-FTNG
370
     9
100
AcDbLine
 10
-383.821908311163
 20
23.72756679562736
 30
0.0
 11
-383.8209166873835
 21
23.73172869822844
 31
0.0
1001
REVIT
1002
{
1070
     2
1000
-2001300
1002
}
  0
LINE
  5
196
330
182
100
AcDbEntity
  8
S-FNDN-FTNG
370
     9
100
AcDbLine
 10
-383.8410062706056
 20
23.71618458369336
 30
0.0
 11
-383.8396901253343
 21
23.71779029964961
 31
0.0
1001
REVIT
1002
{
1070
     2
1000
-2001300
1002
}
  0
LINE
  5
197
330
182
100
AcDbEntity
  8
S-FNDN-FTNG
370
     9
100
AcDbLine
 10
-383.8416184188142
 20
23.69389041652599
 30
0.0
 11
-383.8403011101521
 21
23.69551804150409
 31
0.0
1001
REVIT
1002
{
1070
     2
1000
-2001300
1002
}
  0
LINE
  5
198
330
182
100
AcDbEntity
  8
S-FNDN-FTNG
370
     9
100
AcDbLine
 10
-383.8156436169999
 20
23.72598406128465
 30
0.0
 11
-383.8143752222107
 21
23.72755124982637
 31
0.0
1001
REVIT
1002
{
1070
     2
1000
-2001300
1002
}
  0
LINE
  5
199
330
182
100
AcDbEntity
  8
S-FNDN-FTNG
370
     9
100
AcDbLine
 10
-383.8162335410835
 20
23.7041026732783
 30
0.0
 11
-383.814964045652
 21
23.70569096771162
 31
0.0
1001
REVIT
1002
{
1070
     2
1000
-2001300
1002
}
  0
LINE
  5
19A
330
182
100
AcDbEntity
  8
S-FNDN-FTNG
370
     9
100
AcDbLine
 10
-383.7915830268476
 20
23.73494348890471
 30
0.0
 11
-383.7903591163764
 21
23.73647475096434
 31
0.0
1001
REVIT
1002
{
1070
     2
1000
-2001300
1002
}
  0
LINE
  5
19B
330
182
100
AcDbEntity
  8
S-FNDN-FTNG
370
     9
100
AcDbLine
 10
-383.7921522477234
 20
23.71345339236394
 30
0.0
 11
-383.7909272940122
 21
23.71500501280641
 31
0.0
1001
REVIT
1002
{
1070
     2
1000
-2001300
1002
}
  0
LINE
  5
19C
330
182
100
AcDbEntity
  8
S-FNDN-FTNG
370
     9
100
AcDbLine
 10
-383.7677145397563
 20
23.74440807000189
 30
0.0
 11
-383.7665339745754
 21
23.74590346452339
 31
0.0
1001
REVIT
1002
{
1070
     2
1000
-2001300
1002
}
  0
LINE
  5
19D
330
182
100
AcDbEntity
  8
S-FNDN-FTNG
370
     9
100
AcDbLine
 10
-383.7682635882615
 20
23.72330624030603
 30
0.0
 11
-383.7670820347788
 21
23.72482126479328
 31
0.0
1001
REVIT
1002
{
1070
     2
1000
-2001300
1002
}
  0
LINE
  5
19E
330
182
100
AcDbEntity
  8
S-FNDN-FTNG
370
     9
100
AcDbLine
 10
-383.7454737811091
 20
23.73247615149266
 30
0.0
 11
-383.7443329025524
 21
23.73395676677091
 31
0.0
1001
REVIT
1002
{
1070
     2
1000
-2001300
1002
}
  0
LINE
  5
19F
330
182
100
AcDbEntity
  8
S-FNDN-FTNG
370
     9
100
AcDbLine
 10
-383.746004360585
 20
23.71172743486982
 30
0.0
 11
-383.7448625431506
 21
23.71322702865471
 31
0.0
1001
REVIT
1002
{
1070
     2
1000
-2001300
1002
}
  0
LINE
  5
1A0
330
182
100
AcDbEntity
  8
S-FNDN-FTNG
370
     9
100
AcDbLine
 10
-383.8473023732787
 20
23.72647525362761
 30
0.0
 11
-383.8456430126132
 21
23.72708922800033
 31
0.0
1001
REVIT
1002
{
1070
     2
1000
-2001300
1002
}
  0
LINE
  5
1A1
330
182
100
AcDbEntity
  8
S-FNDN-FTNG
370
     9
100
AcDbLine
 10
-383.8283333332503
 20
23.73349392334388
 30
0.0
 11
-383.8267188953428
 21
23.73409127600034
 31
0.0
1001
REVIT
1002
{
1070
     2
1000
-2001300
1002
}
  0
LINE
  5
1A2
330
182
100
AcDbEntity
  8
S-FNDN-FTNG
370
     9
100
AcDbLine
 10
-383.8414539467871
 20
23.7046830402301
 30
0.0
 11
-383.8398085021041
 21
23.70532032370457
 31
0.0
1001
REVIT
1002
{
1070
     2
1000
-2001300
1002
}
  0
LINE
  5
1A3
330
182
100
AcDbEntity
  8
S-FNDN-FTNG
370
     9
100
AcDbLine
 10
-383.8103677726876
 20
23.71672276738819
 30
0.0
 11
-383.8087953133427
 21
23.71733178351933
 31
0.0
1001
REVIT
1002
{
1070
     2
1000
-2001300
1002
}
  0
LINE
  5
1A4
330
182
100
AcDbEntity
  8
S-FNDN-FTNG
370
     9
100
AcDbLine
 10
-383.7984283010801
 20
23.72134694468668
 30
0.0
 11
-383.7968834341511
 21
23.72194527422896
 31
0.0
1001
REVIT
1002
{
1070
     2
1000
-2001300
1002
}
  0
LINE
  5
1A5
330
182
100
AcDbEntity
  8
S-FNDN-FTNG
370
     9
100
AcDbLine
 10
-383.7807603748206
 20
23.7281897620412
 30
0.0
 11
-383.7792558913014
 21
23.72877245102143
 31
0.0
1001
REVIT
1002
{
1070
     2
1000
-2001300
1002
}
  0
LINE
  5
1A6
330
182
100
AcDbEntity
  8
S-FNDN-FTNG
370
     9
100
AcDbLine
 10
-383.7523107788949
 20
23.73920833806822
 30
0.0
 11
-383.7508701996142
 21
23.73976627683013
 31
0.0
1001
REVIT
1002
{
1070
     2
1000
-2001300
1002
}
  0
LINE
  5
1A7
330
182
100
AcDbEntity
  8
S-FNDN-FTNG
370
     9
100
AcDbLine
 10
-383.7413690627779
 20
23.74344608299853
 30
0.0
 11
-383.7399526922284
 21
23.74399464567832
 31
0.0
1001
REVIT
1002
{
1070
     2
1000
-2001300
1002
}
  0
LINE
  5
1A8
330
182
100
AcDbEntity
  8
S-FNDN-FTNG
370
     9
100
AcDbLine
 10
-383.7929828322058
 20
23.70033812625324
 30
0.0
 11
-383.791450468885
 21
23.70095811548216
 31
0.0
1001
REVIT
1002
{
1070
     2
1000
-2001300
1002
}
  0
LINE
  5
1A9
330
182
100
AcDbEntity
  8
S-FNDN-FTNG
370
     9
100
AcDbLine
 10
-383.7640114718724
 20
23.71205984466906
 30
0.0
 11
-383.7625447778883
 21
23.71265326429743
 31
0.0
1001
REVIT
1002
{
1070
     2
1000
-2001300
1002
}
  0
LINE
  5
1AA
330
182
100
AcDbEntity
  8
S-FNDN-FTNG
370
     9
100
AcDbLine
 10
-383.7528721425
 20
23.71656678120018
 30
0.0
 11
-383.7514303156668
 21
23.71715013966005
 31
0.0
1001
REVIT
1002
{
1070
     2
1000
-2001300
1002
}
  0
LINE
  5
1AB
330
182
100
AcDbEntity
  8
S-FNDN-FTNG
370
     9
100
AcDbLine
 10
-383.7371618394509
 20
23.74431106225765
 30
0.0
 11
-383.7369718289381
 21
23.74417588109948
 31
0.0
1001
REVIT
1002
{
1070
     2
1000
-2001300
1002
}
  0
LINE
  5
1AC
330
182
100
AcDbEntity
  8
S-FNDN-FTNG
370
     9
100
AcDbLine
 10
-383.7605655959893
 20
23.74105324014007
 30
0.0
 11
-383.7593242805301
 21
23.74018906564542
 31
0.0
1001
REVIT
1002
{
1070
     2
1000
-2001300
1002
}
  0
LINE
  5
1AD
330
182
100
AcDbEntity
  8
S-FNDN-FTNG
370
     9
100
AcDbLine
 10
-383.7848405394527
 20
23.73767414808755
 30
0.0
 11
-383.7835526097845
 21
23.73679718089487
 31
0.0
1001
REVIT
1002
{
1070
     2
1000
-2001300
1002
}
  0
LINE
  5
1AE
330
182
100
AcDbEntity
  8
S-FNDN-FTNG
370
     9
100
AcDbLine
 10
-383.7456014135558
 20
23.71095574340041
 30
0.0
 11
-383.7443884055603
 21
23.71012979129839
 31
0.0
1001
REVIT
1002
{
1070
     2
1000
-2001300
1002
}
  0
LINE
  5
1AF
330
182
100
AcDbEntity
  8
S-FNDN-FTNG
370
     9
100
AcDbLine
 10
-383.8100362362771
 20
23.73416688641153
 30
0.0
 11
-383.8086990165339
 21
23.73327676837746
 31
0.0
1001
REVIT
1002
{
1070
     2
1000
-2001300
1002
}
  0
LINE
  5
1B0
330
182
100
AcDbEntity
  8
S-FNDN-FTNG
370
     9
100
AcDbLine
 10
-383.7693174578781
 20
23.70706250124154
 30
0.0
 11
-383.7680594355122
 21
23.70622510080631
 31
0.0
1001
REVIT
1002
{
1070
     2
1000
-2001300
1002
}
  0
LINE
  5
1B1
330
182
100
AcDbEntity
  8
S-FNDN-FTNG
370
     9
100
AcDbLine
 10
-383.8362060857175
 20
23.73052402189184
 30
0.0
 11
-383.834816691235
 21
23.72962038160774
 31
0.0
1001
REVIT
1002
{
1070
     2
1000
-2001300
1002
}
  0
LINE
  5
1B2
330
182
100
AcDbEntity
  8
S-FNDN-FTNG
370
     9
100
AcDbLine
 10
-383.7939223486854
 20
23.70302334543186
 30
0.0
 11
-383.7926167589483
 21
23.70217421043412
 31
0.0
1001
REVIT
1002
{
1070
     2
1000
-2001300
1002
}
  0
LINE
  5
1B3
330
182
100
AcDbEntity
  8
S-FNDN-FTNG
370
     9
100
AcDbLine
 10
-383.8194670094662
 20
23.69882991633657
 30
0.0
 11
-383.8181111025836
 21
23.69796875247997
 31
0.0
1001
REVIT
1002
{
1070
     2
1000
-2001300
1002
}
  0
LINE
  5
1B4
330
182
100
AcDbEntity
  8
S-FNDN-FTNG
370
     9
100
AcDbLine
 10
-383.84600632943
 20
23.69447320330516
 30
0.0
 11
-383.8445971395253
 21
23.69359970825885
 31
0.0
1001
REVIT
1002
{
1070
     2
1000
-2001300
1002
}
  0
LINE
  5
1B5
330
182
100
AcDbEntity
  8
S-FNDN-FTNG
370
     9
100
AcDbLine
 10
-383.753169549187
 20
23.73633989954462
 30
0.0
 11
-383.7520965524971
 21
23.73516931426602
 31
0.0
1001
REVIT
1002
{
1070
     2
1000
-2001300
1002
}
  0
LINE
  5
1B6
330
182
100
AcDbEntity
  8
S-FNDN-FTNG
370
     9
100
AcDbLine
 10
-383.7426789598916
 20
23.72489519565328
 30
0.0
 11
-383.7416232453584
 21
23.72374346433631
 31
0.0
1001
REVIT
1002
{
1070
     2
1000
-2001300
1002
}
  0
LINE
  5
1B7
330
182
100
AcDbEntity
  8
S-FNDN-FTNG
370
     9
100
AcDbLine
 10
-383.7794315033145
 20
23.72463354333962
 30
0.0
 11
-383.7783146280233
 21
23.72344915480231
 31
0.0
1001
REVIT
1002
{
1070
     2
1000
-2001300
1002
}
  0
LINE
  5
1B8
330
182
100
AcDbEntity
  8
S-FNDN-FTNG
370
     9
100
AcDbLine
 10
-383.7685135225207
 20
23.71305558884047
 30
0.0
 11
-383.7674149957449
 21
23.71189065795547
 31
0.0
1001
REVIT
1002
{
1070
     2
1000
-2001300
1002
}
  0
LINE
  5
1B9
330
182
100
AcDbEntity
  8
S-FNDN-FTNG
370
     9
100
AcDbLine
 10
-383.8067790736375
 20
23.71244326998877
 30
0.0
 11
-383.8056155721379
 21
23.7112449250063
 31
0.0
1001
REVIT
1002
{
1070
     2
1000
-2001300
1002
}
  0
LINE
  5
1BA
330
182
100
AcDbEntity
  8
S-FNDN-FTNG
370
     9
100
AcDbLine
 10
-383.7954070408537
 20
23.70073067792786
 30
0.0
 11
-383.7942630437938
 21
23.69955242148618
 31
0.0
1001
REVIT
1002
{
1070
     2
1000
-2001300
1002
}
  0
LINE
  5
1BB
330
182
100
AcDbEntity
  8
S-FNDN-FTNG
370
     9
100
AcDbLine
 10
-383.8352809966445
 20
23.69973843996637
 30
0.0
 11
-383.8340678870469
 21
23.69852600261597
 31
0.0
1001
REVIT
1002
{
1070
     2
1000
-2001300
1002
}
  0
ENDBLK
  5
1BD
330
182
100
AcDbEntity
  8
0
100
AcDbBlockEnd
  0
BLOCK
  5
1FF
330
1BF
100
AcDbEntity
  8
0
100
AcDbBlockBegin
  2
FP_3-Perspective D90
 70
     0
 10
0.0
 20
0.0
 30
0.0
  3
FP_3-Perspective D90
  1

  0
LINE
  5
1C0
330
1BF
100
AcDbEntity
  8
S-FNDN-FTNG
370
     9
100
AcDbLine
 10
-383.8705450960106
 20
23.72530193903958
 30
0.0
 11
-383.8685043988368
 21
23.72857075628357
 31
0.0
1001
REVIT
1002
{
1070
     2
1000
-2001300
1002
}
  0
LINE
  5
1C1
330
1BF
100
AcDbEntity
  8
S-FNDN-FTNG
370
     9
100
AcDbLine
 10
-383.8999632387125
 20
23.73734798739022
 30
0.0
 11
-383.8980397780262
 21
23.74054505097423
 31
0.0
1001
REVIT
1002
{
1070
     2
1000
-2001300
1002
}
  0
LINE
  5
1C2
330
1BF
100
AcDbEntity
  8
S-FNDN-FTNG
370
     9
100
AcDbLine
 10
-383.9476306925422
 20
23.71441072702493
 30
0.0
 11
-383.9472464049985
 21
23.71507265031832
 31
0.0
1001
REVIT
1002
{
1070
     2
1000
-2001300
1002
}
  0
LINE
  5
1C3
330
1BF
100
AcDbEntity
  8
S-FNDN-FTNG
370
     9
100
AcDbLine
 10
-383.9277164983437
 20
23.74871230466862
 30
0.0
 11
-383.9270752809385
 21
23.74981678162581
 31
0.0
1001
REVIT
1002
{
1070
     2
1000
-2001300
1002
}
  0
LINE
  5
1C4
330
1BF
100
AcDbEntity
  8
S-FNDN-FTNG
370
     9
100
AcDbLine
 10
-383.9277164984028
 20
23.74871230818374
 30
0.0
 11
-383.9254638590901
 21
23.74778990477806
 31
0.0
1001
REVIT
1002
{
1070
     2
1000
-2001300
1002
}
  0
LINE
  5
1C5
330
1BF
100
AcDbEntity
  8
S-FNDN-FTNG
370
     9
100
AcDbLine
 10
-383.8999632387579
 20
23.73734799385717
 30
0.0
 11
-383.8975773271213
 21
23.73637101853462
 31
0.0
1001
REVIT
1002
{
1070
     2
1000
-2001300
1002
}
  0
LINE
  5
1C6
330
1BF
100
AcDbEntity
  8
S-FNDN-FTNG
370
     9
100
AcDbLine
 10
-383.8705450960406
 20
23.72530194863506
 30
0.0
 11
-383.8680137253539
 21
23.7242654112146
 31
0.0
1001
REVIT
1002
{
1070
     2
1000
-2001300
1002
}
  0
LINE
  5
1C7
330
1BF
100
AcDbEntity
  8
S-FNDN-FTNG
370
     9
100
AcDbLine
 10
-383.8680138595147
 20
23.72426590664228
 30
0.0
 11
-383.8685045308834
 21
23.72857126110198
 31
0.0
1001
REVIT
1002
{
1070
     2
1000
-2001300
1002
}
  0
LINE
  5
1C8
330
1BF
100
AcDbEntity
  8
S-FNDN-FTNG
370
     9
100
AcDbLine
 10
-383.8975774511308
 20
23.73637152445144
 30
0.0
 11
-383.8980399000662
 21
23.74054556319846
 31
0.0
1001
REVIT
1002
{
1070
     2
1000
-2001300
1002
}
  0
LINE
  5
1C9
330
1BF
100
AcDbEntity
  8
S-FNDN-FTNG
370
     9
100
AcDbLine
 10
-383.9254639738678
 20
23.74779042072974
 30
0.0
 11
-383.9256418588523
 21
23.74944074421076
 31
0.0
1001
REVIT
1002
{
1070
     2
1000
-2001300
1002
}
  0
LINE
  5
1CA
330
1BF
100
AcDbEntity
  8
S-FNDN-FTNG
370
     9
100
AcDbLine
 10
-383.9471619564055
 20
23.71426726657364
 30
0.0
 11
-383.9472465326196
 21
23.71507319370905
 31
0.0
1001
REVIT
1002
{
1070
     2
1000
-2001300
1002
}
  0
LINE
  5
1CB
330
1BF
100
AcDbEntity
  8
S-FNDN-FTNG
370
     9
100
AcDbLine
 10
-383.8735773394602
 20
23.69197073153179
 30
0.0
 11
-383.8702960222415
 21
23.69636022304687
 31
0.0
1001
REVIT
1002
{
1070
     2
1000
-2001300
1002
}
  0
LINE
  5
1CC
330
1BF
100
AcDbEntity
  8
S-FNDN-FTNG
370
     9
100
AcDbLine
 10
-383.9164833441028
 20
23.71558665107949
 30
0.0
 11
-383.9134760599429
 21
23.71986221694002
 31
0.0
1001
REVIT
1002
{
1070
     2
1000
-2001300
1002
}
  0
LINE
  5
1CD
330
1BF
100
AcDbEntity
  8
S-FNDN-FTNG
370
     9
100
AcDbLine
 10
-383.869880095197
 20
23.69061453357959
 30
0.0
 11
-383.8702961277925
 21
23.69636085382599
 31
0.0
1001
REVIT
1002
{
1070
     2
1000
-2001300
1002
}
  0
LINE
  5
1CE
330
1BF
100
AcDbEntity
  8
S-FNDN-FTNG
370
     9
100
AcDbLine
 10
-383.9130480560219
 20
23.71369642610001
 30
0.0
 11
-383.9134761474632
 21
23.7198628599622
 31
0.0
1001
REVIT
1002
{
1070
     2
1000
-2001300
1002
}
  0
LINE
  5
1CF
330
1BF
100
AcDbEntity
  8
S-FNDN-FTNG
370
     9
100
AcDbLine
 10
-383.9164833590242
 20
23.71558663334162
 30
0.0
 11
-383.9130479806311
 21
23.71369576493855
 31
0.0
1001
REVIT
1002
{
1070
     2
1000
-2001300
1002
}
  0
LINE
  5
1D0
330
1BF
100
AcDbEntity
  8
S-FNDN-FTNG
370
     9
100
AcDbLine
 10
-383.8735773555264
 20
23.69197071770391
 30
0.0
 11
-383.8726581590167
 21
23.69146478227625
 31
0.0
1001
REVIT
1002
{
1070
     2
1000
-2001300
1002
}
  0
LINE
  5
1D1
330
1BF
100
AcDbEntity
  8
S-FNDN-FTNG
370
     9
100
AcDbLine
 10
-383.8587359563007
 20
23.7066605621566
 30
0.0
 11
-383.8556994824539
 21
23.70760046267426
 31
0.0
1001
REVIT
1002
{
1070
     2
1000
-2001300
1002
}
  0
LINE
  5
1D2
330
1BF
100
AcDbEntity
  8
S-FNDN-FTNG
370
     9
100
AcDbLine
 10
-383.9485511948378
 20
23.71757984064084
 30
0.0
 11
-383.9460256232016
 21
23.71846650162399
 31
0.0
1001
REVIT
1002
{
1070
     2
1000
-2001300
1002
}
  0
LINE
  5
1D3
330
1BF
100
AcDbEntity
  8
S-FNDN-FTNG
370
     9
100
AcDbLine
 10
-383.9173133916239
 20
23.72854660195125
 30
0.0
 11
-383.9146154766146
 21
23.72949376810567
 31
0.0
1001
REVIT
1002
{
1070
     2
1000
-2001300
1002
}
  0
LINE
  5
1D4
330
1BF
100
AcDbEntity
  8
S-FNDN-FTNG
370
     9
100
AcDbLine
 10
-383.8822494509492
 20
23.73805737774949
 30
0.0
 11
-383.8818591069602
 21
23.73753616562762
 31
0.0
1001
REVIT
1002
{
1070
     2
1000
-2001300
1002
}
  0
LINE
  5
1D5
330
1BF
100
AcDbEntity
  8
S-FNDN-FTNG
370
     9
100
AcDbLine
 10
-383.8587359295384
 20
23.70666062839005
 30
0.0
 11
-383.8565806255348
 21
23.70378272939685
 31
0.0
1001
REVIT
1002
{
1070
     2
1000
-2001300
1002
}
  0
LINE
  5
1D6
330
1BF
100
AcDbEntity
  8
S-FNDN-FTNG
370
     9
100
AcDbLine
 10
-383.9173133669815
 20
23.72854666722524
 30
0.0
 11
-383.9153982790794
 21
23.72587754879353
 31
0.0
1001
REVIT
1002
{
1070
     2
1000
-2001300
1002
}
  0
LINE
  5
1D7
330
1BF
100
AcDbEntity
  8
S-FNDN-FTNG
370
     9
100
AcDbLine
 10
-383.9485511701773
 20
23.71757990786085
 30
0.0
 11
-383.9467583712592
 21
23.71497640617419
 31
0.0
1001
REVIT
1002
{
1070
     2
1000
-2001300
1002
}
  0
LINE
  5
1D8
330
1BF
100
AcDbEntity
  8
S-FNDN-FTNG
370
     9
100
AcDbLine
 10
-383.8565808217176
 20
23.7037833007799
 30
0.0
 11
-383.8556996498892
 21
23.70760109910038
 31
0.0
1001
REVIT
1002
{
1070
     2
1000
-2001300
1002
}
  0
LINE
  5
1D9
330
1BF
100
AcDbEntity
  8
S-FNDN-FTNG
370
     9
100
AcDbLine
 10
-383.8818592829677
 20
23.73753673601316
 30
0.0
 11
-383.881771007146
 21
23.73793186498339
 31
0.0
1001
REVIT
1002
{
1070
     2
1000
-2001300
1002
}
  0
LINE
  5
1DA
330
1BF
100
AcDbEntity
  8
S-FNDN-FTNG
370
     9
100
AcDbLine
 10
-383.9153984558348
 20
23.72587814029111
 30
0.0
 11
-383.9146156269542
 21
23.72949442384071
 31
0.0
1001
REVIT
1002
{
1070
     2
1000
-2001300
1002
}
  0
LINE
  5
1DB
330
1BF
100
AcDbEntity
  8
S-FNDN-FTNG
370
     9
100
AcDbLine
 10
-383.9467585482956
 20
23.71497701755764
 30
0.0
 11
-383.9460257739221
 21
23.71846717920333
 31
0.0
1001
REVIT
1002
{
1070
     2
1000
-2001300
1002
}
  0
LINE
  5
1DC
330
1BF
100
AcDbEntity
  8
S-FNDN-FTNG
370
     9
100
AcDbLine
 10
-383.9480482087047
 20
23.74152604868076
 30
0.0
 11
-383.9471044520733
 21
23.74249769929548
 31
0.0
1001
REVIT
1002
{
1070
     2
1000
-2001300
1002
}
  0
LINE
  5
1DD
330
1BF
100
AcDbEntity
  8
S-FNDN-FTNG
370
     9
100
AcDbLine
 10
-383.9484858968278
 20
23.72124261597798
 30
0.0
 11
-383.9475430261861
 21
23.72219329601128
 31
0.0
1001
REVIT
1002
{
1070
     2
1000
-2001300
1002
}
  0
LINE
  5
1DE
330
1BF
100
AcDbEntity
  8
S-FNDN-FTNG
370
     9
100
AcDbLine
 10
-383.9294968179772
 20
23.74038897319295
 30
0.0
 11
-383.9285151257719
 21
23.74137879633215
 31
0.0
1001
REVIT
1002
{
1070
     2
1000
-2001300
1002
}
  0
LINE
  5
1DF
330
1BF
100
AcDbEntity
  8
S-FNDN-FTNG
370
     9
100
AcDbLine
 10
-383.9299520861544
 20
23.71970284223089
 30
0.0
 11
-383.9289713338791
 21
23.72067085336494
 31
0.0
1001
REVIT
1002
{
1070
     2
1000
-2001300
1002
}
  0
LINE
  5
1E0
330
1BF
100
AcDbEntity
  8
S-FNDN-FTNG
370
     9
100
AcDbLine
 10
-383.9096353133181
 20
23.73975567596673
 30
0.0
 11
-383.9086121770928
 21
23.74076552043268
 31
0.0
1001
REVIT
1002
{
1070
     2
1000
-2001300
1002
}
  0
LINE
  5
1E1
330
1BF
100
AcDbEntity
  8
S-FNDN-FTNG
370
     9
100
AcDbLine
 10
-383.9101097865496
 20
23.71863815436174
 30
0.0
 11
-383.9090876503846
 21
23.71962526707828
 31
0.0
1001
REVIT
1002
{
1070
     2
1000
-2001300
1002
}
  0
LINE
  5
1E2
330
1BF
100
AcDbEntity
  8
S-FNDN-FTNG
370
     9
100
AcDbLine
 10
-383.8891689748501
 20
23.73886143011574
 30
0.0
 11
-383.8883455823837
 21
23.73965660907745
 31
0.0
1001
REVIT
1002
{
1070
     2
1000
-2001300
1002
}
  0
LINE
  5
1E3
330
1BF
100
AcDbEntity
  8
S-FNDN-FTNG
370
     9
100
AcDbLine
 10
-383.8896636528275
 20
23.71729952373507
 30
0.0
 11
-383.8885979778289
 21
23.71830601251327
 31
0.0
1001
REVIT
1002
{
1070
     2
1000
-2001300
1002
}
  0
LINE
  5
1E4
330
1BF
100
AcDbEntity
  8
S-FNDN-FTNG
370
     9
100
AcDbLine
 10
-383.8892942353929
 20
23.6965563867801
 30
0.0
 11
-383.8890932255424
 21
23.696741956566
 31
0.0
1001
REVIT
1002
{
1070
     2
1000
-2001300
1002
}
  0
LINE
  5
1E5
330
1BF
100
AcDbEntity
  8
S-FNDN-FTNG
370
     9
100
AcDbLine
 10
-383.8686909317889
 20
23.715577099599
 30
0.0
 11
-383.8675796521536
 21
23.71660301909293
 31
0.0
1001
REVIT
1002
{
1070
     2
1000
-2001300
1002
}
  0
LINE
  5
1E6
330
1BF
100
AcDbEntity
  8
S-FNDN-FTNG
370
     9
100
AcDbLine
 10
-383.8692062474858
 20
23.6935819820913
 30
0.0
 11
-383.8680960998534
 21
23.69458323951807
 31
0.0
1001
REVIT
1002
{
1070
     2
1000
-2001300
1002
}
  0
LINE
  5
1E7
330
1BF
100
AcDbEntity
  8
S-FNDN-FTNG
370
     9
100
AcDbLine
 10
-383.9300973487247
 20
23.73201303749409
 30
0.0
 11
-383.928871772558
 21
23.73193712555442
 31
0.0
1001
REVIT
1002
{
1070
     2
1000
-2001300
1002
}
  0
LINE
  5
1E8
330
1BF
100
AcDbEntity
  8
S-FNDN-FTNG
370
     9
100
AcDbLine
 10
-383.9206387256846
 20
23.73142717229764
 30
0.0
 11
-383.9193886242014
 21
23.73134974126481
 31
0.0
1001
REVIT
1002
{
1070
     2
1000
-2001300
1002
}
  0
LINE
  5
1E9
330
1BF
100
AcDbEntity
  8
S-FNDN-FTNG
370
     9
100
AcDbLine
 10
-383.9059658077414
 20
23.73051833473035
 30
0.0
 11
-383.9046771793347
 21
23.73043851734769
 31
0.0
1001
REVIT
1002
{
1070
     2
1000
-2001300
1002
}
  0
LINE
  5
1EA
330
1BF
100
AcDbEntity
  8
S-FNDN-FTNG
370
     9
100
AcDbLine
 10
-383.8804745923362
 20
23.72893941400814
 30
0.0
 11
-383.8791176390554
 21
23.72885536459661
 31
0.0
1001
REVIT
1002
{
1070
     2
1000
-2001300
1002
}
  0
LINE
  5
1EB
330
1BF
100
AcDbEntity
  8
S-FNDN-FTNG
370
     9
100
AcDbLine
 10
-383.8699973041209
 20
23.72829045289692
 30
0.0
 11
-383.8686117557836
 21
23.72820463231338
 31
0.0
1001
REVIT
1002
{
1070
     2
1000
-2001300
1002
}
  0
LINE
  5
1EC
330
1BF
100
AcDbEntity
  8
S-FNDN-FTNG
370
     9
100
AcDbLine
 10
-383.8537225929534
 20
23.72728240058156
 30
0.0
 11
-383.8522920348915
 21
23.72719379210479
 31
0.0
1001
REVIT
1002
{
1070
     2
1000
-2001300
1002
}
  0
LINE
  5
1ED
330
1BF
100
AcDbEntity
  8
S-FNDN-FTNG
370
     9
100
AcDbLine
 10
-383.9305733403101
 20
23.70956621528671
 30
0.0
 11
-383.9293489919154
 21
23.70946141765609
 31
0.0
1001
REVIT
1002
{
1070
     2
1000
-2001300
1002
}
  0
LINE
  5
1EE
330
1BF
100
AcDbEntity
  8
S-FNDN-FTNG
370
     9
100
AcDbLine
 10
-383.9162047747253
 20
23.70833634343383
 30
0.0
 11
-383.9149430926726
 21
23.70822835024308
 31
0.0
1001
REVIT
1002
{
1070
     2
1000
-2001300
1002
}
  0
LINE
  5
1EF
330
1BF
100
AcDbEntity
  8
S-FNDN-FTNG
370
     9
100
AcDbLine
 10
-383.8912531102423
 20
23.70620061529527
 30
0.0
 11
-383.8899252625895
 21
23.7060869586854
 31
0.0
1001
REVIT
1002
{
1070
     2
1000
-2001300
1002
}
  0
LINE
  5
1F0
330
1BF
100
AcDbEntity
  8
S-FNDN-FTNG
370
     9
100
AcDbLine
 10
-383.8810015591759
 20
23.70532313771891
 30
0.0
 11
-383.8796460362292
 21
23.7052071122529
 31
0.0
1001
REVIT
1002
{
1070
     2
1000
-2001300
1002
}
  0
LINE
  5
1F1
330
1BF
100
AcDbEntity
  8
S-FNDN-FTNG
370
     9
100
AcDbLine
 10
-383.8650820806197
 20
23.7039605160659
 30
0.0
 11
-383.8636830145583
 21
23.70384076354369
 31
0.0
1001
REVIT
1002
{
1070
     2
1000
-2001300
1002
}
  0
LINE
  5
1F2
330
1BF
100
AcDbEntity
  8
S-FNDN-FTNG
370
     9
100
AcDbLine
 10
-383.8562388187706
 20
23.71846595106396
 30
0.0
 11
-383.8550280983393
 21
23.71693748212109
 31
0.0
1001
REVIT
1002
{
1070
     2
1000
-2001300
1002
}
  0
LINE
  5
1F3
330
1BF
100
AcDbEntity
  8
S-FNDN-FTNG
370
     9
100
AcDbLine
 10
-383.878919811983
 20
23.72618430298543
 30
0.0
 11
-383.8777621350707
 21
23.72469862988152
 31
0.0
1001
REVIT
1002
{
1070
     2
1000
-2001300
1002
}
  0
LINE
  5
1F4
330
1BF
100
AcDbEntity
  8
S-FNDN-FTNG
370
     9
100
AcDbLine
 10
-383.9006183180193
 20
23.73356831409069
 30
0.0
 11
-383.8995102736033
 21
23.73212320294172
 31
0.0
1001
REVIT
1002
{
1070
     2
1000
-2001300
1002
}
  0
LINE
  5
1F5
330
1BF
100
AcDbEntity
  8
S-FNDN-FTNG
370
     9
100
AcDbLine
 10
-383.9213968220677
 20
23.74063924811665
 30
0.0
 11
-383.9203352854434
 21
23.7392326307971
 31
0.0
1001
REVIT
1002
{
1070
     2
1000
-2001300
1002
}
  0
LINE
  5
1F6
330
1BF
100
AcDbEntity
  8
S-FNDN-FTNG
370
     9
100
AcDbLine
 10
-383.9413126206549
 20
23.74741660309636
 30
0.0
 11
-383.9402947240126
 21
23.74604656154685
 31
0.0
1001
REVIT
1002
{
1070
     2
1000
-2001300
1002
}
  0
LINE
  5
1F7
330
1BF
100
AcDbEntity
  8
S-FNDN-FTNG
370
     9
100
AcDbLine
 10
-383.9083016372239
 20
23.70298535436381
 30
0.0
 11
-383.9077135012745
 21
23.70219375072337
 31
0.0
1001
REVIT
1002
{
1070
     2
1000
-2001300
1002
}
  0
LINE
  5
1F8
330
1BF
100
AcDbEntity
  8
S-FNDN-FTNG
370
     9
100
AcDbLine
 10
-383.9287590503066
 20
23.71064539793017
 30
0.0
 11
-383.9277137528074
 21
23.70921665350754
 31
0.0
1001
REVIT
1002
{
1070
     2
1000
-2001300
1002
}
  0
LINE
  5
1F9
330
1BF
100
AcDbEntity
  8
S-FNDN-FTNG
370
     9
100
AcDbLine
 10
-383.9483734732651
 20
23.71798979351832
 30
0.0
 11
-383.9473708283645
 21
23.71659841582662
 31
0.0
1001
REVIT
1002
{
1070
     2
1000
-2001300
1002
}
  0
LINE
  5
1FA
330
1BF
100
AcDbEntity
  8
S-FNDN-FTNG
370
     9
100
AcDbLine
 10
-383.8950743730748
 20
23.73830248808895
 30
0.0
 11
-383.8940948860429
 21
23.73659616665859
 31
0.0
1001
REVIT
1002
{
1070
     2
1000
-2001300
1002
}
  0
LINE
  5
1FB
330
1BF
100
AcDbEntity
  8
S-FNDN-FTNG
370
     9
100
AcDbLine
 10
-383.8727873984818
 20
23.69947732641669
 30
0.0
 11
-383.8717630936756
 21
23.69769292990602
 31
0.0
1001
REVIT
1002
{
1070
     2
1000
-2001300
1002
}
  0
LINE
  5
1FC
330
1BF
100
AcDbEntity
  8
S-FNDN-FTNG
370
     9
100
AcDbLine
 10
-383.9179839207133
 20
23.73804828474839
 30
0.0
 11
-383.9170494574583
 21
23.73638141414283
 31
0.0
1001
REVIT
1002
{
1070
     2
1000
-2001300
1002
}
  0
LINE
  5
1FD
330
1BF
100
AcDbEntity
  8
S-FNDN-FTNG
370
     9
100
AcDbLine
 10
-383.8967320819732
 20
23.70013982219036
 30
0.0
 11
-383.8958475930155
 21
23.69856209440204
 31
0.0
1001
REVIT
1002
{
1070
     2
1000
-2001300
1002
}
  0
LINE
  5
1FE
330
1BF
100
AcDbEntity
  8
S-FNDN-FTNG
370
     9
100
AcDbLine
 10
-383.9398527108347
 20
23.73780562960781
 30
0.0
 11
-383.9389602368394
 21
23.73617642686996
 31
0.0
1001
REVIT
1002
{
1070
     2
1000
-2001300
1002
}
  0
ENDBLK
  5
200
330
1BF
100
AcDbEntity
  8
0
100
AcDbBlockEnd
  0
BLOCK
  5
219
330
211
100
AcDbEntity
  8
0
100
AcDbBlockBegin
  2
FP_4-Perspective D90
 70
     0
 10
0.0
 20
0.0
 30
0.0
  3
FP_4-Perspective D90
  1

  0
LINE
  5
212
330
211
100
AcDbEntity
  8
A-GENM
100
AcDbLine
 10
-383.8295910270174
 20
23.86178005114564
 30
0.0
 11
-383.8319379757111
 21
23.86198145944415
 31
0.0
1001
REVIT
1002
{
1070
     2
1000
-2000151
1002
}
  0
LINE
  5
213
330
211
100
AcDbEntity
  8
A-GENM
100
AcDbLine
 10
-383.8329392156038
 20
23.85896332748037
 30
0.0
 11
-383.8402254924366
 21
23.85960268607757
 31
0.0
1001
REVIT
1002
{
1070
     2
1000
-2000151
1002
}
  0
LINE
  5
214
330
211
100
AcDbEntity
  8
A-GENM
100
AcDbLine
 10
-383.8565386097911
 20
23.85864838705063
 30
0.0
 11
-383.8611004277145
 21
23.85905555109707
 31
0.0
1001
REVIT
1002
{
1070
     2
1000
-2000151
1002
}
  0
LINE
  5
215
330
211
100
AcDbEntity
  8
A-GENM
100
AcDbLine
 10
-383.8218336947719
 20
23.86010109688555
 30
0.0
 11
-383.8401302559033
 21
23.86115951686562
 31
0.0
1001
REVIT
1002
{
1070
     2
1000
-2000151
1002
}
  0
LINE
  5
216
330
211
100
AcDbEntity
  8
A-GENM
100
AcDbLine
 10
-383.8402243649377
 20
23.85960277881435
 30
0.0
 11
-383.8499661838642
 21
23.86017266487804
 31
0.0
1001
REVIT
1002
{
1070
     2
1000
-2000151
1002
}
  0
LINE
  5
217
330
211
100
AcDbEntity
  8
A-GENM
100
AcDbLine
 10
-383.8142138388642
 20
23.86119143355188
 30
0.0
 11
-383.8295909151598
 21
23.86178008689217
 31
0.0
1001
REVIT
1002
{
1070
     2
1000
-2000151
1002
}
  0
LINE
  5
218
330
211
100
AcDbEntity
  8
A-GENM
100
AcDbLine
 10
-383.841718550111
 20
23.85806387770659
 30
0.0
 11
-383.8565385037739
 21
23.85864842034789
 31
0.0
1001
REVIT
1002
{
1070
     2
1000
-2000151
1002
}
  0
ENDBLK
  5
21A
330
211
100
AcDbEntity
  8
0
100
AcDbBlockEnd
  0
BLOCK
  5
21F
330
21C
100
AcDbEntity
  8
0
100
AcDbBlockBegin
  2
FP_5-Perspective D90
 70
     0
 10
0.0
 20
0.0
 30
0.0
  3
FP_5-Perspective D90
  1

  0
LINE
  5
21D
330
21C
100
AcDbEntity
  8
A-GENM
100
AcDbLine
 10
-383.8329231998855
 20
23.86299706604463
 30
0.0
 11
-383.8354760688711
 21
23.86162655870701
 31
0.0
1001
REVIT
1002
{
1070
     2
1000
-2000151
1002
}
  0
LINE
  5
21E
330
21C
100
AcDbEntity
  8
A-GENM
100
AcDbLine
 10
-383.825597549377
 20
23.86344950736128
 30
0.0
 11
-383.8329230719519
 21
23.86299665708047
 31
0.0
1001
REVIT
1002
{
1070
     2
1000
-2000151
1002
}
  0
ENDBLK
  5
220
330
21C
100
AcDbEntity
  8
0
100
AcDbBlockEnd
  0
BLOCK
  5
22F
330
228
100
AcDbEntity
  8
0
100
AcDbBlockBegin
  2
FP_6-Perspective D90
 70
     0
 10
0.0
 20
0.0
 30
0.0
  3
FP_6-Perspective D90
  1

  0
LINE
  5
229
330
228
100
AcDbEntity
  8
A-GENM
100
AcDbLine
 10
-383.8634974000549
 20
23.86171020432572
 30
0.0
 11
-383.8673057054354
 21
23.86204421867267
 31
0.0
1001
REVIT
1002
{
1070
     2
1000
-2000151
1002
}
  0
LINE
  5
22A
330
228
100
AcDbEntity
  8
A-GENM
100
AcDbLine
 10
-383.8620456114944
 20
23.86329863097154
 30
0.0
 11
-383.8623040531244
 21
23.86331348661818
 31
0.0
1001
REVIT
1002
{
1070
     2
1000
-2000151
1002
}
  0
LINE
  5
22B
330
228
100
AcDbEntity
  8
A-GENM
100
AcDbLine
 10
-383.8673045656091
 20
23.86204431173986
 30
0.0
 11
-383.8723449021353
 21
23.86233734492613
 31
0.0
1001
REVIT
1002
{
1070
     2
1000
-2000151
1002
}
  0
LINE
  5
22C
330
228
100
AcDbEntity
  8
A-GENM
100
AcDbLine
 10
-383.8638663315058
 20
23.86024956209515
 30
0.0
 11
-383.8676136120236
 21
23.86046993501647
 31
0.0
1001
REVIT
1002
{
1070
     2
1000
-2000151
1002
}
  0
LINE
  5
22D
330
228
100
AcDbEntity
  8
A-GENM
100
AcDbLine
 10
-383.8538191912058
 20
23.86409861322894
 30
0.0
 11
-383.8541133699484
 21
23.86410976065098
 31
0.0
1001
REVIT
1002
{
1070
     2
1000
-2000151
1002
}
  0
LINE
  5
22E
330
228
100
AcDbEntity
  8
A-GENM
100
AcDbLine
 10
-383.8676146307644
 20
23.86046987206436
 30
0.0
 11
-383.874067488283
 21
23.8607218909609
 31
0.0
1001
REVIT
1002
{
1070
     2
1000
-2000151
1002
}
  0
ENDBLK
  5
230
330
228
100
AcDbEntity
  8
0
100
AcDbBlockEnd
  0
ENDSEC
  0
SECTION
  2
ENTITIES
  0
LINE
  5
20C
330
6C
100
AcDbEntity
  8
0
 62
     0
370
     0
100
AcDbLine
 10
-383.915890012638
 20
23.74688248933402
 30
0.0
 11
-383.8522521314677
 21
23.73018801771587
 31
0.0
1001
REVIT
1002
{
1070
     1
1000
250446
1002
}
1002
{
1070
     5
1000
252395
1002
}
1002
{
1070
     2
1000
-2001300
1002
}
  0
LINE
  5
20D
330
6C
100
AcDbEntity
  8
0
 62
     0
370
     0
100
AcDbLine
 10
-383.8522521314677
 20
23.73018801771587
 30
0.0
 11
-383.7772642569328
 21
23.74468191260784
 31
0.0
1001
REVIT
1002
{
1070
     1
1000
250446
1002
}
1002
{
1070
     5
1000
252395
1002
}
1002
{
1070
     2
1000
-2001300
1002
}
  0
LINE
  5
20F
330
6C
100
AcDbEntity
  8
0
 62
     0
370
     0
100
AcDbLine
 10
-383.8522521314677
 20
23.73018801771587
 30
0.0
 11
-383.8522521314677
 21
23.69613253617206
 31
0.0
1001
REVIT
1002
{
1070
     1
1000
250446
1002
}
1002
{
1070
     5
1000
252395
1002
}
1002
{
1070
     2
1000
-2001300
1002
}
  0
LINE
  5
232
330
6C
100
AcDbEntity
  8
0
 62
     0
370
     0
100
AcDbLine
 10
-383.8802142269849
 20
23.7685381685268
 30
0.0
 11
-383.8492664638461
 21
23.76137879313947
 31
0.0
1001
REVIT
1002
{
1070
     1
1000
250465
1002
}
1002
{
1070
     5
1000
250463
1002
}
1002
{
1070
     2
1000
-2000151
1002
}
  0
LINE
  5
233
330
6C
100
AcDbEntity
  8
0
 62
     0
370
     0
100
AcDbLine
 10
-383.8492664638461
 20
23.76137879313947
 30
0.0
 11
-383.8492664638461
 21
23.8572905879662
 31
0.0
1001
REVIT
1002
{
1070
     1
1000
250465
1002
}
1002
{
1070
     5
1000
250463
1002
}
1002
{
1070
     2
1000
-2000151
1002
}
  0
LINE
  5
234
330
6C
100
AcDbEntity
  8
0
 62
     0
370
     0
100
AcDbLine
 10
-383.8492664638461
 20
23.8572905879662
 30
0.0
 11
-383.8616354242613
 21
23.85900187416819
 31
0.0
1001
REVIT
1002
{
1070
     1
1000
250465
1002
}
1002
{
1070
     5
1000
250463
1002
}
1002
{
1070
     2
1000
-2000151
1002
}
  0
LINE
  5
235
330
6C
100
AcDbEntity
  8
0
 62
     0
370
     0
100
AcDbLine
 10
-383.8616354242613
 20
23.85900187416819
 30
0.0
 11
-383.8630185395856
 21
23.86381591840073
 31
0.0
1001
REVIT
1002
{
1070
     1
1000
250465
1002
}
1002
{
1070
     5
1000
250463
1002
}
1002
{
1070
     2
1000
-2000151
1002
}
  0
LINE
  5
236
330
6C
100
AcDbEntity
  8
0
 62
     0
370
     0
100
AcDbLine
 10
-383.8630185395856
 20
23.86381591840073
 30
0.0
 11
-383.8652898439347
 21
23.85438099152467
 31
0.0
1001
REVIT
1002
{
1070
     1
1000
250465
1002
}
1002
{
1070
     5
1000
250463
1002
}
1002
{
1070
     2
1000
-2000151
1002
}
  0
LINE
  5
237
330
6C
100
AcDbEntity
  8
0
 62
     0
370
     0
100
AcDbLine
 10
-383.8652898439347
 20
23.85438099152467
 30
0.0
 11
-383.8668158994005
 21
23.85971860987818
 31
0.0
1001
REVIT
1002
{
1070
     1
1000
250465
1002
}
1002
{
1070
     5
1000
250463
1002
}
1002
{
1070
     2
1000
-2000151
1002
}
  0
LINE
  5
238
330
6C
100
AcDbEntity
  8
0
 62
     0
370
     0
100
AcDbLine
 10
-383.8668158994005
 20
23.85971860987818
 30
0.0
 11
-383.8802142269849
 21
23.86157231240092
 31
0.0
1001
REVIT
1002
{
1070
     1
1000
250465
1002
}
1002
{
1070
     5
1000
250463
1002
}
1002
{
1070
     2
1000
-2000151
1002
}
  0
LINE
  5
239
330
6C
100
AcDbEntity
  8
0
 62
     0
370
     0
100
AcDbLine
 10
-383.8802142269849
 20
23.86157231240092
 30
0.0
 11
-383.8802142269849
 21
23.7685381685268
 31
0.0
1001
REVIT
1002
{
1070
     1
1000
250465
1002
}
1002
{
1070
     5
1000
250463
1002
}
1002
{
1070
     2
1000
-2000151
1002
}
  0
LINE
  5
23B
330
6C
100
AcDbEntity
  8
0
 62
     0
370
     0
100
AcDbLine
 10
-383.8267525808502
 20
23.86732684402542
 30
0.0
 11
-383.825357156785
 21
23.86264172192909
 31
0.0
1001
REVIT
1002
{
1070
     1
1000
250465
1002
}
1002
{
1070
     5
1000
250463
1002
}
1002
{
1070
     2
1000
-2000151
1002
}
  0
LINE
  5
23C
330
6C
100
AcDbEntity
  8
0
 62
     0
370
     0
100
AcDbLine
 10
-383.825357156785
 20
23.86264172192909
 30
0.0
 11
-383.8128824671301
 21
23.86101815724715
 31
0.0
1001
REVIT
1002
{
1070
     1
1000
250465
1002
}
1002
{
1070
     5
1000
250463
1002
}
1002
{
1070
     2
1000
-2000151
1002
}
  0
LINE
  5
23D
330
6C
100
AcDbEntity
  8
0
 62
     0
370
     0
100
AcDbLine
 10
-383.8128824671301
 20
23.86101815724715
 30
0.0
 11
-383.8128824671301
 21
23.76761157812401
 31
0.0
1001
REVIT
1002
{
1070
     1
1000
250465
1002
}
1002
{
1070
     5
1000
250463
1002
}
1002
{
1070
     2
1000
-2000151
1002
}
  0
LINE
  5
23E
330
6C
100
AcDbEntity
  8
0
 62
     0
370
     0
100
AcDbLine
 10
-383.8128824671301
 20
23.76761157812401
 30
0.0
 11
-383.8492664638461
 21
23.76137879313947
 31
0.0
1001
REVIT
1002
{
1070
     1
1000
250465
1002
}
1002
{
1070
     5
1000
250463
1002
}
1002
{
1070
     2
1000
-2000151
1002
}
  0
LINE
  5
23F
330
6C
100
AcDbEntity
  8
0
 62
     0
370
     0
100
AcDbLine
 10
-383.8128824671301
 20
23.86101815724715
 30
0.0
 11
-383.8492664638461
 21
23.8572905879662
 31
0.0
1001
REVIT
1002
{
1070
     1
1000
250465
1002
}
1002
{
1070
     5
1000
250463
1002
}
1002
{
1070
     2
1000
-2000151
1002
}
  0
LINE
  5
240
330
6C
100
AcDbEntity
  8
0
 62
     0
370
     0
100
AcDbLine
 10
-383.8802142269849
 20
23.86157231240092
 30
0.0
 11
-383.8631595124905
 21
23.86323032138464
 31
0.0
1001
REVIT
1002
{
1070
     1
1000
250465
1002
}
1002
{
1070
     5
1000
250463
1002
}
1002
{
1070
     2
1000
-2000151
1002
}
  0
LINE
  5
241
330
6C
100
AcDbEntity
  8
0
 62
     0
370
     0
100
AcDbLine
 10
-383.825357156785
 20
23.86264172192909
 30
0.0
 11
-383.8616354242613
 21
23.85900187416819
 31
0.0
1001
REVIT
1002
{
1070
     1
1000
250465
1002
}
1002
{
1070
     5
1000
250463
1002
}
1002
{
1070
     2
1000
-2000151
1002
}
  0
LINE
  5
242
330
6C
100
AcDbEntity
  8
0
 62
     0
370
     0
100
AcDbLine
 10
-383.8267525808502
 20
23.86732684402542
 30
0.0
 11
-383.8630185395856
 21
23.86381591840073
 31
0.0
1001
REVIT
1002
{
1070
     1
1000
250465
1002
}
1002
{
1070
     5
1000
250463
1002
}
1002
{
1070
     2
1000
-2000151
1002
}
  0
LINE
  5
243
330
6C
100
AcDbEntity
  8
0
 62
     0
370
     0
100
AcDbLine
 10
-383.8639278922963
 20
23.86000583581489
 30
0.0
 11
-383.8668158994005
 21
23.85971860987818
 31
0.0
1001
REVIT
1002
{
1070
     1
1000
250465
1002
}
1002
{
1070
     5
1000
250463
1002
}
1002
{
1070
     2
1000
-2000151
1002
}
  0
LINE
  5
244
330
6C
100
AcDbEntity
  8
0
 62
     0
370
     0
100
AcDbLine
 10
-383.8763912370571
 20
23.75463370004835
 30
0.0
 11
-383.8745196404182
 21
23.76705733249449
 31
0.0
1001
REVIT
1002
{
1070
     1
1000
250470
1002
}
1002
{
1070
     5
1000
248164
1002
}
1002
{
1070
     2
1000
-2000151
1002
}
  0
LINE
  5
245
330
6C
100
AcDbEntity
  8
0
 62
     0
370
     0
100
AcDbLine
 10
-383.814505537009
 20
23.75375788830613
 30
0.0
 11
-383.8164893328519
 21
23.76692437000338
 31
0.0
1001
REVIT
1002
{
1070
     1
1000
250470
1002
}
1002
{
1070
     5
1000
248164
1002
}
1002
{
1070
     2
1000
-2000151
1002
}
  0
LINE
  5
246
330
6C
100
AcDbEntity
  8
0
 62
     0
370
     0
100
AcDbLine
 10
-383.8708690961275
 20
23.75409035913853
 30
0.0
 11
-383.8730232891366
 21
23.75371586992379
 31
0.0
1001
REVIT
1002
{
1070
     1
1000
250470
1002
}
1002
{
1070
     5
1000
248164
1002
}
1002
{
1070
     2
1000
-2000151
1002
}
  0
LINE
  5
247
330
6C
100
AcDbEntity
  8
0
 62
     0
370
     0
100
AcDbLine
 10
-383.8517460198462
 20
23.74946873134458
 30
0.0
 11
-383.8539938475467
 21
23.74906516469131
 31
0.0
1001
REVIT
1002
{
1070
     1
1000
250470
1002
}
1002
{
1070
     5
1000
248164
1002
}
1002
{
1070
     2
1000
-2000151
1002
}
  0
LINE
  5
248
330
6C
100
AcDbEntity
  8
0
 62
     0
370
     0
100
AcDbLine
 10
-383.8730232891366
 20
23.75371586992379
 30
0.0
 11
-383.8762033388331
 21
23.75449305898072
 31
0.0
1001
REVIT
1002
{
1070
     1
1000
250470
1002
}
1002
{
1070
     5
1000
248164
1002
}
1002
{
1070
     2
1000
-2000151
1002
}
  0
LINE
  5
249
330
6C
100
AcDbEntity
  8
0
 62
     0
370
     0
100
AcDbLine
 10
-383.8730232891366
 20
23.75371586992379
 30
0.0
 11
-383.8728322869577
 21
23.75572471082575
 31
0.0
1001
REVIT
1002
{
1070
     1
1000
250470
1002
}
1002
{
1070
     5
1000
248164
1002
}
1002
{
1070
     2
1000
-2000151
1002
}
  0
POLYLINE
  5
24A
330
6C
100
AcDbEntity
  8
0
 62
     0
370
     0
100
AcDb3dPolyline
 66
     1
 10
0.0
 20
0.0
 30
0.0
 70
     8
1001
REVIT
1002
{
1070
     1
1000
250470
1002
}
1002
{
1070
     5
1000
248164
1002
}
1002
{
1070
     2
1000
-2000151
1002
}
  0
VERTEX
  5
24B
330
24A
100
AcDbEntity
  8
0
 62
     0
370
     0
100
AcDbVertex
100
AcDb3dPolylineVertex
 10
-383.8728322869577
 20
23.75572471082575
 30
0.0
 70
    32
  0
VERTEX
  5
24C
330
24A
100
AcDbEntity
  8
0
 62
     0
370
     0
100
AcDbVertex
100
AcDb3dPolylineVertex
 10
-383.8727644675736
 20
23.75611432530281
 30
0.0
 70
    32
  0
VERTEX
  5
24D
330
24A
100
AcDbEntity
  8
0
 62
     0
370
     0
100
AcDbVertex
100
AcDb3dPolylineVertex
 10
-383.872640414863
 20
23.7564667625477
 30
0.0
 70
    32
  0
VERTEX
  5
24E
330
24A
100
AcDbEntity
  8
0
 62
     0
370
     0
100
AcDbVertex
100
AcDb3dPolylineVertex
 10
-383.8724673075526
 20
23.75676159125642
 30
0.0
 70
    32
  0
VERTEX
  5
24F
330
24A
100
AcDbEntity
  8
0
 62
     0
370
     0
100
AcDbVertex
100
AcDb3dPolylineVertex
 10
-383.8722551639473
 20
23.75698169944261
 30
0.0
 70
    32
  0
VERTEX
  5
250
330
24A
100
AcDbEntity
  8
0
 62
     0
370
     0
100
AcDbVertex
100
AcDb3dPolylineVertex
 10
-383.8720162693131
 20
23.75711428378879
 30
0.0
 70
    32
  0
VERTEX
  5
251
330
24A
100
AcDbEntity
  8
0
 62
     0
370
     0
100
AcDbVertex
100
AcDb3dPolylineVertex
 10
-383.8717644719105
 20
23.75715159631678
 30
0.0
 70
    32
  0
VERTEX
  5
252
330
24A
100
AcDbEntity
  8
0
 62
     0
370
     0
100
AcDbVertex
100
AcDb3dPolylineVertex
 10
-383.8715143863005
 20
23.75709140440572
 30
0.0
 70
    32
  0
VERTEX
  5
253
330
24A
100
AcDbEntity
  8
0
 62
     0
370
     0
100
AcDbVertex
100
AcDb3dPolylineVertex
 10
-383.8712805483672
 20
23.75693713521281
 30
0.0
 70
    32
  0
VERTEX
  5
254
330
24A
100
AcDbEntity
  8
0
 62
     0
370
     0
100
AcDbVertex
100
AcDb3dPolylineVertex
 10
-383.8710765701528
 20
23.75669769275693
 30
0.0
 70
    32
  0
VERTEX
  5
255
330
24A
100
AcDbEntity
  8
0
 62
     0
370
     0
100
AcDbVertex
100
AcDb3dPolylineVertex
 10
-383.8709143437009
 20
23.75638695457248
 30
0.0
 70
    32
  0
VERTEX
  5
256
330
24A
100
AcDbEntity
  8
0
 62
     0
370
     0
100
AcDbVertex
100
AcDb3dPolylineVertex
 10
-383.8708033413318
 20
23.75602297393897
 30
0.0
 70
    32
  0
VERTEX
  5
257
330
24A
100
AcDbEntity
  8
0
 62
     0
370
     0
100
AcDbVertex
100
AcDb3dPolylineVertex
 10
-383.870750054983
 20
23.75562693202788
 30
0.0
 70
    32
  0
VERTEX
  5
258
330
24A
100
AcDbEntity
  8
0
 62
     0
370
     0
100
AcDbVertex
100
AcDb3dPolylineVertex
 10
-383.8707576095323
 20
23.75522190054109
 30
0.0
 70
    32
  0
SEQEND
  5
259
330
24A
100
AcDbEntity
  8
0
 62
     0
370
     0
  0
LINE
  5
25A
330
6C
100
AcDbEntity
  8
0
 62
     0
370
     0
100
AcDbLine
 10
-383.8707576095323
 20
23.75522190054109
 30
0.0
 11
-383.8709487245954
 21
23.75320885619347
 31
0.0
1001
REVIT
1002
{
1070
     1
1000
250470
1002
}
1002
{
1070
     5
1000
248164
1002
}
1002
{
1070
     2
1000
-2000151
1002
}
  0
LINE
  5
25B
330
6C
100
AcDbEntity
  8
0
 62
     0
370
     0
100
AcDbLine
 10
-383.8539938475467
 20
23.74906516469131
 30
0.0
 11
-383.8709487245954
 21
23.75320885619347
 31
0.0
1001
REVIT
1002
{
1070
     1
1000
250470
1002
}
1002
{
1070
     5
1000
248164
1002
}
1002
{
1070
     2
1000
-2000151
1002
}
  0
LINE
  5
25C
330
6C
100
AcDbEntity
  8
0
 62
     0
370
     0
100
AcDbLine
 10
-383.8539938475467
 20
23.74906516469131
 30
0.0
 11
-383.8538018530774
 21
23.75111257317022
 31
0.0
1001
REVIT
1002
{
1070
     1
1000
250470
1002
}
1002
{
1070
     5
1000
248164
1002
}
1002
{
1070
     2
1000
-2000151
1002
}
  0
POLYLINE
  5
25D
330
6C
100
AcDbEntity
  8
0
 62
     0
370
     0
100
AcDb3dPolyline
 66
     1
 10
0.0
 20
0.0
 30
0.0
 70
     8
1001
REVIT
1002
{
1070
     1
1000
250470
1002
}
1002
{
1070
     5
1000
248164
1002
}
1002
{
1070
     2
1000
-2000151
1002
}
  0
VERTEX
  5
25E
330
25D
100
AcDbEntity
  8
0
 62
     0
370
     0
100
AcDbVertex
100
AcDb3dPolylineVertex
 10
-383.8538018530774
 20
23.75111257317022
 30
0.0
 70
    32
  0
VERTEX
  5
25F
330
25D
100
AcDbEntity
  8
0
 62
     0
370
     0
100
AcDbVertex
100
AcDb3dPolylineVertex
 10
-383.8537326910801
 20
23.75150952888917
 30
0.0
 70
    32
  0
VERTEX
  5
260
330
25D
100
AcDbEntity
  8
0
 62
     0
370
     0
100
AcDbVertex
100
AcDb3dPolylineVertex
 10
-383.85360507994
 20
23.75186832668804
 30
0.0
 70
    32
  0
VERTEX
  5
261
330
25D
100
AcDbEntity
  8
0
 62
     0
370
     0
100
AcDbVertex
100
AcDb3dPolylineVertex
 10
-383.8534264035939
 20
23.75216816745576
 30
0.0
 70
    32
  0
VERTEX
  5
262
330
25D
100
AcDbEntity
  8
0
 62
     0
370
     0
100
AcDbVertex
100
AcDb3dPolylineVertex
 10
-383.8532070016714
 20
23.75239164860265
 30
0.0
 70
    32
  0
VERTEX
  5
263
330
25D
100
AcDbEntity
  8
0
 62
     0
370
     0
100
AcDbVertex
100
AcDb3dPolylineVertex
 10
-383.8529595787363
 20
23.75252577014439
 30
0.0
 70
    32
  0
VERTEX
  5
264
330
25D
100
AcDbEntity
  8
0
 62
     0
370
     0
100
AcDbVertex
100
AcDb3dPolylineVertex
 10
-383.8526984765293
 20
23.75256269294734
 30
0.0
 70
    32
  0
VERTEX
  5
265
330
25D
100
AcDbEntity
  8
0
 62
     0
370
     0
100
AcDbVertex
100
AcDb3dPolylineVertex
 10
-383.8524388490889
 20
23.75250020445868
 30
0.0
 70
    32
  0
VERTEX
  5
266
330
25D
100
AcDbEntity
  8
0
 62
     0
370
     0
100
AcDbVertex
100
AcDb3dPolylineVertex
 10
-383.8521957867158
 20
23.75234186255076
 30
0.0
 70
    32
  0
VERTEX
  5
267
330
25D
100
AcDbEntity
  8
0
 62
     0
370
     0
100
AcDbVertex
100
AcDb3dPolylineVertex
 10
-383.8519834386176
 20
23.75209680563871
 30
0.0
 70
    32
  0
VERTEX
  5
268
330
25D
100
AcDbEntity
  8
0
 62
     0
370
     0
100
AcDbVertex
100
AcDb3dPolylineVertex
 10
-383.8518141852881
 20
23.75177923623937
 30
0.0
 70
    32
  0
VERTEX
  5
269
330
25D
100
AcDbEntity
  8
0
 62
     0
370
     0
100
AcDbVertex
100
AcDb3dPolylineVertex
 10
-383.8516979099346
 20
23.75140760461622
 30
0.0
 70
    32
  0
VERTEX
  5
26A
330
25D
100
AcDbEntity
  8
0
 62
     0
370
     0
100
AcDbVertex
100
AcDb3dPolylineVertex
 10
-383.8516414133612
 20
23.75100353786182
 30
0.0
 70
    32
  0
VERTEX
  5
26B
330
25D
100
AcDbEntity
  8
0
 62
     0
370
     0
100
AcDbVertex
100
AcDb3dPolylineVertex
 10
-383.8516480087866
 20
23.75059057632979
 30
0.0
 70
    32
  0
SEQEND
  5
26C
330
25D
100
AcDbEntity
  8
0
 62
     0
370
     0
  0
LINE
  5
26D
330
6C
100
AcDbEntity
  8
0
 62
     0
370
     0
100
AcDbLine
 10
-383.8516480087866
 20
23.75059057632979
 30
0.0
 11
-383.8518401094587
 21
23.74853880132176
 31
0.0
1001
REVIT
1002
{
1070
     1
1000
250470
1002
}
1002
{
1070
     5
1000
248164
1002
}
1002
{
1070
     2
1000
-2000151
1002
}
  0
LINE
  5
26E
330
6C
100
AcDbEntity
  8
0
 62
     0
370
     0
100
AcDbLine
 10
-383.8485036821712
 20
23.74772339432358
 30
0.0
 11
-383.8518401094587
 21
23.74853880132176
 31
0.0
1001
REVIT
1002
{
1070
     1
1000
250470
1002
}
1002
{
1070
     5
1000
248164
1002
}
1002
{
1070
     2
1000
-2000151
1002
}
  0
LINE
  5
26F
330
6C
100
AcDbEntity
  8
0
 62
     0
370
     0
100
AcDbLine
 10
-383.8147840412302
 20
23.75359675873701
 30
0.0
 11
-383.8472671994436
 21
23.74770488308607
 31
0.0
1001
REVIT
1002
{
1070
     1
1000
250470
1002
}
1002
{
1070
     5
1000
248164
1002
}
1002
{
1070
     2
1000
-2000151
1002
}
  0
POLYLINE
  5
270
330
6C
100
AcDbEntity
  8
0
 62
     0
370
     0
100
AcDb3dPolyline
 66
     1
 10
0.0
 20
0.0
 30
0.0
 70
     8
1001
REVIT
1002
{
1070
     1
1000
250470
1002
}
1002
{
1070
     5
1000
248164
1002
}
1002
{
1070
     2
1000
-2000151
1002
}
  0
VERTEX
  5
271
330
270
100
AcDbEntity
  8
0
 62
     0
370
     0
100
AcDbVertex
100
AcDb3dPolylineVertex
 10
-383.8762033388331
 20
23.75449305898072
 30
0.0
 70
    32
  0
VERTEX
  5
272
330
270
100
AcDbEntity
  8
0
 62
     0
370
     0
100
AcDbVertex
100
AcDb3dPolylineVertex
 10
-383.8763911386321
 20
23.75461976683447
 30
0.0
 70
    32
  0
VERTEX
  5
273
330
270
100
AcDbEntity
  8
0
 62
     0
370
     0
100
AcDbVertex
100
AcDb3dPolylineVertex
 10
-383.8763911386321
 20
23.75461976683447
 30
0.0
 70
    32
  0
SEQEND
  5
274
330
270
100
AcDbEntity
  8
0
 62
     0
370
     0
  0
POLYLINE
  5
275
330
6C
100
AcDbEntity
  8
0
 62
     0
370
     0
100
AcDb3dPolyline
 66
     1
 10
0.0
 20
0.0
 30
0.0
 70
     8
1001
REVIT
1002
{
1070
     1
1000
250470
1002
}
1002
{
1070
     5
1000
248164
1002
}
1002
{
1070
     2
1000
-2000151
1002
}
  0
VERTEX
  5
276
330
275
100
AcDbEntity
  8
0
 62
     0
370
     0
100
AcDbVertex
100
AcDb3dPolylineVertex
 10
-383.8472671994436
 20
23.74770488308607
 30
0.0
 70
    32
  0
VERTEX
  5
277
330
275
100
AcDbEntity
  8
0
 62
     0
370
     0
100
AcDbVertex
100
AcDb3dPolylineVertex
 10
-383.8479053386469
 20
23.74766026443521
 30
0.0
 70
    32
  0
VERTEX
  5
278
330
275
100
AcDbEntity
  8
0
 62
     0
370
     0
100
AcDbVertex
100
AcDb3dPolylineVertex
 10
-383.8485036821712
 20
23.74772339432358
 30
0.0
 70
    32
  0
SEQEND
  5
279
330
275
100
AcDbEntity
  8
0
 62
     0
370
     0
  0
LINE
  5
27A
330
6C
100
AcDbEntity
  8
0
 62
     0
370
     0
100
AcDbLine
 10
-383.8145033840572
 20
23.75371708637231
 30
0.0
 11
-383.8147840412302
 21
23.75359675873701
 31
0.0
1001
REVIT
1002
{
1070
     1
1000
250470
1002
}
1002
{
1070
     5
1000
248164
1002
}
1002
{
1070
     2
1000
-2000151
1002
}
  0
LINE
  5
B7B
330
6C
100
AcDbEntity
  8
0
 62
     0
370
     0
100
AcDbLine
 10
-383.8295910270174
 20
23.86178005114564
 30
0.0
 11
-383.8319379757111
 21
23.86198145944415
 31
0.0
1001
REVIT
1002
{
1070
     2
1000
-2000151
1002
}
  0
LINE
  5
B7C
330
6C
100
AcDbEntity
  8
0
 62
     0
370
     0
100
AcDbLine
 10
-383.8329392156038
 20
23.85896332748037
 30
0.0
 11
-383.8402254924366
 21
23.85960268607757
 31
0.0
1001
REVIT
1002
{
1070
     2
1000
-2000151
1002
}
  0
LINE
  5
B7D
330
6C
100
AcDbEntity
  8
0
 62
     0
370
     0
100
AcDbLine
 10
-383.8565386097911
 20
23.85864838705063
 30
0.0
 11
-383.8611004277145
 21
23.85905555109707
 31
0.0
1001
REVIT
1002
{
1070
     2
1000
-2000151
1002
}
  0
LINE
  5
B7E
330
6C
100
AcDbEntity
  8
0
 62
     0
370
     0
100
AcDbLine
 10
-383.8218336947719
 20
23.86010109688555
 30
0.0
 11
-383.8401302559033
 21
23.86115951686562
 31
0.0
1001
REVIT
1002
{
1070
     2
1000
-2000151
1002
}
  0
LINE
  5
B7F
330
6C
100
AcDbEntity
  8
0
 62
     0
370
     0
100
AcDbLine
 10
-383.8402243649377
 20
23.85960277881435
 30
0.0
 11
-383.8499661838642
 21
23.86017266487804
 31
0.0
1001
REVIT
1002
{
1070
     2
1000
-2000151
1002
}
  0
LINE
  5
B80
330
6C
100
AcDbEntity
  8
0
 62
     0
370
     0
100
AcDbLine
 10
-383.8142138388642
 20
23.86119143355188
 30
0.0
 11
-383.8295909151598
 21
23.86178008689217
 31
0.0
1001
REVIT
1002
{
1070
     2
1000
-2000151
1002
}
  0
LINE
  5
B81
330
6C
100
AcDbEntity
  8
0
 62
     0
370
     0
100
AcDbLine
 10
-383.841718550111
 20
23.85806387770659
 30
0.0
 11
-383.8565385037739
 21
23.85864842034789
 31
0.0
1001
REVIT
1002
{
1070
     2
1000
-2000151
1002
}
  0
LINE
  5
B82
330
6C
100
AcDbEntity
  8
0
 62
     0
370
     0
100
AcDbLine
 10
-383.8634974000549
 20
23.86171020432572
 30
0.0
 11
-383.8673057054354
 21
23.86204421867267
 31
0.0
1001
REVIT
1002
{
1070
     2
1000
-2000151
1002
}
  0
LINE
  5
B84
330
6C
100
AcDbEntity
  8
0
 62
     0
370
     0
100
AcDbLine
 10
-383.8673045656091
 20
23.86204431173986
 30
0.0
 11
-383.8723449021353
 21
23.86233734492613
 31
0.0
1001
REVIT
1002
{
1070
     2
1000
-2000151
1002
}
  0
LINE
  5
B85
330
6C
100
AcDbEntity
  8
0
 62
     0
370
     0
100
AcDbLine
 10
-383.8638663315058
 20
23.86024956209515
 30
0.0
 11
-383.8676136120236
 21
23.86046993501647
 31
0.0
1001
REVIT
1002
{
1070
     2
1000
-2000151
1002
}
  0
LINE
  5
B87
330
6C
100
AcDbEntity
  8
0
 62
     0
370
     0
100
AcDbLine
 10
-383.8676146307644
 20
23.86046987206436
 30
0.0
 11
-383.874067488283
 21
23.8607218909609
 31
0.0
1001
REVIT
1002
{
1070
     2
1000
-2000151
1002
}
  0
LINE
  5
B88
330
6C
100
AcDbEntity
  8
0
 62
     0
370
     0
100
AcDbLine
 10
-383.8329231998855
 20
23.86299706604463
 30
0.0
 11
-383.8354760688711
 21
23.86162655870701
 31
0.0
1001
REVIT
1002
{
1070
     2
1000
-2000151
1002
}
  0
LINE
  5
B89
330
6C
100
AcDbEntity
  8
0
 62
     0
370
     0
100
AcDbLine
 10
-383.825597549377
 20
23.86344950736128
 30
0.0
 11
-383.8329230719519
 21
23.86299665708047
 31
0.0
1001
REVIT
1002
{
1070
     2
1000
-2000151
1002
}
  0
LINE
  5
BE1
330
6C
100
AcDbEntity
  8
0
100
AcDbLine
 10
-383.8487563535565
 20
23.76007219147015
 30
0.0
 11
-383.8476213225107
 21
23.74863242384869
 31
0.0
  0
LINE
  5
BE2
330
6C
100
AcDbEntity
  8
0
100
AcDbLine
 10
-383.849509879415
 20
23.75999742812955
 30
0.0
 11
-383.8483748483692
 21
23.74855766050807
 31
0.0
  0
LINE
  5
C32
330
6C
100
AcDbEntity
  8
Hiden
 48
0.2
100
AcDbLine
 10
-383.877409833649
 20
23.76899740981122
 30
0.0
 11
-383.8492664638461
 21
23.76248679551643
 31
0.0
1001
REVIT
1002
{
1070
     1
1000
250465
1002
}
1002
{
1070
     5
1000
250463
1002
}
1002
{
1070
     2
1000
-2000151
1002
}
  0
LINE
  5
C33
330
6C
100
AcDbEntity
  8
Hiden
 48
0.2
100
AcDbLine
 10
-383.8157402068826
 20
23.76823003347407
 30
0.0
 11
-383.8492664638461
 21
23.76248679551643
 31
0.0
1001
REVIT
1002
{
1070
     1
1000
250465
1002
}
1002
{
1070
     5
1000
250463
1002
}
1002
{
1070
     2
1000
-2000151
1002
}
  0
LINE
  5
C35
330
6C
100
AcDbEntity
  8
Hiden
 48
0.2
100
AcDbLine
 10
-383.8443226902916
 20
23.77441568763216
 30
0.0
 11
-383.877409833649
 21
23.76899740981122
 31
0.0
1001
REVIT
1002
{
1070
     1
1000
250446
1002
}
1002
{
1070
     5
1000
252395
1002
}
1002
{
1070
     2
1000
-2001300
1002
}
  0
LINE
  5
C36
330
6C
100
AcDbEntity
  8
Hiden
 48
0.2
100
AcDbLine
 10
-383.8157402068826
 20
23.76823003347408
 30
0.0
 11
-383.8443226902916
 21
23.77441568763216
 31
0.0
1001
REVIT
1002
{
1070
     1
1000
250446
1002
}
1002
{
1070
     5
1000
252395
1002
}
1002
{
1070
     2
1000
-2001300
1002
}
  0
ELLIPSE
  5
C88
330
6C
100
AcDbEntity
  8
Hiden
 48
0.2
100
AcDbEllipse
 10
-383.8467264583629
 20
23.76861560603888
 30
0.0
 11
-0.0061380126795143
 21
0.0000763773989631
 31
0.0
210
0.0
220
0.0
230
1.0
 40
0.3366785814166098
 41
0.0
 42
6.283185307179586
  0
ELLIPSE
  5
C89
330
6C
100
AcDbEntity
  8
Hiden
 48
0.2
100
AcDbEllipse
 10
-383.8685859130824
 20
23.76888761073835
 30
0.0
 11
0.001050862759314
 21
-0.0000130762460774
 31
0.0
210
0.0
220
0.0
230
1.0
 40
0.4763296248812397
 41
-3.141592653589793
 42
3.141592653589793
  0
ELLIPSE
  5
C8B
330
6C
100
AcDbEntity
  8
Hiden
 48
0.2
100
AcDbEllipse
 10
-383.8485360094417
 20
23.764249317948
 30
0.0
 11
0.001050862759314
 21
-0.0000130762460774
 31
0.0
210
0.0
220
0.0
230
1.0
 40
0.4763296248812397
 41
-3.141592653589793
 42
3.141592653589793
  0
ELLIPSE
  5
C8D
330
6C
100
AcDbEntity
  8
Hiden
 48
0.2
100
AcDbEllipse
 10
-383.8246564567344
 20
23.76832830120302
 30
0.0
 11
0.001050862759314
 21
-0.0000130762460774
 31
0.0
210
0.0
220
0.0
230
1.0
 40
0.4763296248812397
 41
-3.141592653589793
 42
3.141592653589793
  0
ELLIPSE
  5
C8F
330
6C
100
AcDbEntity
  8
Hiden
 48
0.2
100
AcDbEllipse
 10
-383.8450213035374
 20
23.77272243186894
 30
0.0
 11
0.001050862759314
 21
-0.0000130762460774
 31
0.0
210
0.0
220
0.0
230
1.0
 40
0.4763296248812397
 41
-3.141592653589793
 42
3.141592653589793
  0
LINE
  5
C91
330
6C
100
AcDbEntity
  8
Hiden
 48
0.2
100
AcDbLine
 10
-383.8496350096337
 20
23.7668276301105
 30
0.0
 11
-383.8496350096337
 21
23.84044634212494
 31
0.0
  0
LINE
  5
C93
330
6C
100
AcDbEntity
  8
Hiden
 48
0.2
100
AcDbLine
 10
-383.8438179070922
 20
23.76676345196105
 30
0.0
 11
-383.8438179070922
 21
23.84044634212494
 31
0.0
  0
LINE
  5
C94
330
6C
100
AcDbEntity
  8
Hiden
 48
0.2
100
AcDbLine
 10
-383.8496350096337
 20
23.70858675141721
 30
0.0
 11
-383.8496350096337
 21
23.74799988538742
 31
0.0
  0
LINE
  5
C95
330
6C
100
AcDbEntity
  8
Hiden
 48
0.2
100
AcDbLine
 10
-383.8438179070922
 20
23.70858675141721
 30
0.0
 11
-383.8438179070922
 21
23.74833052427172
 31
0.0
  0
LINE
  5
C97
330
6C
100
AcDbEntity
  8
0
 62
     0
370
     0
100
AcDbLine
 10
-383.8510343161066
 20
23.70858675141721
 30
0.0
 11
-383.8479464113754
 21
23.70858675141721
 31
0.0
  0
LINE
  5
C99
330
6C
100
AcDbEntity
  8
0
 62
     0
370
     0
100
AcDbLine
 10
-383.8479464113754
 20
23.70858675141719
 30
0.0
 11
-383.8473364348692
 21
23.70964326171742
 31
0.0
  0
LINE
  5
C9C
330
6C
100
AcDbEntity
  8
0
 62
     0
370
     0
100
AcDbLine
 10
-383.8455065053505
 20
23.7085867514172
 30
0.0
 11
-383.8461164818567
 21
23.70753024111701
 31
0.0
  0
LINE
  5
C9D
330
6C
100
AcDbEntity
  8
0
 62
     0
370
     0
100
AcDbLine
 10
-383.8473364348692
 20
23.70964326171742
 30
0.0
 11
-383.8461164818567
 21
23.70753024111701
 31
0.0
  0
LINE
  5
C9E
330
6C
100
AcDbEntity
  8
0
 62
     0
370
     0
100
AcDbLine
 10
-383.8455065053505
 20
23.7085867514172
 30
0.0
 11
-383.8424186006193
 21
23.70858675141721
 31
0.0
  0
ELLIPSE
  5
C9F
330
6C
100
AcDbEntity
  8
Hiden
 48
0.2
100
AcDbEllipse
 10
-383.8467264583629
 20
23.84044634212494
 30
0.0
 11
-0.0029085512707638
 21
0.0
 31
0.0
210
0.0
220
0.0
230
1.0
 40
0.3759518196900513
 41
0.0
 42
6.283185307179586
  0
LINE
  5
CEF
330
6C
100
AcDbEntity
  8
0
 62
     0
370
     0
100
AcDbLine
 10
-383.8332122250135
 20
23.77082866716758
 30
0.0
 11
-383.8428145907329
 21
23.76925620487781
 31
0.0
1001
REVIT
1002
{
1070
     1
1000
250446
1002
}
1002
{
1070
     5
1000
252395
1002
}
1002
{
1070
     2
1000
-2001300
1002
}
  0
LINE
  5
CF0
330
6C
100
AcDbEntity
  8
0
 62
     0
370
     0
100
AcDbLine
 10
-383.8332122250135
 20
23.84265940325363
 30
0.0
 11
-383.8428145907329
 21
23.84108694096386
 31
0.0
1001
REVIT
1002
{
1070
     1
1000
250446
1002
}
1002
{
1070
     5
1000
252395
1002
}
1002
{
1070
     2
1000
-2001300
1002
}
  0
LINE
  5
CF1
330
6C
100
AcDbEntity
  8
0
 62
     0
370
     0
100
AcDbLine
 10
-383.8352499467024
 20
23.84232571043186
 30
0.0
 11
-383.8352499467024
 21
23.81586328130581
 31
0.0
1001
REVIT
1002
{
1070
     1
1000
250465
1002
}
1002
{
1070
     5
1000
250463
1002
}
1002
{
1070
     2
1000
-2000151
1002
}
  0
HATCH
  5
CF7
330
6C
100
AcDbEntity
  8
Layer1
100
AcDbHatch
 10
0.0
 20
0.0
 30
0.0
210
0.0
220
0.0
230
1.0
  2
SOLID
 70
     1
 71
     0
 91
        1
 92
        1
 93
        3
 72
     1
 10
-383.8333854328666
 20
23.83712253014779
 11
-383.8352499467024
 21
23.84232571043188
 72
     1
 10
-383.8352499467024
 20
23.84232571043186
 11
-383.8371144605381
 21
23.83598653247032
 72
     1
 10
-383.8371144605381
 20
23.83598653247038
 11
-383.8333854328666
 21
23.83712253014783
 97
        0
 75
     1
 76
     1
 98
        1
 10
-383.8342175893412
 20
23.83657373817307
1001
GradientColor1ACI
1070
     5
1001
GradientColor2ACI
1070
     2
1001
ACAD
1010
0.0
1020
0.0
1030
0.0
  0
LINE
  5
CF8
330
6C
100
AcDbEntity
  8
Layer1
100
AcDbLine
 10
-383.8333854328666
 20
23.83712253014779
 30
0.0
 11
-383.8352499467024
 21
23.84232571043186
 31
0.0
  0
LINE
  5
CF9
330
6C
100
AcDbEntity
  8
0
100
AcDbLine
 10
-383.8333854328666
 20
23.83712253014779
 30
0.0
 11
-383.8371144605381
 21
23.83598653247038
 31
0.0
  0
LINE
  5
CFA
330
6C
100
AcDbEntity
  8
0
100
AcDbLine
 10
-383.8371144605381
 20
23.83598653247038
 30
0.0
 11
-383.8352499467024
 21
23.84232571043186
 31
0.0
  0
HATCH
  5
CFB
330
6C
100
AcDbEntity
  8
Layer1
100
AcDbHatch
 10
0.0
 20
0.0
 30
0.0
210
0.0
220
0.0
230
1.0
  2
SOLID
 70
     1
 71
     0
 91
        1
 92
        1
 93
        3
 72
     1
 10
-383.8371144605383
 20
23.7756981546299
 11
-383.8352499467024
 21
23.77049497434581
 72
     1
 10
-383.8352499467024
 20
23.77049497434583
 11
-383.8333854328667
 21
23.77683415230738
 72
     1
 10
-383.8333854328667
 20
23.77683415230731
 11
-383.8371144605383
 21
23.77569815462986
 97
        0
 75
     1
 76
     1
 98
        1
 10
-383.8362823040636
 20
23.77624694660462
1001
GradientColor1ACI
1070
     5
1001
GradientColor2ACI
1070
     2
1001
ACAD
1010
0.0
1020
0.0
1030
0.0
  0
LINE
  5
CFC
330
6C
100
AcDbEntity
  8
Layer1
100
AcDbLine
 10
-383.8371144605383
 20
23.7756981546299
 30
0.0
 11
-383.8352499467024
 21
23.77049497434583
 31
0.0
  0
LINE
  5
CFD
330
6C
100
AcDbEntity
  8
0
100
AcDbLine
 10
-383.8371144605383
 20
23.7756981546299
 30
0.0
 11
-383.8333854328667
 21
23.77683415230731
 31
0.0
  0
LINE
  5
CFE
330
6C
100
AcDbEntity
  8
0
100
AcDbLine
 10
-383.8333854328667
 20
23.77683415230731
 30
0.0
 11
-383.8352499467024
 21
23.77049497434583
 31
0.0
  0
MTEXT
  5
CFF
102
{ACAD_XDICTIONARY
360
11D8
102
}
330
6C
100
AcDbEntity
  8
A-ANNO-TEXT
 62
     7
100
AcDbMText
 10
-383.8332737396361
 20
23.8131359633583
 30
0.0
 40
0.00768
 41
0.0443934574176058
 71
     2
 72
     1
  1
\A1;{\fArial|b0|i0|c0|p34;10"}
 73
     2
 44
0.9385317878468564
1001
REVIT
1002
{
1070
     1
1000
332280
1002
}
1002
{
1070
     5
1000
332282
1002
}
1002
{
1070
     2
1000
-2000300
1002
}
1001
ACAD
1000
MTEXTBEGIN
1070
    73
1070
     2
1070
    44
1040
0.9385317878468564
1070
    74
1070
     0
1000
MTEXTEND
1000
ACAD_MTEXT_DEFINED_HEIGHT_BEGIN
1070
    46
1040
0.0153873434021591
1000
ACAD_MTEXT_DEFINED_HEIGHT_END
  0
LINE
  5
D02
330
6C
100
AcDbEntity
  8
0
 62
     0
370
     0
100
AcDbLine
 10
-383.8352499467024
 20
23.80263466633005
 30
0.0
 11
-383.8352499467024
 21
23.77049497434578
 31
0.0
1001
REVIT
1002
{
1070
     1
1000
250465
1002
}
1002
{
1070
     5
1000
250463
1002
}
1002
{
1070
     2
1000
-2000151
1002
}
  0
LWPOLYLINE
  5
DB0
330
6C
100
AcDbEntity
  8
0
100
AcDbPolyline
 90
       11
 70
     0
 43
0.0
 10
-383.915890012638
 20
23.74688248933402
 10
-383.9153159567135
 20
23.74457812323121
 10
-383.9151625547544
 20
23.74109770544448
 10
-383.9161543421946
 20
23.73430217690597
 10
-383.9148109559405
 20
23.72914513290681
 10
-383.9125915069747
 20
23.72790160842328
 10
-383.9125255024969
 20
23.72340285347454
 10
-383.9098991811335
 20
23.72125142594075
 10
-383.9088882090019
 20
23.7166074321058
 10
-383.9097363403689
 20
23.71197521491666
 10
-383.9075929377015
 20
23.70755101480964
  0
LWPOLYLINE
  5
DB1
330
6C
100
AcDbEntity
  8
0
100
AcDbPolyline
 90
       11
 70
     0
 43
0.0
 10
-383.8660210288821
 20
23.69867071574608
 10
-383.8706354431457
 20
23.69950145725217
 10
-383.874114371255
 20
23.69968557499
 10
-383.8809183895849
 20
23.69875381052857
 10
-383.886063374559
 20
23.70014266583188
 10
-383.8865846525015
 20
23.70340907238473
 10
-383.890160092594
 20
23.70411295471702
 10
-383.8925822781849
 20
23.70616523662306
 10
-383.8982489545516
 20
23.70749482802926
 10
-383.9031878298384
 20
23.70536864309649
 10
-383.9075929377015
 20
23.7075510148096
  0
LWPOLYLINE
  5
DB3
330
6C
100
AcDbEntity
  8
0
100
AcDbPolyline
 90
        5
 70
     0
 43
0.0
 10
-383.8522521314677
 20
23.69613253617204
 10
-383.8523415087871
 20
23.69624362821206
 10
-383.8569763978146
 20
23.69729555363385
 10
-383.8616159210189
 20
23.69648834403297
 10
-383.8660210288821
 20
23.69867071574608
  0
LWPOLYLINE
  5
DB4
330
6C
100
AcDbEntity
  8
0
100
AcDbPolyline
 90
       11
 70
     0
 43
0.0
 10
-383.8522521314677
 20
23.69613253617206
 10
-383.8475873968299
 20
23.6966049779191
 10
-383.8441046297521
 20
23.69652028073279
 10
-383.8373927208702
 20
23.69506661997309
 10
-383.8321559581182
 20
23.69605460039571
 10
-383.8307637317554
 20
23.69818392249618
 10
-383.8262709760332
 20
23.69794247125526
 10
-383.8239451745413
 20
23.70041569824792
 10
-383.8192429701957
 20
23.70110708647593
 10
-383.8146795068775
 20
23.69994451800665
 10
-383.8101192286659
 20
23.70178070541943
  0
LWPOLYLINE
  5
DB5
330
6C
100
AcDbEntity
  8
0
100
AcDbPolyline
 90
       11
 70
     0
 43
0.0
 10
-383.7780723907564
 20
23.72971068025567
 10
-383.7815055700243
 20
23.72651752655446
 10
-383.7837401687709
 20
23.72384481097419
 10
-383.7870770507239
 20
23.71784247232364
 10
-383.7912750617024
 20
23.71455971536318
 10
-383.7937936709674
 20
23.71491876163174
 10
-383.79657697006
 20
23.71138373704338
 10
-383.7999700322681
 20
23.71126826761463
 10
-383.8035924458038
 20
23.70819144074812
 10
-383.8057303099232
 20
23.70399545458156
 10
-383.8101192286659
 20
23.70178070541948
  0
LWPOLYLINE
  5
DB6
330
6C
100
AcDbEntity
  8
0
100
AcDbPolyline
 90
        5
 70
     0
 43
0.0
 10
-383.7772642569328
 20
23.74468191260785
 10
-383.7781898929136
 20
23.74360334800417
 10
-383.7783757838587
 20
23.73885422303772
 10
-383.776733093168
 20
23.73444079690859
 10
-383.7780723907564
 20
23.72971068025567
  0
LWPOLYLINE
  5
DB8
330
6C
100
AcDbEntity
  8
0
100
AcDbPolyline
 90
        8
 70
     0
 43
0.0
 10
-383.8128824671301
 20
23.77288516626172
 10
-383.8121004439971
 20
23.77242684491864
 10
-383.8096520636371
 20
23.77311803263959
 10
-383.8064228772106
 20
23.7699850615732
 10
-383.8030446504405
 20
23.77032238667911
 10
-383.7990448268342
 20
23.76775525705487
 10
-383.7963673256816
 20
23.7638812732551
 10
-383.7917226019355
 20
23.76227060168583
  0
LWPOLYLINE
  5
DB9
330
6C
100
AcDbEntity
  8
0
100
AcDbPolyline
 90
        7
 70
     0
 43
0.0
 10
-383.7917226019355
 20
23.76227060168583
 10
-383.7918484325966
 20
23.75972964251719
 10
-383.7880723549501
 20
23.75728334116872
 10
-383.7876452388968
 20
23.75391528888076
 10
-383.7842482238476
 20
23.7505912804354
 10
-383.7798733624698
 20
23.74884848072566
 10
-383.777264256933
 20
23.74468191260809
  0
LWPOLYLINE
  5
DBA
330
6C
100
AcDbEntity
  8
0
100
AcDbPolyline
 90
        7
 70
     0
 43
0.0
 10
-383.8968822792196
 20
23.76101937498583
 10
-383.8946686023896
 20
23.7597656039764
 10
-383.8907868365341
 20
23.76204047683484
 10
-383.8875858279238
 20
23.76090921726495
 10
-383.8830901498696
 20
23.7624511712923
 10
-383.87956795949
 20
23.76557702123012
 10
-383.8746734173595
 20
23.7660365632982
  0
LWPOLYLINE
  5
DBB
330
6C
100
AcDbEntity
  8
0
100
AcDbPolyline
 90
        8
 70
     0
 43
0.0
 10
-383.915890012638
 20
23.74688248933402
 10
-383.9151096093939
 20
23.74737495640506
 10
-383.9146273808008
 20
23.7498729080533
 10
-383.9103777687077
 20
23.75135072730405
 10
-383.9091617160338
 20
23.7545204938935
 10
-383.9050714949546
 20
23.75694099692225
 10
-383.9004076377322
 20
23.75759306955007
 10
-383.8968822792196
 20
23.76101937498583
  0
LWPOLYLINE
  5
DBC
330
6C
100
AcDbEntity
  8
0
100
AcDbPolyline
 90
        9
 70
     0
 43
0.0
 10
-383.9031878298384
 20
23.70536864309649
 10
-383.899555233387
 20
23.70494733300975
 10
-383.8993580145703
 20
23.70431374630221
 10
-383.8967237163483
 20
23.70406031097608
 10
-383.896075707961
 20
23.70283537731797
 10
-383.8935259333235
 20
23.70123029067065
 10
-383.8919481727073
 20
23.70146964580983
 10
-383.8891448301968
 20
23.70035734882393
 10
-383.886063374559
 20
23.70014266583188
  0
HATCH
  5
DE4
330
6C
100
AcDbEntity
  8
0
 62
     0
370
     0
100
AcDbHatch
 10
0.0
 20
0.0
 30
0.0
210
0.0
220
0.0
230
1.0
  2
SOLID
 70
     1
 71
     0
 91
        1
 92
        3
 72
     0
 73
     1
 93
        8
 10
-383.8220873816286
 20
23.71211801296777
 10
-383.8221819716286
 20
23.71190300296778
 10
-383.8223900696286
 20
23.71184258296778
 10
-383.8225981616286
 20
23.71194685696778
 10
-383.8226927516286
 20
23.71222596496778
 10
-383.8225981616286
 20
23.71251002296778
 10
-383.8223900696286
 20
23.71260458296777
 10
-383.8221819716286
 20
23.71248283696777
 97
        0
 75
     2
 76
     0
 98
        1
 10
-384.9648052316286
 20
22.99846013896778
  0
HATCH
  5
DE5
330
6C
100
AcDbEntity
  8
0
 62
     0
370
     0
100
AcDbHatch
 10
0.0
 20
0.0
 30
0.0
210
0.0
220
0.0
230
1.0
  2
SOLID
 70
     1
 71
     0
 91
        1
 92
        3
 72
     0
 73
     1
 93
        8
 10
-383.8211177396286
 20
23.71016919496778
 10
-383.8212119936286
 20
23.70995303296778
 10
-383.8214193656286
 20
23.70989244496778
 10
-383.8216267316286
 20
23.70999774496777
 10
-383.8217209856286
 20
23.71027926496777
 10
-383.8216267316286
 20
23.71056269896778
 10
-383.8214193656286
 20
23.71065602896778
 10
-383.8212119936286
 20
23.71053346096777
 97
        0
 75
     2
 76
     0
 98
        1
 10
-384.9648052316286
 20
22.99846013896778
  0
HATCH
  5
DE6
330
6C
100
AcDbEntity
  8
0
 62
     0
370
     0
100
AcDbHatch
 10
0.0
 20
0.0
 30
0.0
210
0.0
220
0.0
230
1.0
  2
SOLID
 70
     1
 71
     0
 91
        1
 92
        3
 72
     0
 73
     1
 93
        8
 10
-383.8159189916286
 20
23.71049685496778
 10
-383.8160135816286
 20
23.71028062696778
 10
-383.8162216736286
 20
23.71021957096777
 10
-383.8164297716286
 20
23.71032362296777
 10
-383.8165243616286
 20
23.71060268896777
 10
-383.8164297716286
 20
23.71088738296777
 10
-383.8162216796286
 20
23.71098157096778
 10
-383.8160135816286
 20
23.71085986696777
 97
        0
 75
     2
 76
     0
 98
        1
 10
-384.9648052316286
 20
22.99846013896778
  0
LWPOLYLINE
  5
DE7
330
6C
100
AcDbEntity
  8
0
 62
     0
370
     0
100
AcDbPolyline
 90
       20
 70
     1
 43
0.0
 10
-383.8234733756286
 20
23.70510316696778
 10
-383.8227924716286
 20
23.70528804496778
 10
-383.8223901716286
 20
23.70559476496778
 10
-383.8222791776286
 20
23.70605626096778
 10
-383.8224721916286
 20
23.70670548496778
 10
-383.8226665856286
 20
23.70707633296778
 10
-383.8228910636286
 20
23.70742276696779
 10
-383.8231314656286
 20
23.70772674496778
 10
-383.8233736316286
 20
23.70797019496778
 10
-383.8236033896286
 20
23.70813506296778
 10
-383.8238065856286
 20
23.70820328896778
 10
-383.8239690536286
 20
23.70815682496778
 10
-383.8240766276286
 20
23.70797759896777
 10
-383.8241901356286
 20
23.70764781496778
 10
-383.8243484876286
 20
23.70719866696778
 10
-383.8245022736286
 20
23.70668562496778
 10
-383.8246020896286
 20
23.70616414696778
 10
-383.8245985196286
 20
23.70568969696778
 10
-383.8244421476286
 20
23.70531774496778
 10
-383.8240835696286
 20
23.70510374896777
  0
HATCH
  5
DE8
330
6C
100
AcDbEntity
  8
0
 62
     0
370
     0
100
AcDbHatch
 10
0.0
 20
0.0
 30
0.0
210
0.0
220
0.0
230
1.0
  2
SOLID
 70
     1
 71
     0
 91
        1
 92
        3
 72
     0
 73
     1
 93
        8
 10
-383.8397019201146
 20
23.70674985650004
 10
-383.8397968401146
 20
23.70653368850004
 10
-383.8400056641146
 20
23.70647310050004
 10
-383.8402144881146
 20
23.70657840650005
 10
-383.8403094081146
 20
23.70685992050004
 10
-383.8402144881146
 20
23.70714306050004
 10
-383.8400056641146
 20
23.70723748250004
 10
-383.8397968401146
 20
23.70711561050004
 97
        0
 75
     2
 76
     0
 98
        1
 10
-384.9639107901147
 20
23.02545793250004
  0
HATCH
  5
DE9
330
6C
100
AcDbEntity
  8
0
 62
     0
370
     0
100
AcDbHatch
 10
0.0
 20
0.0
 30
0.0
210
0.0
220
0.0
230
1.0
  2
SOLID
 70
     1
 71
     0
 91
        1
 92
        3
 72
     0
 73
     1
 93
        8
 10
-383.8391344846304
 20
23.69906590899925
 10
-383.8391381019811
 20
23.69883103992301
 10
-383.8389741197227
 20
23.69868939714765
 10
-383.8387414981805
 20
23.69869746329785
 10
-383.8385391990395
 20
23.6989117612245
 10
-383.8385069294592
 20
23.69920912959868
 10
-383.8386568998578
 20
23.69938135093379
 10
-383.838896834654
 20
23.69935731793682
 97
        0
 75
     2
 76
     0
 98
        1
 10
-383.0959732171781
 20
22.57079008960013
  0
LWPOLYLINE
  5
DEA
330
6C
100
AcDbEntity
  8
0
 62
     0
370
     0
100
AcDbPolyline
 90
       20
 70
     1
 43
0.0
 10
-383.8316795933164
 20
23.69895311206141
 10
-383.8323079587788
 20
23.69918501054385
 10
-383.832736616177
 20
23.69959778200574
 10
-383.8328844160763
 20
23.70014986793094
 10
-383.8326702219974
 20
23.70079969594117
 10
-383.8324468747213
 20
23.70114051859516
 10
-383.8322065599058
 20
23.70145912083396
 10
-383.8319512203764
 20
23.7017358593029
 10
-383.8316828035063
 20
23.70195106633017
 10
-383.8314032466668
 20
23.70208509606063
 10
-383.8311145001847
 20
23.70211828877705
 10
-383.8308185064322
 20
23.70203098771595
 10
-383.830517210282
 20
23.70180353065969
 10
-383.8302488808905
 20
23.70143305313536
 10
-383.830057154871
 20
23.70096149327053
 10
-383.8299628128666
 20
23.70044142594808
 10
-383.8299866509752
 20
23.6999254067347
 10
-383.8301494577944
 20
23.69946600755967
 10
-383.8304720239682
 20
23.69911578148911
 10
-383.8309751405944
 20
23.69892729499819
  0
HATCH
  5
DEB
330
6C
100
AcDbEntity
  8
0
 62
     0
370
     0
100
AcDbHatch
 10
0.0
 20
0.0
 30
0.0
210
0.0
220
0.0
230
1.0
  2
SOLID
 70
     1
 71
     0
 91
        1
 92
        3
 72
     0
 73
     1
 93
        8
 10
-383.7918472653129
 20
23.73574147328559
 10
-383.7919418553129
 20
23.73552646328559
 10
-383.7921499533129
 20
23.73546604328559
 10
-383.7923580453129
 20
23.73557031728559
 10
-383.7924526353129
 20
23.73584942528559
 10
-383.7923580453129
 20
23.73613348328559
 10
-383.7921499533129
 20
23.73622804328558
 10
-383.7919418553129
 20
23.73610629728558
 97
        0
 75
     2
 76
     0
 98
        1
 10
-384.9345651153129
 20
23.02208359928559
  0
HATCH
  5
DEC
330
6C
100
AcDbEntity
  8
0
 62
     0
370
     0
100
AcDbHatch
 10
0.0
 20
0.0
 30
0.0
210
0.0
220
0.0
230
1.0
  2
SOLID
 70
     1
 71
     0
 91
        1
 92
        3
 72
     0
 73
     1
 93
        8
 10
-383.7908776233129
 20
23.73379265528559
 10
-383.7909718773129
 20
23.73357649328559
 10
-383.7911792493129
 20
23.73351590528558
 10
-383.7913866153129
 20
23.73362120528558
 10
-383.7914808693128
 20
23.73390272528558
 10
-383.7913866153129
 20
23.73418615928558
 10
-383.7911792493129
 20
23.73427948928559
 10
-383.7909718773129
 20
23.73415692128558
 97
        0
 75
     2
 76
     0
 98
        1
 10
-384.9345651153129
 20
23.02208359928559
  0
HATCH
  5
DED
330
6C
100
AcDbEntity
  8
0
 62
     0
370
     0
100
AcDbHatch
 10
0.0
 20
0.0
 30
0.0
210
0.0
220
0.0
230
1.0
  2
SOLID
 70
     1
 71
     0
 91
        1
 92
        3
 72
     0
 73
     1
 93
        8
 10
-383.7856788753129
 20
23.73412031528559
 10
-383.7857734653129
 20
23.73390408728559
 10
-383.7859815573129
 20
23.73384303128558
 10
-383.7861896553129
 20
23.73394708328559
 10
-383.7862842453129
 20
23.73422614928558
 10
-383.7861896553129
 20
23.73451084328559
 10
-383.7859815633129
 20
23.73460503128559
 10
-383.7857734653129
 20
23.73448332728558
 97
        0
 75
     2
 76
     0
 98
        1
 10
-384.9345651153129
 20
23.02208359928559
  0
LWPOLYLINE
  5
DEE
330
6C
100
AcDbEntity
  8
0
 62
     0
370
     0
100
AcDbPolyline
 90
       20
 70
     1
 43
0.0
 10
-383.7932332593129
 20
23.72872662728559
 10
-383.7925523553129
 20
23.72891150528559
 10
-383.7921500553128
 20
23.72921822528559
 10
-383.7920390613129
 20
23.72967972128559
 10
-383.7922320753129
 20
23.73032894528559
 10
-383.7924264693129
 20
23.73069979328559
 10
-383.7926509473129
 20
23.73104622728559
 10
-383.7928913493129
 20
23.73135020528559
 10
-383.7931335153129
 20
23.73159365528559
 10
-383.7933632733129
 20
23.73175852328559
 10
-383.7935664693129
 20
23.7318267492856
 10
-383.7937289373129
 20
23.7317802852856
 10
-383.7938365113128
 20
23.73160105928559
 10
-383.7939500193129
 20
23.73127127528559
 10
-383.7941083713129
 20
23.73082212728559
 10
-383.7942621573129
 20
23.73030908528559
 10
-383.7943619733129
 20
23.72978760728559
 10
-383.7943584033129
 20
23.7293131572856
 10
-383.7942020313129
 20
23.7289412052856
 10
-383.7938434533129
 20
23.72872720928559
  0
HATCH
  5
DEF
330
6C
100
AcDbEntity
  8
0
 62
     0
370
     0
100
AcDbHatch
 10
0.0
 20
0.0
 30
0.0
210
0.0
220
0.0
230
1.0
  2
SOLID
 70
     1
 71
     0
 91
        1
 92
        3
 72
     0
 73
     1
 93
        8
 10
-383.8094618037989
 20
23.73037331681786
 10
-383.8095567237989
 20
23.73015714881785
 10
-383.8097655477989
 20
23.73009656081785
 10
-383.8099743717989
 20
23.73020186681786
 10
-383.8100692917988
 20
23.73048338081785
 10
-383.8099743717989
 20
23.73076652081785
 10
-383.8097655477989
 20
23.73086094281785
 10
-383.8095567237989
 20
23.73073907081785
 97
        0
 75
     2
 76
     0
 98
        1
 10
-384.9336706737989
 20
23.04908139281785
  0
HATCH
  5
DF0
330
6C
100
AcDbEntity
  8
0
 62
     0
370
     0
100
AcDbHatch
 10
0.0
 20
0.0
 30
0.0
210
0.0
220
0.0
230
1.0
  2
SOLID
 70
     1
 71
     0
 91
        1
 92
        3
 72
     0
 73
     1
 93
        8
 10
-383.8088943683147
 20
23.72268936931706
 10
-383.8088979856653
 20
23.72245450024082
 10
-383.8087340034069
 20
23.72231285746546
 10
-383.8085013818647
 20
23.72232092361566
 10
-383.8082990827238
 20
23.72253522154231
 10
-383.8082668131434
 20
23.72283258991648
 10
-383.8084167835421
 20
23.72300481125161
 10
-383.8086567183383
 20
23.72298077825463
 97
        0
 75
     2
 76
     0
 98
        1
 10
-383.0657331008624
 20
22.59441354991794
  0
LWPOLYLINE
  5
DF1
330
6C
100
AcDbEntity
  8
0
 62
     0
370
     0
100
AcDbPolyline
 90
       20
 70
     1
 43
0.0
 10
-383.8014394770007
 20
23.72257657237922
 10
-383.8020678424631
 20
23.72280847086166
 10
-383.8024964998613
 20
23.72322124232355
 10
-383.8026442997606
 20
23.72377332824875
 10
-383.8024301056817
 20
23.72442315625899
 10
-383.8022067584055
 20
23.72476397891297
 10
-383.80196644359
 20
23.72508258115177
 10
-383.8017111040607
 20
23.72535931962072
 10
-383.8014426871906
 20
23.72557452664798
 10
-383.801163130351
 20
23.72570855637844
 10
-383.800874383869
 20
23.72574174909486
 10
-383.8005783901165
 20
23.72565444803376
 10
-383.8002770939663
 20
23.7254269909775
 10
-383.8000087645747
 20
23.72505651345317
 10
-383.7998170385553
 20
23.72458495358834
 10
-383.7997226965508
 20
23.72406488626589
 10
-383.7997465346595
 20
23.72354886705251
 10
-383.7999093414787
 20
23.72308946787748
 10
-383.8002319076525
 20
23.72273924180693
 10
-383.8007350242787
 20
23.722550755316
  0
HATCH
  5
DF2
330
6C
100
AcDbEntity
  8
0
 62
     0
370
     0
100
AcDbHatch
 10
0.0
 20
0.0
 30
0.0
210
0.0
220
0.0
230
1.0
  2
SOLID
 70
     1
 71
     0
 91
        1
 92
        3
 72
     0
 73
     1
 93
        8
 10
-383.8335577704269
 20
23.72115051278478
 10
-383.8336523604269
 20
23.72093550278478
 10
-383.833860458427
 20
23.72087508278479
 10
-383.8340685504269
 20
23.72097935678478
 10
-383.8341631404269
 20
23.72125846478478
 10
-383.8340685504269
 20
23.72154252278479
 10
-383.833860458427
 20
23.72163708278478
 10
-383.8336523604269
 20
23.72151533678477
 97
        0
 75
     2
 76
     0
 98
        1
 10
-384.976275620427
 20
23.00749263878478
  0
HATCH
  5
DF3
330
6C
100
AcDbEntity
  8
0
 62
     0
370
     0
100
AcDbHatch
 10
0.0
 20
0.0
 30
0.0
210
0.0
220
0.0
230
1.0
  2
SOLID
 70
     1
 71
     0
 91
        1
 92
        3
 72
     0
 73
     1
 93
        8
 10
-383.832588128427
 20
23.71920169478479
 10
-383.8326823824269
 20
23.71898553278478
 10
-383.832889754427
 20
23.71892494478478
 10
-383.8330971204269
 20
23.71903024478478
 10
-383.8331913744269
 20
23.71931176478478
 10
-383.8330971204269
 20
23.71959519878478
 10
-383.832889754427
 20
23.71968852878479
 10
-383.8326823824269
 20
23.71956596078478
 97
        0
 75
     2
 76
     0
 98
        1
 10
-384.976275620427
 20
23.00749263878478
  0
HATCH
  5
DF4
330
6C
100
AcDbEntity
  8
0
 62
     0
370
     0
100
AcDbHatch
 10
0.0
 20
0.0
 30
0.0
210
0.0
220
0.0
230
1.0
  2
SOLID
 70
     1
 71
     0
 91
        1
 92
        3
 72
     0
 73
     1
 93
        8
 10
-383.827389380427
 20
23.71952935478478
 10
-383.8274839704269
 20
23.71931312678478
 10
-383.8276920624269
 20
23.71925207078477
 10
-383.827900160427
 20
23.71935612278478
 10
-383.827994750427
 20
23.71963518878478
 10
-383.827900160427
 20
23.71991988278478
 10
-383.8276920684269
 20
23.72001407078478
 10
-383.8274839704269
 20
23.71989236678478
 97
        0
 75
     2
 76
     0
 98
        1
 10
-384.976275620427
 20
23.00749263878478
  0
LWPOLYLINE
  5
DF5
330
6C
100
AcDbEntity
  8
0
 62
     0
370
     0
100
AcDbPolyline
 90
       20
 70
     1
 43
0.0
 10
-383.834943764427
 20
23.71413566678478
 10
-383.8342628604269
 20
23.71432054478479
 10
-383.8338605604269
 20
23.71462726478479
 10
-383.833749566427
 20
23.71508876078479
 10
-383.8339425804269
 20
23.71573798478479
 10
-383.834136974427
 20
23.71610883278478
 10
-383.834361452427
 20
23.71645526678479
 10
-383.8346018544269
 20
23.71675924478478
 10
-383.8348440204269
 20
23.71700269478479
 10
-383.8350737784269
 20
23.71716756278479
 10
-383.835276974427
 20
23.71723578878479
 10
-383.8354394424269
 20
23.71718932478479
 10
-383.8355470164269
 20
23.71701009878478
 10
-383.8356605244269
 20
23.71668031478479
 10
-383.8358188764269
 20
23.71623116678479
 10
-383.835972662427
 20
23.71571812478479
 10
-383.836072478427
 20
23.71519664678479
 10
-383.836068908427
 20
23.71472219678479
 10
-383.8359125364269
 20
23.71435024478479
 10
-383.835553958427
 20
23.71413624878478
  0
HATCH
  5
DF6
330
6C
100
AcDbEntity
  8
0
 62
     0
370
     0
100
AcDbHatch
 10
0.0
 20
0.0
 30
0.0
210
0.0
220
0.0
230
1.0
  2
SOLID
 70
     1
 71
     0
 91
        1
 92
        3
 72
     0
 73
     1
 93
        8
 10
-383.820364757113
 20
23.73172186913407
 10
-383.8203683744637
 20
23.73148700005783
 10
-383.8202043922052
 20
23.73134535728247
 10
-383.8199717706631
 20
23.73135342343267
 10
-383.8197694715221
 20
23.73156772135931
 10
-383.8197372019418
 20
23.73186508973349
 10
-383.8198871723404
 20
23.73203731106861
 10
-383.8201271071366
 20
23.73201327807164
 97
        0
 75
     2
 76
     0
 98
        1
 10
-383.0772034896607
 20
22.60344604973495
  0
HATCH
  5
DF7
330
6C
100
AcDbEntity
  8
0
 62
     0
370
     0
100
AcDbHatch
 10
0.0
 20
0.0
 30
0.0
210
0.0
220
0.0
230
1.0
  2
SOLID
 70
     1
 71
     0
 91
        1
 92
        3
 72
     0
 73
     1
 93
        8
 10
-383.8211425244027
 20
23.72658996329395
 10
-383.8212367844027
 20
23.72637376529395
 10
-383.8214441504027
 20
23.72631294329395
 10
-383.8216515164027
 20
23.72641761929394
 10
-383.8217457764027
 20
23.72669791529395
 10
-383.8216515164027
 20
23.72698227329395
 10
-383.8214441504027
 20
23.72707732529395
 10
-383.8212367844027
 20
23.72695568129395
 97
        0
 75
     2
 76
     0
 98
        1
 10
-384.9602865944028
 20
23.00210787929395
  0
HATCH
  5
DF8
330
6C
100
AcDbEntity
  8
0
 62
     0
370
     0
100
AcDbHatch
 10
0.0
 20
0.0
 30
0.0
210
0.0
220
0.0
230
1.0
  2
SOLID
 70
     1
 71
     0
 91
        1
 92
        3
 72
     0
 73
     1
 93
        8
 10
-383.8237371344027
 20
23.72767390529395
 10
-383.8238320544027
 20
23.72745767729394
 10
-383.8240408784027
 20
23.72739662129395
 10
-383.8242497024027
 20
23.72750067329395
 10
-383.8243446224027
 20
23.72777973929395
 10
-383.8242497024027
 20
23.72806383929395
 10
-383.8240408784027
 20
23.72815862129395
 10
-383.8238320544027
 20
23.72803751129395
 97
        0
 75
     2
 76
     0
 98
        1
 10
-384.9602865944028
 20
23.00210787929395
  0
HATCH
  5
DF9
330
6C
100
AcDbEntity
  8
0
 62
     0
370
     0
100
AcDbHatch
 10
0.0
 20
0.0
 30
0.0
210
0.0
220
0.0
230
1.0
  2
SOLID
 70
     1
 71
     0
 91
        1
 92
        3
 72
     0
 73
     1
 93
        8
 10
-383.8240647944027
 20
23.72529075329395
 10
-383.8241590544027
 20
23.72507812529395
 10
-383.8243664204027
 20
23.72501849729395
 10
-383.8245737864027
 20
23.72512197929395
 10
-383.8246680464028
 20
23.72539870529394
 10
-383.8245737864027
 20
23.72568336329394
 10
-383.8243664204027
 20
23.72577732329395
 10
-383.8241590544027
 20
23.72565498329395
 97
        0
 75
     2
 76
     0
 98
        1
 10
-384.9602865944028
 20
23.00210787929395
  0
HATCH
  5
DFA
330
6C
100
AcDbEntity
  8
0
 62
     0
370
     0
100
AcDbHatch
 10
0.0
 20
0.0
 30
0.0
210
0.0
220
0.0
230
1.0
  2
SOLID
 70
     1
 71
     0
 91
        1
 92
        3
 72
     0
 73
     1
 93
        8
 10
-383.8138882844028
 20
23.72474782529395
 10
-383.8139832044027
 20
23.72453404529395
 10
-383.8141920284027
 20
23.72447424929395
 10
-383.8144008524027
 20
23.72457875729395
 10
-383.8144957724027
 20
23.72485789529395
 10
-383.8144008524027
 20
23.72514192329395
 10
-383.8141920284027
 20
23.72523624929395
 10
-383.8139832044027
 20
23.72511387929395
 97
        0
 75
     2
 76
     0
 98
        1
 10
-384.9602865944028
 20
23.00210787929395
  0
HATCH
  5
DFB
330
6C
100
AcDbEntity
  8
0
 62
     0
370
     0
100
AcDbHatch
 10
0.0
 20
0.0
 30
0.0
210
0.0
220
0.0
230
1.0
  2
SOLID
 70
     1
 71
     0
 91
        1
 92
        3
 72
     0
 73
     1
 93
        8
 10
-383.8145397944027
 20
23.71804032329395
 10
-383.8146343844027
 20
23.71782531329395
 10
-383.8148424764028
 20
23.71776489329395
 10
-383.8150505744027
 20
23.71786916729394
 10
-383.8151451644027
 20
23.71814827529394
 10
-383.8150505744027
 20
23.71843203929395
 10
-383.8148424764028
 20
23.71852609529395
 10
-383.8146343844027
 20
23.71840425929395
 97
        0
 75
     2
 76
     0
 98
        1
 10
-384.9602865944028
 20
23.00210787929395
  0
LWPOLYLINE
  5
DFC
330
6C
100
AcDbEntity
  8
0
 62
     0
370
     0
100
AcDbPolyline
 90
       20
 70
     1
 43
0.0
 10
-383.8213635044027
 20
23.72104450529395
 10
-383.8206956624027
 20
23.72099344529395
 10
-383.8201339844027
 20
23.72119002929395
 10
-383.8197695564027
 20
23.72163029729395
 10
-383.8196934584027
 20
23.72231027129395
 10
-383.8197544544027
 20
23.72271316529396
 10
-383.8198401344028
 20
23.72310293129396
 10
-383.8199569184027
 20
23.72346090329396
 10
-383.8201112324027
 20
23.72376839129396
 10
-383.8203095024027
 20
23.72400672929395
 10
-383.8205581484027
 20
23.72415723329396
 10
-383.8208635964027
 20
23.72420122529396
 10
-383.8212322724027
 20
23.72412002129395
 10
-383.8216305824028
 20
23.72389506929396
 10
-383.8220013824027
 20
23.72354630729395
 10
-383.8223038724027
 20
23.72311286729395
 10
-383.8224972464027
 20
23.72263385729395
 10
-383.8225406984027
 20
23.72214840329395
 10
-383.8223934284027
 20
23.72169561329395
 10
-383.8220146304027
 20
23.72131460729395
  0
HATCH
  5
DFD
330
6C
100
AcDbEntity
  8
0
 62
     0
370
     0
100
AcDbHatch
 10
0.0
 20
0.0
 30
0.0
210
0.0
220
0.0
230
1.0
  2
SOLID
 70
     1
 71
     0
 91
        1
 92
        3
 72
     0
 73
     1
 93
        8
 10
-383.809521161487
 20
23.71675563738745
 10
-383.8095252943761
 20
23.71651965816159
 10
-383.8093615692069
 20
23.71637744019833
 10
-383.8091290481346
 20
23.7163853015906
 10
-383.808926763996
 20
23.7165995667922
 10
-383.80889361177
 20
23.7168988604873
 10
-383.8090433541778
 20
23.71707156474289
 10
-383.8092834069466
 20
23.71704728880878
 97
        0
 75
     2
 76
     0
 98
        1
 10
-383.0731722375402
 20
22.63673469497976
  0
HATCH
  5
DFE
330
6C
100
AcDbEntity
  8
0
 62
     0
370
     0
100
AcDbHatch
 10
0.0
 20
0.0
 30
0.0
210
0.0
220
0.0
230
1.0
  2
SOLID
 70
     1
 71
     0
 91
        1
 92
        3
 72
     0
 73
     1
 93
        8
 10
-383.8065504318174
 20
23.71492011775195
 10
-383.8065558493949
 20
23.71468211369833
 10
-383.8063931221889
 20
23.7145394753812
 10
-383.8061609310162
 20
23.71454835927343
 10
-383.8059579541931
 20
23.71476492730198
 10
-383.80592499957
 20
23.71506299809519
 10
-383.8060742470509
 20
23.71523503982579
 10
-383.8063134693842
 20
23.7152108188164
 97
        0
 75
     2
 76
     0
 98
        1
 10
-383.0731722375402
 20
22.63673469497976
  0
HATCH
  5
DFF
330
6C
100
AcDbEntity
  8
0
 62
     0
370
     0
100
AcDbHatch
 10
0.0
 20
0.0
 30
0.0
210
0.0
220
0.0
230
1.0
  2
SOLID
 70
     1
 71
     0
 91
        1
 92
        3
 72
     0
 73
     1
 93
        8
 10
-383.8060987418354
 20
23.71149413319827
 10
-383.8061031321966
 20
23.71125838421594
 10
-383.8059397794341
 20
23.7111170960318
 10
-383.8057071306859
 20
23.71112697803657
 10
-383.8055036242286
 20
23.71134471575726
 10
-383.8054716968218
 20
23.71164053147912
 10
-383.805621564405
 20
23.71181122057635
 10
-383.8058612472675
 20
23.71178600940895
 97
        0
 75
     2
 76
     0
 98
        1
 10
-383.0731722375402
 20
22.63673469497976
  0
HATCH
  5
E00
330
6C
100
AcDbEntity
  8
0
 62
     0
370
     0
100
AcDbHatch
 10
0.0
 20
0.0
 30
0.0
210
0.0
220
0.0
230
1.0
  2
SOLID
 70
     1
 71
     0
 91
        1
 92
        3
 72
     0
 73
     1
 93
        8
 10
-383.804041401991
 20
23.71233854689847
 10
-383.8040456318019
 20
23.71210392559678
 10
-383.803883066968
 20
23.71196267520883
 10
-383.8036520308313
 20
23.71197078172599
 10
-383.8034508496875
 20
23.71218423909418
 10
-383.8034173395898
 20
23.71248271528097
 10
-383.8035655145483
 20
23.71265535439917
 10
-383.8038039944138
 20
23.71263101082729
 97
        0
 75
     2
 76
     0
 98
        1
 10
-383.0731722375402
 20
22.63673469497976
  0
HATCH
  5
E01
330
6C
100
AcDbEntity
  8
0
 62
     0
370
     0
100
AcDbHatch
 10
0.0
 20
0.0
 30
0.0
210
0.0
220
0.0
230
1.0
  2
SOLID
 70
     1
 71
     0
 91
        1
 92
        3
 72
     0
 73
     1
 93
        8
 10
-383.7938958680168
 20
23.72353542064174
 10
-383.7939000009058
 20
23.72329944141588
 10
-383.7937362757367
 20
23.72315722345262
 10
-383.7935037546643
 20
23.72316508484489
 10
-383.7933014705257
 20
23.72337935004649
 10
-383.7932683182998
 20
23.72367864374159
 10
-383.7934180607076
 20
23.72385134799718
 10
-383.7936581134764
 20
23.72382707206307
 97
        0
 75
     2
 76
     0
 98
        1
 10
-383.0575469440699
 20
22.64351447823405
  0
HATCH
  5
E02
330
6C
100
AcDbEntity
  8
0
 62
     0
370
     0
100
AcDbHatch
 10
0.0
 20
0.0
 30
0.0
210
0.0
220
0.0
230
1.0
  2
SOLID
 70
     1
 71
     0
 91
        1
 92
        3
 72
     0
 73
     1
 93
        8
 10
-383.7909251383472
 20
23.72169990100625
 10
-383.7909305559247
 20
23.72146189695262
 10
-383.7907678287187
 20
23.72131925863549
 10
-383.790535637546
 20
23.72132814252772
 10
-383.7903326607229
 20
23.72154471055627
 10
-383.7902997060998
 20
23.72184278134948
 10
-383.7904489535806
 20
23.72201482308009
 10
-383.7906881759139
 20
23.72199060207069
 97
        0
 75
     2
 76
     0
 98
        1
 10
-383.0575469440699
 20
22.64351447823405
  0
HATCH
  5
E03
330
6C
100
AcDbEntity
  8
0
 62
     0
370
     0
100
AcDbHatch
 10
0.0
 20
0.0
 30
0.0
210
0.0
220
0.0
230
1.0
  2
SOLID
 70
     1
 71
     0
 91
        1
 92
        3
 72
     0
 73
     1
 93
        8
 10
-383.7904734483652
 20
23.71827391645256
 10
-383.7904778387263
 20
23.71803816747023
 10
-383.7903144859638
 20
23.71789687928609
 10
-383.7900818372157
 20
23.71790676129086
 10
-383.7898783307584
 20
23.71812449901155
 10
-383.7898464033516
 20
23.71842031473341
 10
-383.7899962709347
 20
23.71859100383064
 10
-383.7902359537973
 20
23.71856579266324
 97
        0
 75
     2
 76
     0
 98
        1
 10
-383.0575469440699
 20
22.64351447823405
  0
HATCH
  5
E04
330
6C
100
AcDbEntity
  8
0
 62
     0
370
     0
100
AcDbHatch
 10
0.0
 20
0.0
 30
0.0
210
0.0
220
0.0
230
1.0
  2
SOLID
 70
     1
 71
     0
 91
        1
 92
        3
 72
     0
 73
     1
 93
        8
 10
-383.7884161085207
 20
23.71911833015277
 10
-383.7884203383317
 20
23.71888370885107
 10
-383.7882577734978
 20
23.71874245846313
 10
-383.788026737361
 20
23.71875056498028
 10
-383.7878255562172
 20
23.71896402234847
 10
-383.7877920461195
 20
23.71926249853526
 10
-383.787940221078
 20
23.71943513765346
 10
-383.7881787009436
 20
23.71941079408158
 97
        0
 75
     2
 76
     0
 98
        1
 10
-383.0575469440699
 20
22.64351447823405
  0
HATCH
  5
E05
330
6C
100
AcDbEntity
  8
0
 62
     0
370
     0
100
AcDbHatch
 10
0.0
 20
0.0
 30
0.0
210
0.0
220
0.0
230
1.0
  2
SOLID
 70
     1
 71
     0
 91
        1
 92
        3
 72
     0
 73
     1
 93
        8
 10
-383.864541078123
 20
23.72920964029235
 10
-383.864635668123
 20
23.72899463029236
 10
-383.864843766123
 20
23.72893421029236
 10
-383.865051858123
 20
23.72903848429235
 10
-383.865146448123
 20
23.72931759229235
 10
-383.865051858123
 20
23.72960165029236
 10
-383.864843766123
 20
23.72969621029235
 10
-383.864635668123
 20
23.72957446429235
 97
        0
 75
     2
 76
     0
 98
        1
 10
-385.007258928123
 20
23.01555176629236
  0
HATCH
  5
E06
330
6C
100
AcDbEntity
  8
0
 62
     0
370
     0
100
AcDbHatch
 10
0.0
 20
0.0
 30
0.0
210
0.0
220
0.0
230
1.0
  2
SOLID
 70
     1
 71
     0
 91
        1
 92
        3
 72
     0
 73
     1
 93
        8
 10
-383.8646396572023
 20
23.72152919189163
 10
-383.8647339112023
 20
23.72131302989163
 10
-383.8649412832023
 20
23.72125244189163
 10
-383.8651486492023
 20
23.72135774189162
 10
-383.8652429032023
 20
23.72163926189163
 10
-383.8651486492023
 20
23.72192269589163
 10
-383.8649412832023
 20
23.72201602589163
 10
-383.8647339112023
 20
23.72189345789163
 97
        0
 75
     2
 76
     0
 98
        1
 10
-385.0083271492023
 20
23.00982013589163
  0
HATCH
  5
E07
330
6C
100
AcDbEntity
  8
0
 62
     0
370
     0
100
AcDbHatch
 10
0.0
 20
0.0
 30
0.0
210
0.0
220
0.0
230
1.0
  2
SOLID
 70
     1
 71
     0
 91
        1
 92
        3
 72
     0
 73
     1
 93
        8
 10
-383.8594409092023
 20
23.72185685189163
 10
-383.8595354992023
 20
23.72164062389163
 10
-383.8597435912023
 20
23.72157956789163
 10
-383.8599516892023
 20
23.72168361989163
 10
-383.8600462792023
 20
23.72196268589163
 10
-383.8599516892023
 20
23.72224737989163
 10
-383.8597435972023
 20
23.72234156789163
 10
-383.8595354992023
 20
23.72221986389162
 97
        0
 75
     2
 76
     0
 98
        1
 10
-385.0083271492023
 20
23.00982013589163
  0
LWPOLYLINE
  5
E08
330
6C
100
AcDbEntity
  8
0
 62
     0
370
     0
100
AcDbPolyline
 90
       20
 70
     1
 43
0.0
 10
-383.8669952932023
 20
23.71646316389163
 10
-383.8663143892023
 20
23.71664804189163
 10
-383.8659120892022
 20
23.71695476189163
 10
-383.8658010952023
 20
23.71741625789164
 10
-383.8659941092023
 20
23.71806548189164
 10
-383.8661885032023
 20
23.71843632989163
 10
-383.8664129812023
 20
23.71878276389164
 10
-383.8666533832023
 20
23.71908674189163
 10
-383.8668955492023
 20
23.71933019189164
 10
-383.8671253072023
 20
23.71949505989164
 10
-383.8673285032023
 20
23.71956328589164
 10
-383.8674909712023
 20
23.71951682189164
 10
-383.8675985452023
 20
23.71933759589163
 10
-383.8677120532023
 20
23.71900781189164
 10
-383.8678704052023
 20
23.71855866389164
 10
-383.8680241912023
 20
23.71804562189163
 10
-383.8681240072023
 20
23.71752414389164
 10
-383.8681204372023
 20
23.71704969389164
 10
-383.8679640652023
 20
23.71667774189164
 10
-383.8676054872023
 20
23.71646374589163
  0
HATCH
  5
E09
330
6C
100
AcDbEntity
  8
0
 62
     0
370
     0
100
AcDbHatch
 10
0.0
 20
0.0
 30
0.0
210
0.0
220
0.0
230
1.0
  2
SOLID
 70
     1
 71
     0
 91
        1
 92
        3
 72
     0
 73
     1
 93
        8
 10
-383.8832238376883
 20
23.7181098534239
 10
-383.8833187576883
 20
23.7178936854239
 10
-383.8835275816883
 20
23.71783309742389
 10
-383.8837364056883
 20
23.7179384034239
 10
-383.8838313256882
 20
23.7182199174239
 10
-383.8837364056883
 20
23.71850305742389
 10
-383.8835275816883
 20
23.71859747942389
 10
-383.8833187576883
 20
23.7184756074239
 97
        0
 75
     2
 76
     0
 98
        1
 10
-385.0074327076884
 20
23.03681792942389
  0
HATCH
  5
E0A
330
6C
100
AcDbEntity
  8
0
 62
     0
370
     0
100
AcDbHatch
 10
0.0
 20
0.0
 30
0.0
210
0.0
220
0.0
230
1.0
  2
SOLID
 70
     1
 71
     0
 91
        1
 92
        3
 72
     0
 73
     1
 93
        8
 10
-383.8899370576883
 20
23.7155095254239
 10
-383.8900313176883
 20
23.7152945874239
 10
-383.8902386836883
 20
23.71523462342389
 10
-383.8904460496883
 20
23.7153401634239
 10
-383.8905403096883
 20
23.7156217134239
 10
-383.8904460496883
 20
23.71590659942389
 10
-383.8902386836883
 20
23.71600059542389
 10
-383.8900313176883
 20
23.7158770974239
 97
        0
 75
     2
 76
     0
 98
        1
 10
-385.0074327076884
 20
23.03681792942389
  0
HATCH
  5
E0B
330
6C
100
AcDbEntity
  8
0
 62
     0
370
     0
100
AcDbHatch
 10
0.0
 20
0.0
 30
0.0
210
0.0
220
0.0
230
1.0
  2
SOLID
 70
     1
 71
     0
 91
        1
 92
        3
 72
     0
 73
     1
 93
        8
 10
-383.8879880356883
 20
23.7117242934239
 10
-383.8880826196883
 20
23.71150805942389
 10
-383.8882907176883
 20
23.71144700942389
 10
-383.8884988096883
 20
23.7115510554239
 10
-383.8885933996883
 20
23.7118301274239
 10
-383.8884988096883
 20
23.71211600942389
 10
-383.8882907176883
 20
23.7122105994239
 10
-383.8880826196883
 20
23.71208849342389
 97
        0
 75
     2
 76
     0
 98
        1
 10
-385.0074327076884
 20
23.03681792942389
  0
HATCH
  5
E0C
330
6C
100
AcDbEntity
  8
0
 62
     0
370
     0
100
AcDbHatch
 10
0.0
 20
0.0
 30
0.0
210
0.0
220
0.0
230
1.0
  2
SOLID
 70
     1
 71
     0
 91
        1
 92
        3
 72
     0
 73
     1
 93
        8
 10
-383.8914534376883
 20
23.71129376342389
 10
-383.8915476976883
 20
23.71107515342389
 10
-383.8917550636883
 20
23.71101330542389
 10
-383.8919624296883
 20
23.71111814342389
 10
-383.8920566896883
 20
23.71139959742389
 10
-383.8919624296883
 20
23.7116842854239
 10
-383.8917550636883
 20
23.7117784794239
 10
-383.8915476976883
 20
23.7116567694239
 97
        0
 75
     2
 76
     0
 98
        1
 10
-385.0074327076884
 20
23.03681792942389
  0
LWPOLYLINE
  5
E0D
330
6C
100
AcDbEntity
  8
0
 62
     0
370
     0
100
AcDbPolyline
 90
       16
 70
     1
 43
0.0
 10
-383.8972500624484
 20
23.72002805390023
 10
-383.8974393080337
 20
23.72030062129963
 10
-383.8974432132438
 20
23.72070891402284
 10
-383.8972587729944
 20
23.72110901752296
 10
-383.8968829867487
 20
23.72135699293603
 10
-383.8964530570211
 20
23.72144673830668
 10
-383.8961263546723
 20
23.72143798340045
 10
-383.8959340840408
 20
23.72127693003282
 10
-383.8959074653737
 20
23.72090977411174
 10
-383.8959500999795
 20
23.72065994165798
 10
-383.8960131129573
 20
23.7204141777159
 10
-383.896104189995
 20
23.72019040131776
 10
-383.8962310401906
 20
23.7200065092257
 10
-383.8964013492319
 20
23.71988042047196
 10
-383.8966228266703
 20
23.71983004522756
 10
-383.896903165695
 20
23.71987328616223
  0
HATCH
  5
E0E
330
6C
100
AcDbEntity
  8
0
 62
     0
370
     0
100
AcDbHatch
 10
0.0
 20
0.0
 30
0.0
210
0.0
220
0.0
230
1.0
  2
SOLID
 70
     1
 71
     0
 91
        1
 92
        3
 72
     0
 73
     1
 93
        8
 10
-383.9068512193488
 20
23.71768258131327
 10
-383.9068553522377
 20
23.71744660208741
 10
-383.9066916270686
 20
23.71730438412415
 10
-383.9064591059962
 20
23.71731224551643
 10
-383.9062568218577
 20
23.71752651071802
 10
-383.9062236696317
 20
23.71782580441312
 10
-383.9063734120395
 20
23.71799850866871
 10
-383.9066134648084
 20
23.71797423273461
 97
        0
 75
     2
 76
     0
 98
        1
 10
-383.1705022954019
 20
22.63766163890558
  0
HATCH
  5
E0F
330
6C
100
AcDbEntity
  8
0
 62
     0
370
     0
100
AcDbHatch
 10
0.0
 20
0.0
 30
0.0
210
0.0
220
0.0
230
1.0
  2
SOLID
 70
     1
 71
     0
 91
        1
 92
        3
 72
     0
 73
     1
 93
        8
 10
-383.9038804896791
 20
23.71584706167778
 10
-383.9038859072566
 20
23.71560905762415
 10
-383.9037231800507
 20
23.71546641930702
 10
-383.9034909888779
 20
23.71547530319926
 10
-383.9032880120548
 20
23.7156918712278
 10
-383.9032550574318
 20
23.71598994202101
 10
-383.9034043049125
 20
23.71616198375162
 10
-383.9036435272459
 20
23.71613776274222
 97
        0
 75
     2
 76
     0
 98
        1
 10
-383.1705022954019
 20
22.63766163890558
  0
HATCH
  5
E10
330
6C
100
AcDbEntity
  8
0
 62
     0
370
     0
100
AcDbHatch
 10
0.0
 20
0.0
 30
0.0
210
0.0
220
0.0
230
1.0
  2
SOLID
 70
     1
 71
     0
 91
        1
 92
        3
 72
     0
 73
     1
 93
        8
 10
-383.9034287996971
 20
23.71242107712409
 10
-383.9034331900582
 20
23.71218532814176
 10
-383.9032698372958
 20
23.71204403995762
 10
-383.9030371885476
 20
23.71205392196239
 10
-383.9028336820903
 20
23.71227165968308
 10
-383.9028017546835
 20
23.71256747540494
 10
-383.9029516222667
 20
23.71273816450217
 10
-383.9031913051293
 20
23.71271295333477
 97
        0
 75
     2
 76
     0
 98
        1
 10
-383.1705022954019
 20
22.63766163890558
  0
HATCH
  5
E11
330
6C
100
AcDbEntity
  8
0
 62
     0
370
     0
100
AcDbHatch
 10
0.0
 20
0.0
 30
0.0
210
0.0
220
0.0
230
1.0
  2
SOLID
 70
     1
 71
     0
 91
        1
 92
        3
 72
     0
 73
     1
 93
        8
 10
-383.9013714598527
 20
23.7132654908243
 10
-383.9013756896636
 20
23.7130308695226
 10
-383.9012131248297
 20
23.71288961913466
 10
-383.9009820886929
 20
23.71289772565182
 10
-383.9007809075492
 20
23.71311118302001
 10
-383.9007473974515
 20
23.71340965920679
 10
-383.90089557241
 20
23.71358229832499
 10
-383.9011340522755
 20
23.71355795475311
 97
        0
 75
     2
 76
     0
 98
        1
 10
-383.1705022954019
 20
22.63766163890558
  0
HATCH
  5
E12
330
6C
100
AcDbEntity
  8
0
 62
     0
370
     0
100
AcDbHatch
 10
0.0
 20
0.0
 30
0.0
210
0.0
220
0.0
230
1.0
  2
SOLID
 70
     1
 71
     0
 91
        1
 92
        3
 72
     0
 73
     1
 93
        8
 10
-383.8826564022042
 20
23.7104259059231
 10
-383.8826600195547
 20
23.71019103684687
 10
-383.8824960372964
 20
23.7100493940715
 10
-383.8822634157541
 20
23.7100574602217
 10
-383.8820611166132
 20
23.71027175814835
 10
-383.8820288470328
 20
23.71056912652253
 10
-383.8821788174315
 20
23.71074134785765
 10
-383.8824187522277
 20
23.71071731486067
 97
        0
 75
     2
 76
     0
 98
        1
 10
-383.1394951347519
 20
22.58215008652398
  0
LWPOLYLINE
  5
E13
330
6C
100
AcDbEntity
  8
0
 62
     0
370
     0
100
AcDbPolyline
 90
       20
 70
     1
 43
0.0
 10
-383.8752015108901
 20
23.71031310898526
 10
-383.8758298763525
 20
23.7105450074677
 10
-383.8762585337507
 20
23.7109577789296
 10
-383.87640633365
 20
23.71150986485479
 10
-383.8761921395711
 20
23.71215969286503
 10
-383.8759687922949
 20
23.71250051551901
 10
-383.8757284774794
 20
23.71281911775782
 10
-383.8754731379501
 20
23.71309585622676
 10
-383.87520472108
 20
23.71331106325403
 10
-383.8749251642405
 20
23.71344509298449
 10
-383.8746364177584
 20
23.7134782857009
 10
-383.8743404240059
 20
23.7133909846398
 10
-383.8740391278557
 20
23.71316352758355
 10
-383.8737707984642
 20
23.71279305005922
 10
-383.8735790724447
 20
23.71232149019439
 10
-383.8734847304402
 20
23.71180142287193
 10
-383.8735085685489
 20
23.71128540365855
 10
-383.8736713753681
 20
23.71082600448352
 10
-383.8739939415419
 20
23.71047577841297
 10
-383.8744970581681
 20
23.71028729192204
  0
HATCH
  5
E14
330
6C
100
AcDbEntity
  8
0
 62
     0
370
     0
100
AcDbHatch
 10
0.0
 20
0.0
 30
0.0
210
0.0
220
0.0
230
1.0
  2
SOLID
 70
     1
 71
     0
 91
        1
 92
        3
 72
     0
 73
     1
 93
        8
 10
-383.8953422258596
 20
23.73225988766358
 10
-383.8954364858596
 20
23.73204368966357
 10
-383.8956438518596
 20
23.73198286766358
 10
-383.8958512178596
 20
23.73208754366357
 10
-383.8959454778596
 20
23.73236783966357
 10
-383.8958512178596
 20
23.73265219766357
 10
-383.8956438518596
 20
23.73274724966358
 10
-383.8954364858596
 20
23.73262560566358
 97
        0
 75
     2
 76
     0
 98
        1
 10
-385.0344862958596
 20
23.00777780366358
  0
HATCH
  5
E15
330
6C
100
AcDbEntity
  8
0
 62
     0
370
     0
100
AcDbHatch
 10
0.0
 20
0.0
 30
0.0
210
0.0
220
0.0
230
1.0
  2
SOLID
 70
     1
 71
     0
 91
        1
 92
        3
 72
     0
 73
     1
 93
        8
 10
-383.8979368358596
 20
23.73334382966357
 10
-383.8980317558596
 20
23.73312760166357
 10
-383.8982405798596
 20
23.73306654566358
 10
-383.8984494038596
 20
23.73317059766358
 10
-383.8985443238595
 20
23.73344966366357
 10
-383.8984494038596
 20
23.73373376366358
 10
-383.8982405798596
 20
23.73382854566358
 10
-383.8980317558596
 20
23.73370743566358
 97
        0
 75
     2
 76
     0
 98
        1
 10
-385.0344862958596
 20
23.00777780366358
  0
HATCH
  5
E16
330
6C
100
AcDbEntity
  8
0
 62
     0
370
     0
100
AcDbHatch
 10
0.0
 20
0.0
 30
0.0
210
0.0
220
0.0
230
1.0
  2
SOLID
 70
     1
 71
     0
 91
        1
 92
        3
 72
     0
 73
     1
 93
        8
 10
-383.8982644958596
 20
23.73096067766358
 10
-383.8983587558596
 20
23.73074804966358
 10
-383.8985661218596
 20
23.73068842166357
 10
-383.8987734878596
 20
23.73079190366357
 10
-383.8988677478596
 20
23.73106862966357
 10
-383.8987734878596
 20
23.73135328766357
 10
-383.8985661218596
 20
23.73144724766357
 10
-383.8983587558596
 20
23.73132490766358
 97
        0
 75
     2
 76
     0
 98
        1
 10
-385.0344862958596
 20
23.00777780366358
  0
HATCH
  5
E17
330
6C
100
AcDbEntity
  8
0
 62
     0
370
     0
100
AcDbHatch
 10
0.0
 20
0.0
 30
0.0
210
0.0
220
0.0
230
1.0
  2
SOLID
 70
     1
 71
     0
 91
        1
 92
        3
 72
     0
 73
     1
 93
        8
 10
-383.8880879858596
 20
23.73041774966358
 10
-383.8881829058595
 20
23.73020396966357
 10
-383.8883917298596
 20
23.73014417366358
 10
-383.8886005538596
 20
23.73024868166357
 10
-383.8886954738596
 20
23.73052781966357
 10
-383.8886005538596
 20
23.73081184766358
 10
-383.8883917298596
 20
23.73090617366357
 10
-383.8881829058595
 20
23.73078380366357
 97
        0
 75
     2
 76
     0
 98
        1
 10
-385.0344862958596
 20
23.00777780366358
  0
HATCH
  5
E18
330
6C
100
AcDbEntity
  8
0
 62
     0
370
     0
100
AcDbHatch
 10
0.0
 20
0.0
 30
0.0
210
0.0
220
0.0
230
1.0
  2
SOLID
 70
     1
 71
     0
 91
        1
 92
        3
 72
     0
 73
     1
 93
        8
 10
-383.8887394958596
 20
23.72371024766358
 10
-383.8888340858596
 20
23.72349523766358
 10
-383.8890421778596
 20
23.72343481766358
 10
-383.8892502758596
 20
23.72353909166357
 10
-383.8893448658596
 20
23.72381819966357
 10
-383.8892502758596
 20
23.72410196366358
 10
-383.8890421778596
 20
23.72419601966358
 10
-383.8888340858596
 20
23.72407418366358
 97
        0
 75
     2
 76
     0
 98
        1
 10
-385.0344862958596
 20
23.00777780366358
  0
HATCH
  5
E19
330
6C
100
AcDbEntity
  8
0
 62
     0
370
     0
100
AcDbHatch
 10
0.0
 20
0.0
 30
0.0
210
0.0
220
0.0
230
1.0
  2
SOLID
 70
     1
 71
     0
 91
        1
 92
        3
 72
     0
 73
     1
 93
        8
 10
-383.8788115290117
 20
23.73332345980165
 10
-383.8789054590117
 20
23.73311083180166
 10
-383.8791120990117
 20
23.73305120380165
 10
-383.8793187390118
 20
23.73315468580165
 10
-383.8794126630117
 20
23.73343141180165
 10
-383.8793187390118
 20
23.73371606980164
 10
-383.8791120990117
 20
23.73381002980165
 10
-383.8789054590117
 20
23.73368768980165
 97
        0
 75
     2
 76
     0
 98
        1
 10
-385.0354892190118
 20
23.01014058580165
  0
HATCH
  5
E1A
330
6C
100
AcDbEntity
  8
0
 62
     0
370
     0
100
AcDbHatch
 10
0.0
 20
0.0
 30
0.0
210
0.0
220
0.0
230
1.0
  2
SOLID
 70
     1
 71
     0
 91
        1
 92
        3
 72
     0
 73
     1
 93
        8
 10
-383.8755615990117
 20
23.73332345980165
 10
-383.8756561890117
 20
23.73311083180166
 10
-383.8758642870118
 20
23.73305120380165
 10
-383.8760723790117
 20
23.73315468580165
 10
-383.8761669690117
 20
23.73343141180165
 10
-383.8760723790117
 20
23.73371606980164
 10
-383.8758642870118
 20
23.73381002980165
 10
-383.8756561890117
 20
23.73368768980165
 97
        0
 75
     2
 76
     0
 98
        1
 10
-385.0354892190118
 20
23.01014058580165
  0
LWPOLYLINE
  5
E1B
330
6C
100
AcDbEntity
  8
0
 62
     0
370
     0
100
AcDbPolyline
 90
       20
 70
     1
 43
0.0
 10
-383.8955632058596
 20
23.72671442966358
 10
-383.8948953638596
 20
23.72666336966358
 10
-383.8943336858596
 20
23.72685995366358
 10
-383.8939692578596
 20
23.72730022166358
 10
-383.8938931598596
 20
23.72798019566358
 10
-383.8939541558596
 20
23.72838308966358
 10
-383.8940398358596
 20
23.72877285566358
 10
-383.8941566198596
 20
23.72913082766359
 10
-383.8943109338596
 20
23.72943831566358
 10
-383.8945092038596
 20
23.72967665366358
 10
-383.8947578498596
 20
23.72982715766358
 10
-383.8950632978596
 20
23.72987114966358
 10
-383.8954319738596
 20
23.72978994566358
 10
-383.8958302838596
 20
23.72956499366358
 10
-383.8962010838596
 20
23.72921623166358
 10
-383.8965035738596
 20
23.72878279166358
 10
-383.8966969478596
 20
23.72830378166358
 10
-383.8967403998595
 20
23.72781832766358
 10
-383.8965931298596
 20
23.72736553766358
 10
-383.8962143318596
 20
23.72698453166358
  0
LWPOLYLINE
  5
E1C
330
6C
100
AcDbEntity
  8
0
 62
     0
370
     0
100
AcDbPolyline
 90
       24
 70
     1
 43
0.0
 10
-383.8813307378596
 20
23.72417443166358
 10
-383.8806872438595
 20
23.72369831366358
 10
-383.8801721318596
 20
23.72343095366359
 10
-383.8797034538596
 20
23.72345171966358
 10
-383.8791992558596
 20
23.72383999766358
 10
-383.8787779058596
 20
23.72446537166358
 10
-383.8786034138596
 20
23.72512190366358
 10
-383.8786432358596
 20
23.72578994366358
 10
-383.8788648218596
 20
23.72644984766358
 10
-383.8790626358596
 20
23.72678053766358
 10
-383.8793423978596
 20
23.72710978766358
 10
-383.8796789138596
 20
23.72741730566358
 10
-383.8800469838596
 20
23.72768280566358
 10
-383.8804214018596
 20
23.72788600166358
 10
-383.8807769678595
 20
23.72800658966358
 10
-383.8810884818596
 20
23.72802429566358
 10
-383.8813307378596
 20
23.72791881566358
 10
-383.8815621038596
 20
23.72768126366358
 10
-383.8818215738596
 20
23.72733405566358
 10
-383.8820620478596
 20
23.72689907966359
 10
-383.8822364078596
 20
23.72639825366358
 10
-383.8822975658596
 20
23.72585347166359
 10
-383.8821984098595
 20
23.72528663966358
 10
-383.8818918338596
 20
23.72471965766358
  0
LWPOLYLINE
  5
E1D
330
6C
100
AcDbEntity
  8
0
 62
     0
370
     0
100
AcDbPolyline
 90
       20
 70
     1
 43
0.0
 10
-383.8755226058595
 20
23.72538092966358
 10
-383.8753171118596
 20
23.72552530766358
 10
-383.8751156798596
 20
23.72566519166358
 10
-383.8749336938596
 20
23.72580840566358
 10
-383.8747865378596
 20
23.72596274966358
 10
-383.8746895838596
 20
23.72613604766358
 10
-383.8746582158596
 20
23.72633611166358
 10
-383.8747078058596
 20
23.72657075366358
 10
-383.8748537438596
 20
23.72684777966358
 10
-383.8750677038595
 20
23.72711634566358
 10
-383.8752986018596
 20
23.72731672166358
 10
-383.8755324338596
 20
23.72744342966358
 10
-383.8757551778595
 20
23.72749098566358
 10
-383.8759528178595
 20
23.72745390566358
 10
-383.8761113378596
 20
23.72732671166358
 10
-383.8762167278596
 20
23.72710391966358
 10
-383.8762549718595
 20
23.72678004566358
 10
-383.8762155518596
 20
23.72608280366358
 10
-383.8760888138596
 20
23.72555502566358
 10
-383.8758620678596
 20
23.72528998166358
  0
HATCH
  5
E1E
330
6C
100
AcDbEntity
  8
0
 62
     0
370
     0
100
AcDbHatch
 10
0.0
 20
0.0
 30
0.0
210
0.0
220
0.0
230
1.0
  2
SOLID
 70
     1
 71
     0
 91
        1
 92
        3
 72
     0
 73
     1
 93
        8
 10
-383.8649205713006
 20
23.70851396123358
 10
-383.8650154913006
 20
23.70829779323357
 10
-383.8652243153006
 20
23.70823720523357
 10
-383.8654331393006
 20
23.70834251123358
 10
-383.8655280593006
 20
23.70862402523357
 10
-383.8654331393006
 20
23.70890716523357
 10
-383.8652243153006
 20
23.70900158723357
 10
-383.8650154913006
 20
23.70887971523357
 97
        0
 75
     2
 76
     0
 98
        1
 10
-384.9891294413006
 20
23.02722203723357
  0
HATCH
  5
E1F
330
6C
100
AcDbEntity
  8
0
 62
     0
370
     0
100
AcDbHatch
 10
0.0
 20
0.0
 30
0.0
210
0.0
220
0.0
230
1.0
  2
SOLID
 70
     1
 71
     0
 91
        1
 92
        3
 72
     0
 73
     1
 93
        8
 10
-383.8643531358164
 20
23.70083001373278
 10
-383.864356753167
 20
23.70059514465654
 10
-383.8641927709086
 20
23.70045350188118
 10
-383.8639601493664
 20
23.70046156803138
 10
-383.8637578502255
 20
23.70067586595803
 10
-383.8637255806452
 20
23.7009732343322
 10
-383.8638755510438
 20
23.70114545566733
 10
-383.86411548584
 20
23.70112142267035
 97
        0
 75
     2
 76
     0
 98
        1
 10
-383.1211918683641
 20
22.57255419433366
  0
LWPOLYLINE
  5
E20
330
6C
100
AcDbEntity
  8
0
 62
     0
370
     0
100
AcDbPolyline
 90
       20
 70
     1
 43
0.0
 10
-383.8568982445023
 20
23.70071721679494
 10
-383.8575266099648
 20
23.70094911527738
 10
-383.857955267363
 20
23.70136188673928
 10
-383.8581030672623
 20
23.70191397266447
 10
-383.8578888731834
 20
23.70256380067471
 10
-383.8576655259073
 20
23.70290462332869
 10
-383.8574252110917
 20
23.7032232255675
 10
-383.8571698715623
 20
23.70349996403644
 10
-383.8569014546923
 20
23.7037151710637
 10
-383.8566218978527
 20
23.70384920079416
 10
-383.8563331513707
 20
23.70388239351058
 10
-383.8560371576182
 20
23.70379509244948
 10
-383.8557358614679
 20
23.70356763539323
 10
-383.8554675320764
 20
23.7031971578689
 10
-383.855275806057
 20
23.70272559800406
 10
-383.8551814640525
 20
23.70220553068161
 10
-383.8552053021611
 20
23.70168951146823
 10
-383.8553681089804
 20
23.7012301122932
 10
-383.8556906751542
 20
23.70087988622265
 10
-383.8561937917804
 20
23.70069139973172
  0
HATCH
  5
E21
330
6C
100
AcDbEntity
  8
0
 62
     0
370
     0
100
AcDbHatch
 10
0.0
 20
0.0
 30
0.0
210
0.0
220
0.0
230
1.0
  2
SOLID
 70
     1
 71
     0
 91
        1
 92
        3
 72
     0
 73
     1
 93
        8
 10
-383.8780350746676
 20
23.70359685902029
 10
-383.8781296586676
 20
23.70338062502028
 10
-383.8783377566676
 20
23.70331957502028
 10
-383.8785458486677
 20
23.70342362102029
 10
-383.8786404386677
 20
23.70370269302028
 10
-383.8785458486677
 20
23.70398857502029
 10
-383.8783377566676
 20
23.70408316502029
 10
-383.8781296586676
 20
23.70396105902028
 97
        0
 75
     2
 76
     0
 98
        1
 10
-384.9974797466677
 20
23.02869049502028
  0
HATCH
  5
E22
330
6C
100
AcDbEntity
  8
0
 62
     0
370
     0
100
AcDbHatch
 10
0.0
 20
0.0
 30
0.0
210
0.0
220
0.0
230
1.0
  2
SOLID
 70
     1
 71
     0
 91
        1
 92
        3
 72
     0
 73
     1
 93
        8
 10
-383.8815004766677
 20
23.70316632902029
 10
-383.8815947366676
 20
23.70294771902028
 10
-383.8818021026677
 20
23.70288587102028
 10
-383.8820094686677
 20
23.70299070902029
 10
-383.8821037286677
 20
23.70327216302028
 10
-383.8820094686677
 20
23.70355685102029
 10
-383.8818021026677
 20
23.70365104502029
 10
-383.8815947366676
 20
23.70352933502029
 97
        0
 75
     2
 76
     0
 98
        1
 10
-384.9974797466677
 20
23.02869049502028
  0
HATCH
  5
E23
330
6C
100
AcDbEntity
  8
0
 62
     0
370
     0
100
AcDbHatch
 10
0.0
 20
0.0
 30
0.0
210
0.0
220
0.0
230
1.0
  2
SOLID
 70
     1
 71
     0
 91
        1
 92
        3
 72
     0
 73
     1
 93
        8
 10
-383.8727034411835
 20
23.7022984715195
 10
-383.8727070585341
 20
23.70206360244326
 10
-383.8725430762757
 20
23.7019219596679
 10
-383.8723104547335
 20
23.7019300258181
 10
-383.8721081555926
 20
23.70214432374474
 10
-383.8720758860122
 20
23.70244169211892
 10
-383.8722258564109
 20
23.70261391345404
 10
-383.872465791207
 20
23.70258988045707
 97
        0
 75
     2
 76
     0
 98
        1
 10
-383.1295421737312
 20
22.57402265212038
  0
HATCH
  5
E24
330
6C
100
AcDbEntity
  8
0
 62
     0
370
     0
100
AcDbHatch
 10
0.0
 20
0.0
 30
0.0
210
0.0
220
0.0
230
1.0
  2
SOLID
 70
     1
 71
     0
 91
        1
 92
        3
 72
     0
 73
     1
 93
        8
 10
-383.9053918148522
 20
23.74109855576199
 10
-383.9054867348522
 20
23.74088238776198
 10
-383.9056955588521
 20
23.74082179976198
 10
-383.9059043828521
 20
23.74092710576199
 10
-383.9059993028521
 20
23.74120861976198
 10
-383.9059043828521
 20
23.74149175976198
 10
-383.9056955588521
 20
23.74158618176198
 10
-383.9054867348522
 20
23.74146430976198
 97
        0
 75
     2
 76
     0
 98
        1
 10
-385.0296006848522
 20
23.05980663176198
  0
HATCH
  5
E25
330
6C
100
AcDbEntity
  8
0
 62
     0
370
     0
100
AcDbHatch
 10
0.0
 20
0.0
 30
0.0
210
0.0
220
0.0
230
1.0
  2
SOLID
 70
     1
 71
     0
 91
        1
 92
        3
 72
     0
 73
     1
 93
        8
 10
-383.9121050348522
 20
23.73849822776199
 10
-383.9121992948522
 20
23.73828328976198
 10
-383.9124066608522
 20
23.73822332576198
 10
-383.9126140268522
 20
23.73832886576198
 10
-383.9127082868521
 20
23.73861041576199
 10
-383.9126140268522
 20
23.73889530176198
 10
-383.9124066608522
 20
23.73898929776198
 10
-383.9121992948522
 20
23.73886579976199
 97
        0
 75
     2
 76
     0
 98
        1
 10
-385.0296006848522
 20
23.05980663176198
  0
HATCH
  5
E26
330
6C
100
AcDbEntity
  8
0
 62
     0
370
     0
100
AcDbHatch
 10
0.0
 20
0.0
 30
0.0
210
0.0
220
0.0
230
1.0
  2
SOLID
 70
     1
 71
     0
 91
        1
 92
        3
 72
     0
 73
     1
 93
        8
 10
-383.9002005464124
 20
23.72459904380704
 10
-383.9002954664124
 20
23.72438287580703
 10
-383.9005042904124
 20
23.72432228780703
 10
-383.9007131144124
 20
23.72442759380704
 10
-383.9008080344123
 20
23.72470910780704
 10
-383.9007131144124
 20
23.72499224780703
 10
-383.9005042904124
 20
23.72508666980703
 10
-383.9002954664124
 20
23.72496479780703
 97
        0
 75
     2
 76
     0
 98
        1
 10
-385.0244094164125
 20
23.04330711980703
  0
HATCH
  5
E27
330
6C
100
AcDbEntity
  8
0
 62
     0
370
     0
100
AcDbHatch
 10
0.0
 20
0.0
 30
0.0
210
0.0
220
0.0
230
1.0
  2
SOLID
 70
     1
 71
     0
 91
        1
 92
        3
 72
     0
 73
     1
 93
        8
 10
-383.9069137664124
 20
23.72199871580704
 10
-383.9070080264124
 20
23.72178377780704
 10
-383.9072153924124
 20
23.72172381380703
 10
-383.9074227584124
 20
23.72182935380704
 10
-383.9075170184124
 20
23.72211090380704
 10
-383.9074227584124
 20
23.72239578980703
 10
-383.9072153924124
 20
23.72248978580703
 10
-383.9070080264124
 20
23.72236628780704
 97
        0
 75
     2
 76
     0
 98
        1
 10
-385.0244094164125
 20
23.04330711980703
  0
HATCH
  5
E28
330
6C
100
AcDbEntity
  8
0
 62
     0
370
     0
100
AcDbHatch
 10
0.0
 20
0.0
 30
0.0
210
0.0
220
0.0
230
1.0
  2
SOLID
 70
     1
 71
     0
 91
        1
 92
        3
 72
     0
 73
     1
 93
        8
 10
-383.9066581687395
 20
23.73043825546888
 10
-383.9067530887395
 20
23.73022202746888
 10
-383.9069619127395
 20
23.73016097146889
 10
-383.9071707367395
 20
23.73026502346889
 10
-383.9072656567395
 20
23.73054408946889
 10
-383.9071707367395
 20
23.73082818946889
 10
-383.9069619127395
 20
23.73092297146889
 10
-383.9067530887395
 20
23.73080186146889
 97
        0
 75
     2
 76
     0
 98
        1
 10
-385.0432076287395
 20
23.00487222946889
  0
HATCH
  5
E29
330
6C
100
AcDbEntity
  8
0
 62
     0
370
     0
100
AcDbHatch
 10
0.0
 20
0.0
 30
0.0
210
0.0
220
0.0
230
1.0
  2
SOLID
 70
     1
 71
     0
 91
        1
 92
        3
 72
     0
 73
     1
 93
        8
 10
-383.9069858287395
 20
23.72805510346889
 10
-383.9070800887395
 20
23.72784247546889
 10
-383.9072874547395
 20
23.72778284746889
 10
-383.9074948207395
 20
23.72788632946889
 10
-383.9075890807395
 20
23.72816305546888
 10
-383.9074948207395
 20
23.72844771346888
 10
-383.9072874547395
 20
23.72854167346888
 10
-383.9070800887395
 20
23.72841933346889
 97
        0
 75
     2
 76
     0
 98
        1
 10
-385.0432076287395
 20
23.00487222946889
  0
HATCH
  5
E2A
330
6C
100
AcDbEntity
  8
0
 62
     0
370
     0
100
AcDbHatch
 10
0.0
 20
0.0
 30
0.0
210
0.0
220
0.0
230
1.0
  2
SOLID
 70
     1
 71
     0
 91
        1
 92
        3
 72
     0
 73
     1
 93
        8
 10
-383.9067619933594
 20
23.73479661716286
 10
-383.9068569133594
 20
23.73458038916286
 10
-383.9070657373594
 20
23.73451933316287
 10
-383.9072745613594
 20
23.73462338516287
 10
-383.9073694813594
 20
23.73490245116287
 10
-383.9072745613594
 20
23.73518655116287
 10
-383.9070657373594
 20
23.73528133316287
 10
-383.9068569133594
 20
23.73516022316287
 97
        0
 75
     2
 76
     0
 98
        1
 10
-385.0433114533594
 20
23.00923059116287
  0
HATCH
  5
E2B
330
6C
100
AcDbEntity
  8
0
 62
     0
370
     0
100
AcDbHatch
 10
0.0
 20
0.0
 30
0.0
210
0.0
220
0.0
230
1.0
  2
SOLID
 70
     1
 71
     0
 91
        1
 92
        3
 72
     0
 73
     1
 93
        8
 10
-383.9070896533594
 20
23.73241346516287
 10
-383.9071839133594
 20
23.73220083716287
 10
-383.9073912793594
 20
23.73214120916287
 10
-383.9075986453594
 20
23.73224469116287
 10
-383.9076929053594
 20
23.73252141716287
 10
-383.9075986453594
 20
23.73280607516286
 10
-383.9073912793594
 20
23.73290003516286
 10
-383.9071839133594
 20
23.73277769516287
 97
        0
 75
     2
 76
     0
 98
        1
 10
-385.0433114533594
 20
23.00923059116287
  0
HATCH
  5
E2C
330
6C
100
AcDbEntity
  8
0
 62
     0
370
     0
100
AcDbHatch
 10
0.0
 20
0.0
 30
0.0
210
0.0
220
0.0
230
1.0
  2
SOLID
 70
     1
 71
     0
 91
        1
 92
        3
 72
     0
 73
     1
 93
        8
 10
-383.9022975030197
 20
23.7306313883649
 10
-383.9023924230196
 20
23.7304151603649
 10
-383.9026012470197
 20
23.7303541043649
 10
-383.9028100710196
 20
23.7304581563649
 10
-383.9029049910196
 20
23.7307372223649
 10
-383.9028100710196
 20
23.7310213223649
 10
-383.9026012470197
 20
23.7311161043649
 10
-383.9023924230196
 20
23.7309949943649
 97
        0
 75
     2
 76
     0
 98
        1
 10
-385.0388469630197
 20
23.0050653623649
  0
HATCH
  5
E2D
330
6C
100
AcDbEntity
  8
0
 62
     0
370
     0
100
AcDbHatch
 10
0.0
 20
0.0
 30
0.0
210
0.0
220
0.0
230
1.0
  2
SOLID
 70
     1
 71
     0
 91
        1
 92
        3
 72
     0
 73
     1
 93
        8
 10
-383.9027289876396
 20
23.73739444926694
 10
-383.9028232476396
 20
23.73718182126694
 10
-383.9030306136395
 20
23.73712219326694
 10
-383.9032379796395
 20
23.73722567526694
 10
-383.9033322396396
 20
23.73750240126693
 10
-383.9032379796395
 20
23.73778705926693
 10
-383.9030306136395
 20
23.73788101926693
 10
-383.9028232476396
 20
23.73775867926694
 97
        0
 75
     2
 76
     0
 98
        1
 10
-385.0389507876396
 20
23.01421157526694
  0
HATCH
  5
F21
330
6C
100
AcDbEntity
  8
0
 62
     0
370
     0
100
AcDbHatch
 10
0.0
 20
0.0
 30
0.0
210
0.0
220
0.0
230
1.0
  2
SOLID
 70
     1
 71
     0
 91
        1
 92
        3
 72
     0
 73
     1
 93
        8
 10
-383.8120153618175
 20
23.76156001804788
 10
-383.8120623268175
 20
23.76145191904788
 10
-383.8121656468175
 20
23.76142150804788
 10
-383.8122689668176
 20
23.76147384604788
 10
-383.8123159288175
 20
23.76161399404788
 10
-383.8122689668176
 20
23.76175527904788
 10
-383.8121656468175
 20
23.76180211204788
 10
-383.8120623268175
 20
23.76174138904789
 97
        0
 75
     2
 76
     0
 98
        1
 10
-384.3805053568175
 20
23.39569185604788
  0
HATCH
  5
F22
330
6C
100
AcDbEntity
  8
0
 62
     0
370
     0
100
AcDbHatch
 10
0.0
 20
0.0
 30
0.0
210
0.0
220
0.0
230
1.0
  2
SOLID
 70
     1
 71
     0
 91
        1
 92
        3
 72
     0
 73
     1
 93
        8
 10
-383.8132604779291
 20
23.75738696384143
 10
-383.8133077699291
 20
23.75727888284144
 10
-383.8134118189291
 20
23.75724858884144
 10
-383.813515864929
 20
23.75730123884144
 10
-383.8135631599291
 20
23.75744199884143
 10
-383.813515864929
 20
23.75758416284143
 10
-383.8134118189291
 20
23.75763077984144
 10
-383.8133077699291
 20
23.75756924684143
 97
        0
 75
     2
 76
     0
 98
        1
 10
-384.3836984389291
 20
23.39319806084143
  0
HATCH
  5
F23
330
6C
100
AcDbEntity
  8
0
 62
     0
370
     0
100
AcDbHatch
 10
0.0
 20
0.0
 30
0.0
210
0.0
220
0.0
230
1.0
  2
SOLID
 70
     1
 71
     0
 91
        1
 92
        3
 72
     0
 73
     1
 93
        8
 10
-383.8095388905335
 20
23.75448435654988
 10
-383.8095861855334
 20
23.75437625754988
 10
-383.8096902315335
 20
23.75434584654989
 10
-383.8097942805335
 20
23.75439818454989
 10
-383.8098415725335
 20
23.75453833254989
 10
-383.8097942805335
 20
23.75468021454988
 10
-383.8096902315335
 20
23.75472724254988
 10
-383.8095861855334
 20
23.75466632454988
 97
        0
 75
     2
 76
     0
 98
        1
 10
-384.3882588405335
 20
23.38807517454989
  0
HATCH
  5
F24
330
6C
100
AcDbEntity
  8
0
 62
     0
370
     0
100
AcDbHatch
 10
0.0
 20
0.0
 30
0.0
210
0.0
220
0.0
230
1.0
  2
SOLID
 70
     1
 71
     0
 91
        1
 92
        3
 72
     0
 73
     1
 93
        8
 10
-383.8049296812503
 20
23.76255733404009
 10
-383.8049766462503
 20
23.76244923504009
 10
-383.8050799662503
 20
23.76241882404009
 10
-383.8051832862504
 20
23.76247116204009
 10
-383.8052302482503
 20
23.76261131004009
 10
-383.8051832862504
 20
23.76275259504009
 10
-383.8050799662503
 20
23.76279942804009
 10
-383.8049766462503
 20
23.7627387050401
 97
        0
 75
     2
 76
     0
 98
        1
 10
-384.3734196762503
 20
23.39668917204009
  0
HATCH
  5
F25
330
6C
100
AcDbEntity
  8
0
 62
     0
370
     0
100
AcDbHatch
 10
0.0
 20
0.0
 30
0.0
210
0.0
220
0.0
230
1.0
  2
SOLID
 70
     1
 71
     0
 91
        1
 92
        3
 72
     0
 73
     1
 93
        8
 10
-383.8017220789349
 20
23.75316004159361
 10
-383.8017693709348
 20
23.75305196059361
 10
-383.8018734199348
 20
23.75302166659361
 10
-383.8019774659348
 20
23.75307431659361
 10
-383.8020247609348
 20
23.75321507659361
 10
-383.8019774659348
 20
23.75335724059361
 10
-383.8018734199348
 20
23.75340385759361
 10
-383.8017693709348
 20
23.75334232459361
 97
        0
 75
     2
 76
     0
 98
        1
 10
-384.3721600399348
 20
23.38897113859361
  0
HATCH
  5
F26
330
6C
100
AcDbEntity
  8
0
 62
     0
370
     0
100
AcDbHatch
 10
0.0
 20
0.0
 30
0.0
210
0.0
220
0.0
230
1.0
  2
SOLID
 70
     1
 71
     0
 91
        1
 92
        3
 72
     0
 73
     1
 93
        8
 10
-383.7980004915392
 20
23.75025743430206
 10
-383.7980477865392
 20
23.75014933530206
 10
-383.7981518325392
 20
23.75011892430206
 10
-383.7982558815393
 20
23.75017126230206
 10
-383.7983031735392
 20
23.75031141030206
 10
-383.7982558815393
 20
23.75045329230206
 10
-383.7981518325392
 20
23.75050032030205
 10
-383.7980477865392
 20
23.75043940230205
 97
        0
 75
     2
 76
     0
 98
        1
 10
-384.3767204415393
 20
23.38384825230206
  0
HATCH
  5
F27
330
6C
100
AcDbEntity
  8
0
 62
     0
370
     0
100
AcDbHatch
 10
0.0
 20
0.0
 30
0.0
210
0.0
220
0.0
230
1.0
  2
SOLID
 70
     1
 71
     0
 91
        1
 92
        3
 72
     0
 73
     1
 93
        8
 10
-383.796846139894
 20
23.76165964860192
 10
-383.7968931048939
 20
23.76155154960193
 10
-383.7969964248939
 20
23.76152113860193
 10
-383.797099744894
 20
23.76157347660193
 10
-383.7971467068939
 20
23.76171362460193
 10
-383.797099744894
 20
23.76185490960192
 10
-383.7969964248939
 20
23.76190174260193
 10
-383.7968931048939
 20
23.76184101960193
 97
        0
 75
     2
 76
     0
 98
        1
 10
-384.3653361348939
 20
23.39579148660193
  0
HATCH
  5
F28
330
6C
100
AcDbEntity
  8
0
 62
     0
370
     0
100
AcDbHatch
 10
0.0
 20
0.0
 30
0.0
210
0.0
220
0.0
230
1.0
  2
SOLID
 70
     1
 71
     0
 91
        1
 92
        3
 72
     0
 73
     1
 93
        8
 10
-383.7936385375785
 20
23.75226235615544
 10
-383.7936858295785
 20
23.75215427515545
 10
-383.7937898785785
 20
23.75212398115545
 10
-383.7938939245784
 20
23.75217663115545
 10
-383.7939412195785
 20
23.75231739115545
 10
-383.7938939245784
 20
23.75245955515544
 10
-383.7937898785785
 20
23.75250617215545
 10
-383.7936858295785
 20
23.75244463915545
 97
        0
 75
     2
 76
     0
 98
        1
 10
-384.3640764985785
 20
23.38807345315545
  0
HATCH
  5
F29
330
6C
100
AcDbEntity
  8
0
 62
     0
370
     0
100
AcDbHatch
 10
0.0
 20
0.0
 30
0.0
210
0.0
220
0.0
230
1.0
  2
SOLID
 70
     1
 71
     0
 91
        1
 92
        3
 72
     0
 73
     1
 93
        8
 10
-383.8041143802495
 20
23.75739223493122
 10
-383.8041616752495
 20
23.75728413593122
 10
-383.8042657212495
 20
23.75725372493122
 10
-383.8043697702496
 20
23.75730606293123
 10
-383.8044170622495
 20
23.75744621093122
 10
-383.8043697702496
 20
23.75758809293122
 10
-383.8042657212495
 20
23.75763512093122
 10
-383.8041616752495
 20
23.75757420293121
 97
        0
 75
     2
 76
     0
 98
        1
 10
-384.3828343302495
 20
23.39098305293122
  0
HATCH
  5
F2A
330
6C
100
AcDbEntity
  8
0
 62
     0
370
     0
100
AcDbHatch
 10
0.0
 20
0.0
 30
0.0
210
0.0
220
0.0
230
1.0
  2
SOLID
 70
     1
 71
     0
 91
        1
 92
        3
 72
     0
 73
     1
 93
        8
 10
-383.8101807607223
 20
23.7487195999095
 10
-383.8102277257222
 20
23.7486115009095
 10
-383.8103310457222
 20
23.7485810899095
 10
-383.8104343657223
 20
23.7486334279095
 10
-383.8104813277222
 20
23.7487735759095
 10
-383.8104343657223
 20
23.7489148609095
 10
-383.8103310457222
 20
23.7489616939095
 10
-383.8102277257222
 20
23.74890097090951
 97
        0
 75
     2
 76
     0
 98
        1
 10
-384.3786707557223
 20
23.3828514379095
  0
HATCH
  5
F2B
330
6C
100
AcDbEntity
  8
0
 62
     0
370
     0
100
AcDbHatch
 10
0.0
 20
0.0
 30
0.0
210
0.0
220
0.0
230
1.0
  2
SOLID
 70
     1
 71
     0
 91
        1
 92
        3
 72
     0
 73
     1
 93
        8
 10
-383.8020972193659
 20
23.74782191447133
 10
-383.8021441843659
 20
23.74771381547134
 10
-383.8022475043659
 20
23.74768340447134
 10
-383.8023508243659
 20
23.74773574247134
 10
-383.8023977863659
 20
23.74787589047134
 10
-383.8023508243659
 20
23.74801717547134
 10
-383.8022475043659
 20
23.74806400847134
 10
-383.8021441843659
 20
23.74800328547134
 97
        0
 75
     2
 76
     0
 98
        1
 10
-384.3705872143659
 20
23.38195375247134
  0
HATCH
  5
F2C
330
6C
100
AcDbEntity
  8
0
 62
     0
370
     0
100
AcDbHatch
 10
0.0
 20
0.0
 30
0.0
210
0.0
220
0.0
230
1.0
  2
SOLID
 70
     1
 71
     0
 91
        1
 92
        3
 72
     0
 73
     1
 93
        8
 10
-383.8273649801794
 20
23.74666686896939
 10
-383.8274122751794
 20
23.74655876996939
 10
-383.8275163211794
 20
23.74652835896939
 10
-383.8276203701795
 20
23.74658069696939
 10
-383.8276676621794
 20
23.7467208449694
 10
-383.8276203701795
 20
23.74686272696939
 10
-383.8275163211794
 20
23.74690975496939
 10
-383.8274122751794
 20
23.74684883696938
 97
        0
 75
     2
 76
     0
 98
        1
 10
-384.4060849301794
 20
23.38025768696939
  0
HATCH
  5
F2D
330
6C
100
AcDbEntity
  8
0
 62
     0
370
     0
100
AcDbHatch
 10
0.0
 20
0.0
 30
0.0
210
0.0
220
0.0
230
1.0
  2
SOLID
 70
     1
 71
     0
 91
        1
 92
        3
 72
     0
 73
     1
 93
        8
 10
-383.8230030262187
 20
23.74867179082277
 10
-383.8230503182186
 20
23.74856370982278
 10
-383.8231543672187
 20
23.74853341582278
 10
-383.8232584132186
 20
23.74858606582279
 10
-383.8233057082186
 20
23.74872682582278
 10
-383.8232584132186
 20
23.74886898982278
 10
-383.8231543672187
 20
23.74891560682279
 10
-383.8230503182186
 20
23.74885407382278
 97
        0
 75
     2
 76
     0
 98
        1
 10
-384.3934409872186
 20
23.38448288782278
  0
HATCH
  5
F2E
330
6C
100
AcDbEntity
  8
0
 62
     0
370
     0
100
AcDbHatch
 10
0.0
 20
0.0
 30
0.0
210
0.0
220
0.0
230
1.0
  2
SOLID
 70
     1
 71
     0
 91
        1
 92
        3
 72
     0
 73
     1
 93
        8
 10
-383.8395452493625
 20
23.74512903457683
 10
-383.8395922143624
 20
23.74502093557683
 10
-383.8396955343624
 20
23.74499052457683
 10
-383.8397988543625
 20
23.74504286257683
 10
-383.8398458163624
 20
23.74518301057683
 10
-383.8397988543625
 20
23.74532429557683
 10
-383.8396955343624
 20
23.74537112857683
 10
-383.8395922143624
 20
23.74531040557684
 97
        0
 75
     2
 76
     0
 98
        1
 10
-384.4080352443624
 20
23.37926087257683
  0
HATCH
  5
F2F
330
6C
100
AcDbEntity
  8
0
 62
     0
370
     0
100
AcDbHatch
 10
0.0
 20
0.0
 30
0.0
210
0.0
220
0.0
230
1.0
  2
SOLID
 70
     1
 71
     0
 91
        1
 92
        3
 72
     0
 73
     1
 93
        8
 10
-383.8314617080061
 20
23.74423134913866
 10
-383.8315086730061
 20
23.74412325013867
 10
-383.831611993006
 20
23.74409283913867
 10
-383.8317153130061
 20
23.74414517713867
 10
-383.831762275006
 20
23.74428532513867
 10
-383.8317153130061
 20
23.74442661013867
 10
-383.831611993006
 20
23.74447344313867
 10
-383.8315086730061
 20
23.74441272013868
 97
        0
 75
     2
 76
     0
 98
        1
 10
-384.3999517030061
 20
23.37836318713867
  0
HATCH
  5
F30
330
6C
100
AcDbEntity
  8
0
 62
     0
370
     0
100
AcDbHatch
 10
0.0
 20
0.0
 30
0.0
210
0.0
220
0.0
230
1.0
  2
SOLID
 70
     1
 71
     0
 91
        1
 92
        3
 72
     0
 73
     1
 93
        8
 10
-383.8272910825645
 20
23.73973925600573
 10
-383.8273383775645
 20
23.73963115700573
 10
-383.8274424235645
 20
23.73960074600573
 10
-383.8275464725645
 20
23.73965308400574
 10
-383.8275937645645
 20
23.73979323200574
 10
-383.8275464725645
 20
23.73993511400573
 10
-383.8274424235645
 20
23.73998214200573
 10
-383.8273383775645
 20
23.73992122400572
 97
        0
 75
     2
 76
     0
 98
        1
 10
-384.4060110325645
 20
23.37333007400573
  0
HATCH
  5
F31
330
6C
100
AcDbEntity
  8
0
 62
     0
370
     0
100
AcDbHatch
 10
0.0
 20
0.0
 30
0.0
210
0.0
220
0.0
230
1.0
  2
SOLID
 70
     1
 71
     0
 91
        1
 92
        3
 72
     0
 73
     1
 93
        8
 10
-383.8229291286037
 20
23.74174417785912
 10
-383.8229764206037
 20
23.74163609685912
 10
-383.8230804696037
 20
23.74160580285912
 10
-383.8231845156037
 20
23.74165845285912
 10
-383.8232318106037
 20
23.74179921285912
 10
-383.8231845156037
 20
23.74194137685911
 10
-383.8230804696037
 20
23.74198799385912
 10
-383.8229764206037
 20
23.74192646085912
 97
        0
 75
     2
 76
     0
 98
        1
 10
-384.3933670896037
 20
23.37755527485912
  0
HATCH
  5
F32
330
6C
100
AcDbEntity
  8
0
 62
     0
370
     0
100
AcDbHatch
 10
0.0
 20
0.0
 30
0.0
210
0.0
220
0.0
230
1.0
  2
SOLID
 70
     1
 71
     0
 91
        1
 92
        3
 72
     0
 73
     1
 93
        8
 10
-383.8394713517475
 20
23.73820142161317
 10
-383.8395183167475
 20
23.73809332261317
 10
-383.8396216367475
 20
23.73806291161317
 10
-383.8397249567476
 20
23.73811524961317
 10
-383.8397719187475
 20
23.73825539761317
 10
-383.8397249567476
 20
23.73839668261317
 10
-383.8396216367475
 20
23.73844351561317
 10
-383.8395183167475
 20
23.73838279261318
 97
        0
 75
     2
 76
     0
 98
        1
 10
-384.4079613467475
 20
23.37233325961317
  0
HATCH
  5
F33
330
6C
100
AcDbEntity
  8
0
 62
     0
370
     0
100
AcDbHatch
 10
0.0
 20
0.0
 30
0.0
210
0.0
220
0.0
230
1.0
  2
SOLID
 70
     1
 71
     0
 91
        1
 92
        3
 72
     0
 73
     1
 93
        8
 10
-383.8313878103912
 20
23.73730373617501
 10
-383.8314347753911
 20
23.73719563717501
 10
-383.8315380953911
 20
23.73716522617501
 10
-383.8316414153912
 20
23.73721756417501
 10
-383.8316883773911
 20
23.73735771217501
 10
-383.8316414153912
 20
23.73749899717501
 10
-383.8315380953911
 20
23.737545830175
 10
-383.8314347753911
 20
23.73748510717502
 97
        0
 75
     2
 76
     0
 98
        1
 10
-384.3998778053911
 20
23.37143557417501
  0
HATCH
  5
F34
330
6C
100
AcDbEntity
  8
0
 62
     0
370
     0
100
AcDbHatch
 10
0.0
 20
0.0
 30
0.0
210
0.0
220
0.0
230
1.0
  2
SOLID
 70
     1
 71
     0
 91
        1
 92
        3
 72
     0
 73
     1
 93
        8
 10
-383.8035449048613
 20
23.74312977389337
 10
-383.8035921998613
 20
23.74302167489337
 10
-383.8036962458613
 20
23.74299126389337
 10
-383.8038002948613
 20
23.74304360189338
 10
-383.8038475868613
 20
23.74318374989337
 10
-383.8038002948613
 20
23.74332563189337
 10
-383.8036962458613
 20
23.74337265989337
 10
-383.8035921998613
 20
23.74331174189336
 97
        0
 75
     2
 76
     0
 98
        1
 10
-384.3822648548613
 20
23.37672059189337
  0
HATCH
  5
F35
330
6C
100
AcDbEntity
  8
0
 62
     0
370
     0
100
AcDbHatch
 10
0.0
 20
0.0
 30
0.0
210
0.0
220
0.0
230
1.0
  2
SOLID
 70
     1
 71
     0
 91
        1
 92
        3
 72
     0
 73
     1
 93
        8
 10
-383.7991829509006
 20
23.74513469574676
 10
-383.7992302429005
 20
23.74502661474676
 10
-383.7993342919006
 20
23.74499632074677
 10
-383.7994383379005
 20
23.74504897074677
 10
-383.7994856329006
 20
23.74518973074676
 10
-383.7994383379005
 20
23.74533189474675
 10
-383.7993342919006
 20
23.74537851174677
 10
-383.7992302429005
 20
23.74531697874676
 97
        0
 75
     2
 76
     0
 98
        1
 10
-384.3696209119006
 20
23.38094579274676
  0
HATCH
  5
F36
330
6C
100
AcDbEntity
  8
0
 62
     0
370
     0
100
AcDbHatch
 10
0.0
 20
0.0
 30
0.0
210
0.0
220
0.0
230
1.0
  2
SOLID
 70
     1
 71
     0
 91
        1
 92
        3
 72
     0
 73
     1
 93
        8
 10
-383.8157251740444
 20
23.74159193950081
 10
-383.8157721390443
 20
23.74148384050081
 10
-383.8158754590443
 20
23.74145342950081
 10
-383.8159787790443
 20
23.74150576750081
 10
-383.8160257410443
 20
23.74164591550081
 10
-383.8159787790443
 20
23.74178720050081
 10
-383.8158754590443
 20
23.74183403350081
 10
-383.8157721390443
 20
23.74177331050082
 97
        0
 75
     2
 76
     0
 98
        1
 10
-384.3842151690444
 20
23.37572377750081
  0
HATCH
  5
F37
330
6C
100
AcDbEntity
  8
0
 62
     0
370
     0
100
AcDbHatch
 10
0.0
 20
0.0
 30
0.0
210
0.0
220
0.0
230
1.0
  2
SOLID
 70
     1
 71
     0
 91
        1
 92
        3
 72
     0
 73
     1
 93
        8
 10
-383.807641632688
 20
23.74069425406265
 10
-383.8076885976879
 20
23.74058615506265
 10
-383.807791917688
 20
23.74055574406265
 10
-383.807895237688
 20
23.74060808206265
 10
-383.807942199688
 20
23.74074823006265
 10
-383.807895237688
 20
23.74088951506265
 10
-383.807791917688
 20
23.74093634806265
 10
-383.8076885976879
 20
23.74087562506266
 97
        0
 75
     2
 76
     0
 98
        1
 10
-384.376131627688
 20
23.37482609206265
  0
HATCH
  5
F38
330
6C
100
AcDbEntity
  8
0
 62
     0
370
     0
100
AcDbHatch
 10
0.0
 20
0.0
 30
0.0
210
0.0
220
0.0
230
1.0
  2
SOLID
 70
     1
 71
     0
 91
        1
 92
        3
 72
     0
 73
     1
 93
        8
 10
-383.7899725647298
 20
23.74853709703714
 10
-383.7900195297298
 20
23.74842899803714
 10
-383.7901228497298
 20
23.74839858703714
 10
-383.7902261697299
 20
23.74845092503714
 10
-383.7902731317298
 20
23.74859107303714
 10
-383.7902261697299
 20
23.74873235803714
 10
-383.7901228497298
 20
23.74877919103714
 10
-383.7900195297298
 20
23.74871846803715
 97
        0
 75
     2
 76
     0
 98
        1
 10
-384.3584625597299
 20
23.38266893503714
  0
HATCH
  5
F39
330
6C
100
AcDbEntity
  8
0
 62
     0
370
     0
100
AcDbHatch
 10
0.0
 20
0.0
 30
0.0
210
0.0
220
0.0
230
1.0
  2
SOLID
 70
     1
 71
     0
 91
        1
 92
        3
 72
     0
 73
     1
 93
        8
 10
-383.7870582962645
 20
23.74584987831256
 10
-383.7871055882644
 20
23.74574179731256
 10
-383.7872096372645
 20
23.74571150331257
 10
-383.7873136832644
 20
23.74576415331257
 10
-383.7873609782645
 20
23.74590491331256
 10
-383.7873136832644
 20
23.74604707731256
 10
-383.7872096372645
 20
23.74609369431257
 10
-383.7871055882644
 20
23.74603216131256
 97
        0
 75
     2
 76
     0
 98
        1
 10
-384.3574962572645
 20
23.38166097531256
  0
HATCH
  5
F3A
330
6C
100
AcDbEntity
  8
0
 62
     0
370
     0
100
AcDbHatch
 10
0.0
 20
0.0
 30
0.0
210
0.0
220
0.0
230
1.0
  2
SOLID
 70
     1
 71
     0
 91
        1
 92
        3
 72
     0
 73
     1
 93
        8
 10
-383.9020060621594
 20
23.75426892929688
 10
-383.9020533571593
 20
23.75416083029688
 10
-383.9021574031594
 20
23.75413041929688
 10
-383.9022614521594
 20
23.75418275729689
 10
-383.9023087441594
 20
23.75432290529689
 10
-383.9022614521594
 20
23.75446478729688
 10
-383.9021574031594
 20
23.75451181529688
 10
-383.9020533571593
 20
23.75445089729687
 97
        0
 75
     2
 76
     0
 98
        1
 10
-384.4807260121594
 20
23.38785974729688
  0
HATCH
  5
F3B
330
6C
100
AcDbEntity
  8
0
 62
     0
370
     0
100
AcDbHatch
 10
0.0
 20
0.0
 30
0.0
210
0.0
220
0.0
230
1.0
  2
SOLID
 70
     1
 71
     0
 91
        1
 92
        3
 72
     0
 73
     1
 93
        8
 10
-383.8941892505608
 20
23.7529446143406
 10
-383.8942365425607
 20
23.75283653334061
 10
-383.8943405915608
 20
23.75280623934061
 10
-383.8944446375607
 20
23.75285888934061
 10
-383.8944919325608
 20
23.75299964934061
 10
-383.8944446375607
 20
23.7531418133406
 10
-383.8943405915608
 20
23.75318843034061
 10
-383.8942365425607
 20
23.75312689734061
 97
        0
 75
     2
 76
     0
 98
        1
 10
-384.4646272115608
 20
23.3887557113406
  0
HATCH
  5
F3C
330
6C
100
AcDbEntity
  8
0
 62
     0
370
     0
100
AcDbHatch
 10
0.0
 20
0.0
 30
0.0
210
0.0
220
0.0
230
1.0
  2
SOLID
 70
     1
 71
     0
 91
        1
 92
        3
 72
     0
 73
     1
 93
        8
 10
-383.8904676631652
 20
23.75004200704906
 10
-383.8905149581651
 20
23.74993390804906
 10
-383.8906190041651
 20
23.74990349704906
 10
-383.8907230531652
 20
23.74995583504906
 10
-383.8907703451651
 20
23.75009598304906
 10
-383.8907230531652
 20
23.75023786504906
 10
-383.8906190041651
 20
23.75028489304905
 10
-383.8905149581651
 20
23.75022397504905
 97
        0
 75
     2
 76
     0
 98
        1
 10
-384.4691876131652
 20
23.38363282504906
  0
HATCH
  5
F3D
330
6C
100
AcDbEntity
  8
0
 62
     0
370
     0
100
AcDbHatch
 10
0.0
 20
0.0
 30
0.0
210
0.0
220
0.0
230
1.0
  2
SOLID
 70
     1
 71
     0
 91
        1
 92
        3
 72
     0
 73
     1
 93
        8
 10
-383.8965815518755
 20
23.75717680767822
 10
-383.8966288468754
 20
23.75706870867821
 10
-383.8967328928754
 20
23.75703829767822
 10
-383.8968369418754
 20
23.75709063567822
 10
-383.8968842338754
 20
23.75723078367822
 10
-383.8968369418754
 20
23.75737266567822
 10
-383.8967328928754
 20
23.75741969367821
 10
-383.8966288468754
 20
23.75735877567821
 97
        0
 75
     2
 76
     0
 98
        1
 10
-384.4753015018754
 20
23.39076762567822
  0
HATCH
  5
F3E
330
6C
100
AcDbEntity
  8
0
 62
     0
370
     0
100
AcDbHatch
 10
0.0
 20
0.0
 30
0.0
210
0.0
220
0.0
230
1.0
  2
SOLID
 70
     1
 71
     0
 91
        1
 92
        3
 72
     0
 73
     1
 93
        8
 10
-383.8945643909918
 20
23.74760648721833
 10
-383.8946113559918
 20
23.74749838821834
 10
-383.8947146759918
 20
23.74746797721833
 10
-383.8948179959918
 20
23.74752031521834
 10
-383.8948649579918
 20
23.74766046321834
 10
-383.8948179959918
 20
23.74780174821833
 10
-383.8947146759918
 20
23.74784858121833
 10
-383.8946113559918
 20
23.74778785821834
 97
        0
 75
     2
 76
     0
 98
        1
 10
-384.4630543859918
 20
23.38173832521833
  0
HATCH
  5
F3F
330
6C
100
AcDbEntity
  8
0
 62
     0
370
     0
100
AcDbHatch
 10
0.0
 20
0.0
 30
0.0
210
0.0
220
0.0
230
1.0
  2
SOLID
 70
     1
 71
     0
 91
        1
 92
        3
 72
     0
 73
     1
 93
        8
 10
-383.8960120764872
 20
23.74291434664037
 10
-383.8960593714872
 20
23.74280624764037
 10
-383.8961634174872
 20
23.74277583664037
 10
-383.8962674664872
 20
23.74282817464037
 10
-383.8963147584872
 20
23.74296832264037
 10
-383.8962674664872
 20
23.74311020464037
 10
-383.8961634174872
 20
23.74315723264036
 10
-383.8960593714872
 20
23.74309631464036
 97
        0
 75
     2
 76
     0
 98
        1
 10
-384.4747320264872
 20
23.37650516464037
  0
HATCH
  5
F40
330
6C
100
AcDbEntity
  8
0
 62
     0
370
     0
100
AcDbHatch
 10
0.0
 20
0.0
 30
0.0
210
0.0
220
0.0
230
1.0
  2
SOLID
 70
     1
 71
     0
 91
        1
 92
        3
 72
     0
 73
     1
 93
        8
 10
-383.8916501225265
 20
23.74491926849375
 10
-383.8916974145265
 20
23.74481118749376
 10
-383.8918014635265
 20
23.74478089349376
 10
-383.8919055095264
 20
23.74483354349376
 10
-383.8919528045265
 20
23.74497430349375
 10
-383.8919055095264
 20
23.74511646749375
 10
-383.8918014635265
 20
23.74516308449376
 10
-383.8916974145265
 20
23.74510155149375
 97
        0
 75
     2
 76
     0
 98
        1
 10
-384.4620880835265
 20
23.38073036549376
  0
HATCH
  5
F41
330
6C
100
AcDbEntity
  8
0
 62
     0
370
     0
100
AcDbHatch
 10
0.0
 20
0.0
 30
0.0
210
0.0
220
0.0
230
1.0
  2
SOLID
 70
     1
 71
     0
 91
        1
 92
        3
 72
     0
 73
     1
 93
        8
 10
-383.8871337208147
 20
23.75243779764635
 10
-383.8871810158146
 20
23.75232969864635
 10
-383.8872850618147
 20
23.75229928764635
 10
-383.8873891108147
 20
23.75235162564635
 10
-383.8874364028147
 20
23.75249177364635
 10
-383.8873891108147
 20
23.75263365564634
 10
-383.8872850618147
 20
23.75268068364634
 10
-383.8871810158146
 20
23.75261976564634
 97
        0
 75
     2
 76
     0
 98
        1
 10
-384.4658536708147
 20
23.38602861564635
  0
HATCH
  5
F42
330
6C
100
AcDbEntity
  8
0
 62
     0
370
     0
100
AcDbHatch
 10
0.0
 20
0.0
 30
0.0
210
0.0
220
0.0
230
1.0
  2
SOLID
 70
     1
 71
     0
 91
        1
 92
        3
 72
     0
 73
     1
 93
        8
 10
-383.8793169092161
 20
23.75111348269007
 10
-383.8793642012161
 20
23.75100540169007
 10
-383.8794682502161
 20
23.75097510769008
 10
-383.879572296216
 20
23.75102775769008
 10
-383.8796195912161
 20
23.75116851769007
 10
-383.879572296216
 20
23.75131068169007
 10
-383.8794682502161
 20
23.75135729869008
 10
-383.8793642012161
 20
23.75129576569007
 97
        0
 75
     2
 76
     0
 98
        1
 10
-384.4497548702161
 20
23.38692457969007
  0
HATCH
  5
F43
330
6C
100
AcDbEntity
  8
0
 62
     0
370
     0
100
AcDbHatch
 10
0.0
 20
0.0
 30
0.0
210
0.0
220
0.0
230
1.0
  2
SOLID
 70
     1
 71
     0
 91
        1
 92
        3
 72
     0
 73
     1
 93
        8
 10
-383.8755953218205
 20
23.74821087539852
 10
-383.8756426168204
 20
23.74810277639852
 10
-383.8757466628205
 20
23.74807236539853
 10
-383.8758507118205
 20
23.74812470339853
 10
-383.8758980038205
 20
23.74826485139853
 10
-383.8758507118205
 20
23.74840673339852
 10
-383.8757466628205
 20
23.74845376139852
 10
-383.8756426168204
 20
23.74839284339852
 97
        0
 75
     2
 76
     0
 98
        1
 10
-384.4543152718205
 20
23.38180169339853
  0
HATCH
  5
F44
330
6C
100
AcDbEntity
  8
0
 62
     0
370
     0
100
AcDbHatch
 10
0.0
 20
0.0
 30
0.0
210
0.0
220
0.0
230
1.0
  2
SOLID
 70
     1
 71
     0
 91
        1
 92
        3
 72
     0
 73
     1
 93
        8
 10
-383.8817092105307
 20
23.75534567602768
 10
-383.8817565055307
 20
23.75523757702768
 10
-383.8818605515307
 20
23.75520716602768
 10
-383.8819646005307
 20
23.75525950402769
 10
-383.8820118925307
 20
23.75539965202769
 10
-383.8819646005307
 20
23.75554153402768
 10
-383.8818605515307
 20
23.75558856202768
 10
-383.8817565055307
 20
23.75552764402768
 97
        0
 75
     2
 76
     0
 98
        1
 10
-384.4604291605307
 20
23.38893649402769
  0
HATCH
  5
F45
330
6C
100
AcDbEntity
  8
0
 62
     0
370
     0
100
AcDbHatch
 10
0.0
 20
0.0
 30
0.0
210
0.0
220
0.0
230
1.0
  2
SOLID
 70
     1
 71
     0
 91
        1
 92
        3
 72
     0
 73
     1
 93
        8
 10
-383.8796920496471
 20
23.7457753555678
 10
-383.8797390146471
 20
23.7456672565678
 10
-383.8798423346471
 20
23.7456368455678
 10
-383.8799456546471
 20
23.7456891835678
 10
-383.8799926166471
 20
23.7458293315678
 10
-383.8799456546471
 20
23.7459706165678
 10
-383.8798423346471
 20
23.7460174495678
 10
-383.8797390146471
 20
23.74595672656781
 97
        0
 75
     2
 76
     0
 98
        1
 10
-384.4481820446471
 20
23.3799071935678
  0
HATCH
  5
F46
330
6C
100
AcDbEntity
  8
0
 62
     0
370
     0
100
AcDbHatch
 10
0.0
 20
0.0
 30
0.0
210
0.0
220
0.0
230
1.0
  2
SOLID
 70
     1
 71
     0
 91
        1
 92
        3
 72
     0
 73
     1
 93
        8
 10
-383.8811397351425
 20
23.74108321498983
 10
-383.8811870301425
 20
23.74097511598983
 10
-383.8812910761425
 20
23.74094470498984
 10
-383.8813951251426
 20
23.74099704298984
 10
-383.8814424171425
 20
23.74113719098984
 10
-383.8813951251426
 20
23.74127907298984
 10
-383.8812910761425
 20
23.74132610098983
 10
-383.8811870301425
 20
23.74126518298983
 97
        0
 75
     2
 76
     0
 98
        1
 10
-384.4598596851426
 20
23.37467403298984
  0
HATCH
  5
F47
330
6C
100
AcDbEntity
  8
0
 62
     0
370
     0
100
AcDbHatch
 10
0.0
 20
0.0
 30
0.0
210
0.0
220
0.0
230
1.0
  2
SOLID
 70
     1
 71
     0
 91
        1
 92
        3
 72
     0
 73
     1
 93
        8
 10
-383.8767777811818
 20
23.74308813684322
 10
-383.8768250731817
 20
23.74298005584323
 10
-383.8769291221818
 20
23.74294976184323
 10
-383.8770331681817
 20
23.74300241184323
 10
-383.8770804631817
 20
23.74314317184322
 10
-383.8770331681817
 20
23.74328533584322
 10
-383.8769291221818
 20
23.74333195284323
 10
-383.8768250731817
 20
23.74327041984322
 97
        0
 75
     2
 76
     0
 98
        1
 10
-384.4472157421817
 20
23.37889923384322
  0
HATCH
  5
F48
330
6C
100
AcDbEntity
  8
0
 62
     0
370
     0
100
AcDbHatch
 10
0.0
 20
0.0
 30
0.0
210
0.0
220
0.0
230
1.0
  2
SOLID
 70
     1
 71
     0
 91
        1
 92
        3
 72
     0
 73
     1
 93
        8
 10
-383.867842784177
 20
23.74565183847197
 10
-383.8678900791769
 20
23.74554373947197
 10
-383.8679941251769
 20
23.74551332847197
 10
-383.868098174177
 20
23.74556566647197
 10
-383.8681454661769
 20
23.74570581447197
 10
-383.868098174177
 20
23.74584769647197
 10
-383.8679941251769
 20
23.74589472447196
 10
-383.8678900791769
 20
23.74583380647196
 97
        0
 75
     2
 76
     0
 98
        1
 10
-384.446562734177
 20
23.37924265647197
  0
HATCH
  5
F49
330
6C
100
AcDbEntity
  8
0
 62
     0
370
     0
100
AcDbHatch
 10
0.0
 20
0.0
 30
0.0
210
0.0
220
0.0
230
1.0
  2
SOLID
 70
     1
 71
     0
 91
        1
 92
        3
 72
     0
 73
     1
 93
        8
 10
-383.8600259725783
 20
23.74432752351569
 10
-383.8600732645783
 20
23.7442194425157
 10
-383.8601773135783
 20
23.7441891485157
 10
-383.8602813595782
 20
23.7442417985157
 10
-383.8603286545783
 20
23.74438255851569
 10
-383.8602813595782
 20
23.74452472251569
 10
-383.8601773135783
 20
23.7445713395157
 10
-383.8600732645783
 20
23.74450980651569
 97
        0
 75
     2
 76
     0
 98
        1
 10
-384.4304639335783
 20
23.38013862051569
  0
HATCH
  5
F4A
330
6C
100
AcDbEntity
  8
0
 62
     0
370
     0
100
AcDbHatch
 10
0.0
 20
0.0
 30
0.0
210
0.0
220
0.0
230
1.0
  2
SOLID
 70
     1
 71
     0
 91
        1
 92
        3
 72
     0
 73
     1
 93
        8
 10
-383.8563043851828
 20
23.74142491622414
 10
-383.8563516801827
 20
23.74131681722414
 10
-383.8564557261827
 20
23.74128640622414
 10
-383.8565597751827
 20
23.74133874422415
 10
-383.8566070671827
 20
23.74147889222415
 10
-383.8565597751827
 20
23.74162077422414
 10
-383.8564557261827
 20
23.74166780222414
 10
-383.8563516801827
 20
23.74160688422414
 97
        0
 75
     2
 76
     0
 98
        1
 10
-384.4350243351827
 20
23.37501573422414
  0
HATCH
  5
F4B
330
6C
100
AcDbEntity
  8
0
 62
     0
370
     0
100
AcDbHatch
 10
0.0
 20
0.0
 30
0.0
210
0.0
220
0.0
230
1.0
  2
SOLID
 70
     1
 71
     0
 91
        1
 92
        3
 72
     0
 73
     1
 93
        8
 10
-383.862418273893
 20
23.74855971685331
 10
-383.862465568893
 20
23.7484516178533
 10
-383.862569614893
 20
23.74842120685331
 10
-383.862673663893
 20
23.74847354485331
 10
-383.862720955893
 20
23.74861369285331
 10
-383.862673663893
 20
23.7487555748533
 10
-383.862569614893
 20
23.7488026028533
 10
-383.862465568893
 20
23.7487416848533
 97
        0
 75
     2
 76
     0
 98
        1
 10
-384.441138223893
 20
23.38215053485331
  0
HATCH
  5
F4C
330
6C
100
AcDbEntity
  8
0
 62
     0
370
     0
100
AcDbHatch
 10
0.0
 20
0.0
 30
0.0
210
0.0
220
0.0
230
1.0
  2
SOLID
 70
     1
 71
     0
 91
        1
 92
        3
 72
     0
 73
     1
 93
        8
 10
-383.8604011130094
 20
23.73898939639342
 10
-383.8604480780094
 20
23.73888129739342
 10
-383.8605513980094
 20
23.73885088639342
 10
-383.8606547180094
 20
23.73890322439342
 10
-383.8607016800093
 20
23.73904337239342
 10
-383.8606547180094
 20
23.73918465739342
 10
-383.8605513980094
 20
23.73923149039342
 10
-383.8604480780094
 20
23.73917076739343
 97
        0
 75
     2
 76
     0
 98
        1
 10
-384.4288911080094
 20
23.37312123439342
  0
HATCH
  5
F4D
330
6C
100
AcDbEntity
  8
0
 62
     0
370
     0
100
AcDbHatch
 10
0.0
 20
0.0
 30
0.0
210
0.0
220
0.0
230
1.0
  2
SOLID
 70
     1
 71
     0
 91
        1
 92
        3
 72
     0
 73
     1
 93
        8
 10
-383.8618487985048
 20
23.73429725581546
 10
-383.8618960935047
 20
23.73418915681545
 10
-383.8620001395048
 20
23.73415874581546
 10
-383.8621041885048
 20
23.73421108381546
 10
-383.8621514805048
 20
23.73435123181546
 10
-383.8621041885048
 20
23.73449311381545
 10
-383.8620001395048
 20
23.73454014181545
 10
-383.8618960935047
 20
23.73447922381545
 97
        0
 75
     2
 76
     0
 98
        1
 10
-384.4405687485048
 20
23.36788807381546
  0
HATCH
  5
F4E
330
6C
100
AcDbEntity
  8
0
 62
     0
370
     0
100
AcDbHatch
 10
0.0
 20
0.0
 30
0.0
210
0.0
220
0.0
230
1.0
  2
SOLID
 70
     1
 71
     0
 91
        1
 92
        3
 72
     0
 73
     1
 93
        8
 10
-383.857486844544
 20
23.73630217766884
 10
-383.857534136544
 20
23.73619409666885
 10
-383.857638185544
 20
23.73616380266885
 10
-383.857742231544
 20
23.73621645266885
 10
-383.857789526544
 20
23.73635721266884
 10
-383.857742231544
 20
23.73649937666884
 10
-383.857638185544
 20
23.73654599366885
 10
-383.857534136544
 20
23.73648446066884
 97
        0
 75
     2
 76
     0
 98
        1
 10
-384.427924805544
 20
23.37211327466884
  0
LWPOLYLINE
  5
FA0
330
6C
100
AcDbEntity
  8
A-ANNO-TEXT
 62
     7
100
AcDbPolyline
 90
        4
 70
     1
 43
0.0
 10
-383.9472837347038
 20
23.82894206926225
 10
-383.8920726766616
 20
23.82894206926225
 10
-383.8920726766616
 20
23.79874470084116
 10
-383.9472837347038
 20
23.79874470084116
1001
REVIT
1002
{
1070
     1
1000
332279
1002
}
1002
{
1070
     5
1000
332286
1002
}
1002
{
1070
     2
1000
-2000300
1002
}
  0
MTEXT
  5
FA1
330
6C
100
AcDbEntity
  8
A-ANNO-TEXT
 62
     7
100
AcDbMText
 10
-383.9191701183645
 20
23.82400498895863
 30
0.0
 40
0.0174664911248931
 41
0.0361434262948207
 71
     2
 72
     1
  1
{\fArial|b1|i0|c163|p34;D\fArial|b1|i0|c0|p34;90}
 73
     2
 44
0.9385317878468564
1001
REVIT
1002
{
1070
     1
1000
332279
1002
}
1002
{
1070
     5
1000
332286
1002
}
1002
{
1070
     2
1000
-2000300
1002
}
1001
ACAD
1000
MTEXTBEGIN
1070
    73
1070
     2
1070
    44
1040
0.9385317878468564
1070
    74
1070
     0
1000
MTEXTEND
  0
MTEXT
  5
FA2
102
{ACAD_XDICTIONARY
360
11DA
102
}
330
6C
100
AcDbEntity
  8
A-ANNO-TEXT
 62
     7
100
AcDbMText
 10
-383.8491597562594
 20
23.68771154154977
 30
0.0
 40
0.0096
 41
0.0554918217720072
 71
     2
 72
     1
  1
\A1;{\fArial|b1|i0|c0|p34;CPS4}
 73
     2
 44
0.9385317878468564
1001
REVIT
1002
{
1070
     1
1000
332280
1002
}
1002
{
1070
     5
1000
332282
1002
}
1002
{
1070
     2
1000
-2000300
1002
}
1001
ACAD
1000
MTEXTBEGIN
1070
    73
1070
     2
1070
    44
1040
0.9385317878468564
1070
    74
1070
     0
1000
MTEXTEND
1000
ACAD_MTEXT_DEFINED_HEIGHT_BEGIN
1070
    46
1040
0.0192341792526989
1000
ACAD_MTEXT_DEFINED_HEIGHT_END
  0
HATCH
  5
1182
330
6C
100
AcDbEntity
  8
0
 62
     0
370
     0
100
AcDbHatch
 10
0.0
 20
0.0
 30
0.0
210
0.0
220
0.0
230
1.0
  2
SOLID
 70
     1
 71
     0
 91
        1
 92
        3
 72
     0
 73
     1
 93
        8
 10
-383.894409204379
 20
23.70540601887799
 10
-383.8945037883791
 20
23.70518978487798
 10
-383.894711886379
 20
23.70512873487799
 10
-383.8949199783791
 20
23.70523278087799
 10
-383.895014568379
 20
23.70551185287799
 10
-383.8949199783791
 20
23.70579773487799
 10
-383.894711886379
 20
23.70589232487799
 10
-383.8945037883791
 20
23.70577021887799
 97
        0
 75
     2
 76
     0
 98
        1
 10
-385.0138538763791
 20
23.03049965487798
  0
HATCH
  5
1183
330
6C
100
AcDbEntity
  8
0
 62
     0
370
     0
100
AcDbHatch
 10
0.0
 20
0.0
 30
0.0
210
0.0
220
0.0
230
1.0
  2
SOLID
 70
     1
 71
     0
 91
        1
 92
        3
 72
     0
 73
     1
 93
        8
 10
-383.8978746063791
 20
23.70497548887799
 10
-383.897968866379
 20
23.70475687887799
 10
-383.8981762323791
 20
23.70469503087798
 10
-383.898383598379
 20
23.70479986887799
 10
-383.8984778583791
 20
23.70508132287798
 10
-383.898383598379
 20
23.70536601087799
 10
-383.8981762323791
 20
23.70546020487799
 10
-383.897968866379
 20
23.70533849487799
 97
        0
 75
     2
 76
     0
 98
        1
 10
-385.0138538763791
 20
23.03049965487798
  0
HATCH
  5
1184
330
6C
100
AcDbEntity
  8
0
 62
     0
370
     0
100
AcDbHatch
 10
0.0
 20
0.0
 30
0.0
210
0.0
220
0.0
230
1.0
  2
SOLID
 70
     1
 71
     0
 91
        1
 92
        3
 72
     0
 73
     1
 93
        8
 10
-383.8886849066601
 20
23.70276925853957
 10
-383.8887794906601
 20
23.70255302453957
 10
-383.8889875886601
 20
23.70249197453957
 10
-383.8891956806601
 20
23.70259602053957
 10
-383.8892902706601
 20
23.70287509253957
 10
-383.8891956806601
 20
23.70316097453957
 10
-383.8889875886601
 20
23.70325556453957
 10
-383.8887794906601
 20
23.70313345853956
 97
        0
 75
     2
 76
     0
 98
        1
 10
-385.0081295786602
 20
23.02786289453957
  0
HATCH
  5
1185
330
6C
100
AcDbEntity
  8
0
 62
     0
370
     0
100
AcDbHatch
 10
0.0
 20
0.0
 30
0.0
210
0.0
220
0.0
230
1.0
  2
SOLID
 70
     1
 71
     0
 91
        1
 92
        3
 72
     0
 73
     1
 93
        8
 10
-383.8921503086601
 20
23.70233872853957
 10
-383.8922445686601
 20
23.70212011853956
 10
-383.8924519346601
 20
23.70205827053956
 10
-383.8926593006601
 20
23.70216310853957
 10
-383.8927535606601
 20
23.70244456253956
 10
-383.8926593006601
 20
23.70272925053957
 10
-383.8924519346601
 20
23.70282344453957
 10
-383.8922445686601
 20
23.70270173453957
 97
        0
 75
     2
 76
     0
 98
        1
 10
-385.0081295786602
 20
23.02786289453957
  0
VIEWPORT
  5
27C
102
{ACAD_XDICTIONARY
360
1217
102
}
330
68
100
AcDbEntity
 67
     1
  8
A-ANNO-NPLT
100
AcDbViewport
 10
105.6082475189605
 20
110.164137075926
 30
0.0
 40
1.581824054918086
 41
1.28054117281411
 68
     2
 69
     2
 12
-383.8476533512086
 22
23.73800964705996
 13
0.0
 23
0.0
 14
0.0
 24
0.0
 15
0.0
 25
0.0
 16
0.0
 26
0.0
 36
1.0
 17
0.0
 27
0.0
 37
0.0
 42
0.0
 43
0.0
 44
0.0
 45
0.2399999999999999
 50
0.0
 51
0.0
 72
  1000
 90
    32768
  1

281
     0
 71
     1
 74
     1
110
0.0
120
0.0
130
0.0
111
1.0
121
0.0
131
0.0
112
0.0
122
1.0
132
0.0
 79
     0
146
0.0
  0
VIEWPORT
  5
27E
102
{ACAD_XDICTIONARY
360
1219
102
}
330
68
100
AcDbEntity
 67
     1
  8
0
100
AcDbViewport
 10
8.749700598802395
 20
4.5
 30
0.0
 40
21.49940119760479
 41
12.0
 68
     1
 69
     1
 12
8.749700598802395
 22
4.5
 13
0.0
 23
0.0
 14
0.0
 24
0.0
 15
0.0
 25
0.0
 16
0.0
 26
0.0
 36
1.0
 17
0.0
 27
0.0
 37
0.0
 42
50.0
 43
0.0
 44
0.0
 45
12.0
 50
0.0
 51
0.0
 72
   100
 90
    32800
  1

281
     0
 71
     1
 74
     1
110
0.0
120
0.0
130
0.0
111
1.0
121
0.0
131
0.0
112
0.0
122
1.0
132
0.0
 79
     0
146
0.0
  0
LWPOLYLINE
  5
282
330
68
100
AcDbEntity
 67
     1
  8
A-ANNO-TEXT
 62
     7
100
AcDbPolyline
 90
        4
 70
     1
 43
0.0
 10
105.0506459724109
 20
110.4936056858817
 10
105.3188577194673
 20
110.4936056858817
 10
105.3188577194673
 20
110.2822570016712
 10
105.0506459724109
 20
110.2822570016712
1001
REVIT
1002
{
1070
     1
1000
252387
1002
}
1002
{
1070
     5
1000
248233
1002
}
1002
{
1070
     2
1000
-2000300
1002
}
  0
MTEXT
  5
283
330
68
100
AcDbEntity
 67
     1
  8
A-ANNO-TEXT
 62
     7
100
AcDbMText
 10
105.0740834724108
 20
110.4432777702843
 30
0.0
 40
0.0951333939264328
 41
0.196875
 71
     1
 72
     1
  1
\fArial|b1|i0|c163|p34|;D9\P0
 73
     2
 44
0.9385317878468562
1001
REVIT
1002
{
1070
     1
1000
252387
1002
}
1002
{
1070
     5
1000
248233
1002
}
1002
{
1070
     2
1000
-2000300
1002
}
1001
ACAD
1000
MTEXTBEGIN
1070
    73
1070
     2
1070
    44
1040
0.9385317878468562
1070
    74
1070
     0
1000
MTEXTEND
1000
ACAD_MTEXT_BBRT
1070
    91
1071
        3
1070
    46
1040
1.25
1070
    64
1071
-989855744
1070
    65
1000

1070
    66
1000

1070
   442
1071
        0
1000
ACAD_MTEXT_BERT
  0
MTEXT
  5
284
330
68
100
AcDbEntity
 67
     1
  8
A-ANNO-TEXT
 62
     7
100
AcDbMText
 10
105.4475988226412
 20
109.5442452414934
 30
0.0
 40
0.0634222626176219
 41
0.2677499999999999
 71
     1
 72
     1
  1
\fArial|b1|i0|c163|p34|;CPS4
 73
     2
 44
0.9385317878468562
1001
REVIT
1002
{
1070
     1
1000
252388
1002
}
1002
{
1070
     5
1000
248237
1002
}
1002
{
1070
     2
1000
-2000300
1002
}
1001
ACAD
1000
MTEXTBEGIN
1070
    73
1070
     2
1070
    44
1040
0.9385317878468562
1070
    74
1070
     0
1000
MTEXTEND
1000
ACAD_MTEXT_BBRT
1070
    91
1071
        3
1070
    46
1040
1.25
1070
    64
1071
-989855744
1070
    65
1000

1070
    66
1000

1070
   442
1071
        0
1000
ACAD_MTEXT_BERT
  0
LINE
  5
285
330
68
100
AcDbEntity
 67
     1
  8
A-ANNO-TEXT
 62
     7
100
AcDbLine
 10
105.7573316356255
 20
110.5466150679222
 30
0.0
 11
105.7740784601524
 21
110.5466150679222
 31
0.0
1001
REVIT
1002
{
1070
     1
1000
252389
1002
}
1002
{
1070
     5
1000
248226
1002
}
1002
{
1070
     2
1000
-2000300
1002
}
  0
LINE
  5
286
330
68
100
AcDbEntity
 67
     1
  8
A-ANNO-TEXT
 62
     7
100
AcDbLine
 10
105.7740784601524
 20
110.5466150679222
 30
0.0
 11
105.7657050478889
 21
110.5778650679222
 31
0.0
1001
REVIT
1002
{
1070
     1
1000
252389
1002
}
1002
{
1070
     5
1000
248226
1002
}
1002
{
1070
     2
1000
-2000300
1002
}
  0
LINE
  5
287
330
68
100
AcDbEntity
 67
     1
  8
A-ANNO-TEXT
 62
     7
100
AcDbLine
 10
105.7657050478889
 20
110.5778650679222
 30
0.0
 11
105.7573316356255
 21
110.5466150679222
 31
0.0
1001
REVIT
1002
{
1070
     1
1000
252389
1002
}
1002
{
1070
     5
1000
248226
1002
}
1002
{
1070
     2
1000
-2000300
1002
}
  0
HATCH
  5
288
330
68
100
AcDbEntity
 67
     1
  8
A-ANNO-TEXT
 62
     7
100
AcDbHatch
 10
0.0
 20
0.0
 30
0.0
210
0.0
220
0.0
230
1.0
  2
SOLID
 70
     1
 71
     0
 91
        1
 92
        0
 93
        3
 72
     1
 10
105.7573316356255
 20
110.5466150679222
 11
105.7740784601524
 21
110.5466150679222
 72
     1
 10
105.7740784601524
 20
110.5466150679222
 11
105.7657050478889
 21
110.5778650679222
 72
     1
 10
105.7657050478889
 20
110.5778650679222
 11
105.7573316356255
 21
110.5466150679222
 97
        0
 75
     0
 76
     1
 98
        1
 10
0.0
 20
0.0
1001
REVIT
1002
{
1070
     1
1000
252389
1002
}
1002
{
1070
     5
1000
248226
1002
}
1002
{
1070
     2
1000
-2000300
1002
}
  0
LINE
  5
289
330
68
100
AcDbEntity
 67
     1
  8
A-ANNO-TEXT
 62
     7
100
AcDbLine
 10
105.7657050478889
 20
110.5778650679222
 30
0.0
 11
105.7657050478889
 21
110.3811070415201
 31
0.0
1001
REVIT
1002
{
1070
     1
1000
252389
1002
}
1002
{
1070
     5
1000
248226
1002
}
1002
{
1070
     2
1000
-2000300
1002
}
  0
LINE
  5
28A
330
68
100
AcDbEntity
 67
     1
  8
A-ANNO-TEXT
 62
     7
100
AcDbLine
 10
105.7740784601524
 20
110.1932892944124
 30
0.0
 11
105.7573316356255
 21
110.1932892944124
 31
0.0
1001
REVIT
1002
{
1070
     1
1000
252389
1002
}
1002
{
1070
     5
1000
248226
1002
}
1002
{
1070
     2
1000
-2000300
1002
}
  0
LINE
  5
28B
330
68
100
AcDbEntity
 67
     1
  8
A-ANNO-TEXT
 62
     7
100
AcDbLine
 10
105.7573316356255
 20
110.1932892944124
 30
0.0
 11
105.7657050478889
 21
110.1620392944124
 31
0.0
1001
REVIT
1002
{
1070
     1
1000
252389
1002
}
1002
{
1070
     5
1000
248226
1002
}
1002
{
1070
     2
1000
-2000300
1002
}
  0
LINE
  5
28C
330
68
100
AcDbEntity
 67
     1
  8
A-ANNO-TEXT
 62
     7
100
AcDbLine
 10
105.7657050478889
 20
110.1620392944124
 30
0.0
 11
105.7740784601524
 21
110.1932892944124
 31
0.0
1001
REVIT
1002
{
1070
     1
1000
252389
1002
}
1002
{
1070
     5
1000
248226
1002
}
1002
{
1070
     2
1000
-2000300
1002
}
  0
HATCH
  5
28D
330
68
100
AcDbEntity
 67
     1
  8
A-ANNO-TEXT
 62
     7
100
AcDbHatch
 10
0.0
 20
0.0
 30
0.0
210
0.0
220
0.0
230
1.0
  2
SOLID
 70
     1
 71
     0
 91
        1
 92
        0
 93
        3
 72
     1
 10
105.7740784601524
 20
110.1932892944124
 11
105.7573316356255
 21
110.1932892944124
 72
     1
 10
105.7573316356255
 20
110.1932892944124
 11
105.7657050478889
 21
110.1620392944124
 72
     1
 10
105.7657050478889
 20
110.1620392944124
 11
105.7740784601524
 21
110.1932892944124
 97
        0
 75
     0
 76
     1
 98
        1
 10
0.0
 20
0.0
1001
REVIT
1002
{
1070
     1
1000
252389
1002
}
1002
{
1070
     5
1000
248226
1002
}
1002
{
1070
     2
1000
-2000300
1002
}
  0
LINE
  5
28E
330
68
100
AcDbEntity
 67
     1
  8
A-ANNO-TEXT
 62
     7
100
AcDbLine
 10
105.7657050478889
 20
110.1620392944124
 30
0.0
 11
105.7657050478889
 21
110.2935531622097
 31
0.0
1001
REVIT
1002
{
1070
     1
1000
252389
1002
}
1002
{
1070
     5
1000
248226
1002
}
1002
{
1070
     2
1000
-2000300
1002
}
  0
MTEXT
  5
28F
330
68
100
AcDbEntity
 67
     1
  8
A-ANNO-TEXT
 62
     7
100
AcDbMText
 10
105.7657050478889
 20
110.3677708233315
 30
0.0
 40
0.0499450318113772
 41
0.1218738098260759
 71
     2
 72
     1
  1
\fArial|b0|i0|c163|p34|;10"
 73
     2
 44
0.9385317878468564
1001
REVIT
1002
{
1070
     1
1000
252389
1002
}
1002
{
1070
     5
1000
248226
1002
}
1002
{
1070
     2
1000
-2000300
1002
}
1001
ACAD
1000
MTEXTBEGIN
1070
    73
1070
     2
1070
    44
1040
0.9385317878468564
1070
    74
1070
     0
1000
MTEXTEND
1000
ACAD_MTEXT_BBRT
1070
    91
1071
        3
1070
    46
1040
1.25
1070
    64
1071
-989855744
1070
    65
1000

1070
    66
1000

1070
   442
1071
        0
1000
ACAD_MTEXT_BERT
  0
ENDSEC
  0
SECTION
  2
OBJECTS
  0
DICTIONARY
  5
C
330
0
100
AcDbDictionary
281
     1
  3
ACAD_CIP_PREVIOUS_PRODUCT_INFO
350
75
  3
ACAD_COLOR
350
63
  3
ACAD_GROUP
350
D
  3
ACAD_IMAGE_VARS
350
76
  3
ACAD_LAYOUT
350
62
  3
ACAD_MATERIAL
350
10
  3
ACAD_MLEADERSTYLE
350
66
  3
ACAD_MLINESTYLE
350
5F
  3
ACAD_PLOTSETTINGS
350
61
  3
ACAD_PLOTSTYLENAME
350
E
  3
ACAD_SCALELIST
350
42
  3
ACAD_TABLESTYLE
350
64
  3
ACAD_VISUALSTYLE
350
29
  3
ACDB_RECOMPOSE_DATA
350
11DC
  3
AcDbVariableDictionary
350
2E0
  3
DWGPROPS
350
11DD
  3
REVIT_DICTIONARY
350
290
  0
DICTIONARY
  5
29F
330
8
100
AcDbDictionary
280
     1
281
     1
  0
DICTIONARY
  5
2FA
330
2
100
AcDbDictionary
280
     1
281
     1
  3
ACAD_LAYERSTATES
360
2FB
  0
DICTIONARY
  5
294
330
6C
100
AcDbDictionary
280
     1
281
     1
  3
ACAD_SORTENTS
360
295
  0
DICTIONARY
  5
11D8
330
CFF
100
AcDbDictionary
280
     1
281
     1
  3
ACAD_MTEXT_2008_RT
360
11D9
  0
DICTIONARY
  5
11DA
330
FA2
100
AcDbDictionary
280
     1
281
     1
  3
ACAD_MTEXT_2008_RT
360
11DB
  0
DICTIONARY
  5
1217
330
27C
100
AcDbDictionary
280
     1
281
     1
  3
ACAD_XREC_ROUNDTRIP
360
1218
  0
DICTIONARY
  5
1219
330
27E
100
AcDbDictionary
280
     1
281
     1
  3
ACAD_XREC_ROUNDTRIP
360
121A
  0
XRECORD
  5
75
102
{ACAD_REACTORS
330
C
102
}
330
C
100
AcDbXrecord
280
     1
300
ACD
300
2012
300
85792REVSU_2012_0F
  0
DICTIONARY
  5
63
102
{ACAD_REACTORS
330
C
102
}
330
C
100
AcDbDictionary
281
     1
  0
DICTIONARY
  5
D
102
{ACAD_REACTORS
330
C
102
}
330
C
100
AcDbDictionary
281
     1
  0
RASTERVARIABLES
  5
76
102
{ACAD_REACTORS
330
C
102
}
330
C
100
AcDbRasterVariables
 90
        0
 70
     0
 71
     1
 72
     5
  0
DICTIONARY
  5
62
102
{ACAD_REACTORS
330
C
102
}
330
C
100
AcDbDictionary
281
     1
  3
Layout1
350
6B
  3
Layout2
350
73
  3
Model
350
6F
  0
DICTIONARY
  5
10
102
{ACAD_REACTORS
330
C
102
}
330
C
100
AcDbDictionary
281
     1
  3
ByBlock
350
19
  3
ByLayer
350
11
  3
Global
350
21
  0
DICTIONARY
  5
66
102
{ACAD_REACTORS
330
C
102
}
330
C
100
AcDbDictionary
281
     1
  3
Standard
350
67
  0
DICTIONARY
  5
5F
102
{ACAD_REACTORS
330
C
102
}
330
C
100
AcDbDictionary
281
     1
  3
Standard
350
60
  0
DICTIONARY
  5
61
102
{ACAD_REACTORS
330
C
102
}
330
C
100
AcDbDictionary
281
     1
  0
ACDBDICTIONARYWDFLT
  5
E
102
{ACAD_REACTORS
330
C
102
}
330
C
100
AcDbDictionary
281
     1
  3
Normal
350
F
100
AcDbDictionaryWithDefault
340
F
  0
DICTIONARY
  5
42
102
{ACAD_REACTORS
330
C
102
}
330
C
100
AcDbDictionary
281
     1
  3
A0
350
43
  3
A1
350
44
  3
A2
350
45
  3
A3
350
46
  3
A4
350
47
  3
A5
350
48
  3
A6
350
49
  3
A7
350
4A
  3
A8
350
4B
  3
A9
350
4C
  3
B0
350
4D
  3
B1
350
4E
  3
B2
350
4F
  3
B3
350
50
  3
B4
350
51
  3
B5
350
52
  3
B6
350
53
  0
DICTIONARY
  5
64
102
{ACAD_REACTORS
330
C
102
}
330
C
100
AcDbDictionary
281
     1
  3
Standard
350
65
  0
DICTIONARY
  5
29
102
{ACAD_REACTORS
330
C
102
}
330
C
100
AcDbDictionary
281
     1
  3
2dWireframe
350
2F
  3
Basic
350
2E
  3
Brighten
350
35
  3
ColorChange
350
39
  3
Conceptual
350
32
  3
Dim
350
34
  3
EdgeColorOff
350
41
  3
Facepattern
350
38
  3
Flat
350
2A
  3
FlatWithEdges
350
2B
  3
Gouraud
350
2C
  3
GouraudWithEdges
350
2D
  3
Hidden
350
31
  3
JitterOff
350
3F
  3
Linepattern
350
37
  3
OverhangOff
350
40
  3
Realistic
350
33
  3
Shaded
350
3E
  3
Shaded with edges
350
3D
  3
Shades of Gray
350
3A
  3
Sketchy
350
3B
  3
Thicken
350
36
  3
Wireframe
350
30
  3
X-Ray
350
3C
  0
XRECORD
  5
11DC
102
{ACAD_REACTORS
330
C
102
}
330
C
100
AcDbXrecord
280
     1
 90
        1
330
65
330
CFF
330
FA2
  0
DICTIONARY
  5
2E0
102
{ACAD_REACTORS
330
C
102
}
330
C
100
AcDbDictionary
281
     1
  3
CANNOSCALE
350
2E4
  3
CMLEADERSTYLE
350
2E2
  3
CTABLESTYLE
350
2E1
  3
DIMASSOC
350
2EB
  3
HIDETEXT
350
2EA
  3
INDEXCTL
350
2E9
  3
LATITUDE
350
11D1
  3
LAYEREVAL
350
2E6
  3
LAYERNOTIFY
350
2E7
  3
LIGHTINGUNITS
350
2E5
  3
LONGITUDE
350
11D2
  3
MSLTSCALE
350
2E3
  3
SORTENTS
350
2E8
  3
TIMEZONE
350
11D3
  3
XCLIPFRAME
350
11D4
  0
XRECORD
  5
11DD
102
{ACAD_REACTORS
330
C
102
}
330
C
100
AcDbXrecord
280
     1
  1
DWGPROPS COOKIE
  2

  3

  4

  6

  7

  8
VPhan
  9

300
=
301
=
302
=
303
=
304
=
305
=
306
=
307
=
308
=
309
=
 40
0.0145429861111111
 41
2456195.363362812
 42
2456196.624649305
  1

 90
        0
  0
DICTIONARY
  5
290
102
{ACAD_REACTORS
330
C
102
}
330
C
100
AcDbDictionary
281
     1
  3
DRAWING_TOOL
350
293
  3
REVIT_CATEGORY_MAPPING
350
292
  3
REVIT_TYPE_MAPPING
350
291
  0
DICTIONARY
  5
2FB
102
{ACAD_REACTORS
330
2FA
102
}
330
2FA
100
AcDbDictionary
281
     1
  0
SORTENTSTABLE
  5
295
102
{ACAD_REACTORS
330
294
102
}
330
294
100
AcDbSortentsTable
330
6C
331
CFF
  5
D01
331
CFB
  5
CFC
331
CF7
  5
CF8
331
245
  5
27A
331
241
  5
26E
331
23D
  5
25B
331
239
  5
248
331
CEF
  5
CEF
331
235
  5
244
331
C9F
  5
C9F
331
270
  5
751
331
B82
  5
23B
331
C97
  5
C97
331
C93
  5
C93
331
B7E
  5
233
331
C8F
  5
C8F
331
C8B
  5
C8B
331
25C
  5
74C
331
DB6
  5
DB6
331
C33
  5
C33
331
D02
  5
CF7
331
20D
  5
20D
331
248
  5
747
331
CFE
  5
CFF
331
CFA
  5
CFB
331
244
  5
275
331
240
  5
26D
331
23C
  5
25A
331
238
  5
247
331
234
  5
243
331
C9E
  5
C99
331
26F
  5
750
331
B89
  5
23A
331
B85
  5
23E
331
B81
  5
236
331
B7D
  5
232
331
DB9
  5
DB8
331
25B
  5
74B
331
C36
  5
C36
331
DB5
  5
DB5
331
C32
  5
C32
331
DB1
  5
DB1
331
BE2
  5
BE2
331
20C
  5
20C
331
CFD
  5
CFE
331
CF9
  5
CFA
331
247
  5
746
331
243
  5
270
331
CF1
  5
CF1
331
23F
  5
25D
331
23B
  5
24A
331
27A
  5
753
331
237
  5
246
331
233
  5
242
331
C9D
  5
C9E
331
C99
  5
C9C
331
B88
  5
239
331
26E
  5
74F
331
B84
  5
23D
331
B80
  5
235
331
C95
  5
C95
331
C91
  5
C91
331
B7C
  5
231
331
C8D
  5
C8D
331
C89
  5
C89
331
DB8
  5
DB9
331
25A
  5
74A
331
C35
  5
C35
331
DB4
  5
DB4
331
DB0
  5
DB0
331
BE1
  5
BE1
331
20F
  5
20F
331
24A
  5
749
331
CFC
  5
CFD
331
CF8
  5
CF9
331
246
  5
745
331
242
  5
26F
331
23E
  5
25C
331
CF0
  5
CF0
331
236
  5
245
331
275
  5
752
331
232
  5
241
331
C9C
  5
C9D
331
B87
  5
240
331
26D
  5
74E
331
C94
  5
C94
331
B7F
  5
234
331
B7B
  5
221
331
C88
  5
C88
331
25D
  5
74D
331
DB3
  5
DB3
331
249
  5
748
  0
XRECORD
  5
11D9
102
{ACAD_REACTORS
330
11D8
102
}
330
11D8
100
AcDbXrecord
280
     1
 40
37891.0
  1
\A1;\pxqc;{\fArial|b0|i0|c0|p34;10"}
  0
XRECORD
  5
11DB
102
{ACAD_REACTORS
330
11DA
102
}
330
11DA
100
AcDbXrecord
280
     1
 40
42394.0
  1
\A1;\pxqc;{\fArial|b1|i0|c0|p34;CPS4}
  0
XRECORD
  5
1218
102
{ACAD_REACTORS
330
1217
102
}
330
1217
100
AcDbXrecord
280
     1
102
SHADEPLOT
 70
     0
  0
XRECORD
  5
121A
102
{ACAD_REACTORS
330
1219
102
}
330
1219
100
AcDbXrecord
280
     1
102
SHADEPLOT
 70
     0
  0
LAYOUT
  5
6B
102
{ACAD_XDICTIONARY
360
2FF
102
}
102
{ACAD_REACTORS
330
62
102
}
330
62
100
AcDbPlotSettings
  1

  2
Snagit 11
  4
A4
  6

 40
6.000750064849853
 41
6.76275634765625
 42
7.77874755859375
 43
4.9847412109375
 44
209.9309997558594
 45
296.9259948730469
 46
0.0
 47
0.0
 48
0.0
 49
0.0
140
0.0
141
0.0
142
1.0
143
0.177531018409136
 70
   688
 72
     0
 73
     1
 74
     1
  7

 75
     0
147
5.632818472856452
148
-2662.321055008366
149
-2779.733574646314
100
AcDbLayout
  1
Layout1
 70
     1
 71
     1
 10
104.780949166326
 20
109.3963880069323
 11
106.8562867356945
 21
110.8636818723775
 12
0.0
 22
0.0
 32
0.0
 14
104.8157895672585
 24
109.4383297104848
 34
-0.0015258207003583
 15
106.4005089970665
 25
110.8093130150537
 35
0.0000000349246037
146
0.0
 13
0.0
 23
0.0
 33
0.0
 16
1.0
 26
0.0
 36
0.0
 17
0.0
 27
1.0
 37
0.0
 76
     0
330
68
331
27E
1001
ACAD_PSEXT
1000
Snagit 11
1000
Snagit 11 Printer
1000
C:\ProgramData\TechSmith\Snagit 11\PrinterPortFile
1000

1070
     0
  0
LAYOUT
  5
73
102
{ACAD_XDICTIONARY
360
1215
102
}
102
{ACAD_REACTORS
330
62
102
}
330
62
100
AcDbPlotSettings
  1

  2

  4

  6

 40
0.0
 41
0.0
 42
0.0
 43
0.0
 44
0.0
 45
0.0
 46
0.0
 47
0.0
 48
0.0
 49
0.0
140
0.0
141
0.0
142
1.0
143
1.0
 70
   688
 72
     0
 73
     0
 74
     5
  7

 75
    16
147
1.0
148
0.0
149
0.0
100
AcDbLayout
  1
Layout2
 70
     1
 71
     2
 10
0.0
 20
0.0
 11
12.0
 21
9.0
 12
0.0
 22
0.0
 32
0.0
 14
0.0
 24
0.0
 34
0.0
 15
0.0
 25
0.0
 35
0.0
146
0.0
 13
0.0
 23
0.0
 33
0.0
 16
1.0
 26
0.0
 36
0.0
 17
0.0
 27
1.0
 37
0.0
 76
     0
330
70
  0
LAYOUT
  5
6F
102
{ACAD_XDICTIONARY
360
1213
102
}
102
{ACAD_REACTORS
330
62
102
}
330
62
100
AcDbPlotSettings
  1

  2

  4

  6

 40
0.0
 41
0.0
 42
0.0
 43
0.0
 44
0.0
 45
0.0
 46
0.0
 47
0.0
 48
0.0
 49
0.0
140
0.0
141
0.0
142
1.0
143
1.0
 70
  1712
 72
     0
 73
     0
 74
     0
  7

 75
     0
147
1.0
148
0.0
149
0.0
100
AcDbLayout
  1
Model
 70
     1
 71
     0
 10
0.0
 20
0.0
 11
12.0
 21
9.0
 12
0.0
 22
0.0
 32
0.0
 14
0.0
 24
0.0
 34
0.0
 15
0.0
 25
0.0
 35
0.0
146
0.0
 13
0.0
 23
0.0
 33
0.0
 16
1.0
 26
0.0
 36
0.0
 17
0.0
 27
1.0
 37
0.0
 76
     0
330
6C
331
57
  0
MATERIAL
  5
19
102
{ACAD_XDICTIONARY
360
1A
102
}
102
{ACAD_REACTORS
330
10
102
}
330
10
100
AcDbMaterial
  1
ByBlock
 72
     0
 43
0.0208333333333333
 43
0.0
 43
0.0
 43
0.0
 43
0.0
 43
0.0208333333333333
 43
0.0
 43
0.0
 43
0.0
 43
0.0
 43
1.0
 43
0.0
 43
0.0
 43
0.0
 43
0.0
 43
1.0
 77
     0
 47
0.0208333333333333
 47
0.0
 47
0.0
 47
0.0
 47
0.0
 47
0.0208333333333333
 47
0.0
 47
0.0
 47
0.0
 47
0.0
 47
1.0
 47
0.0
 47
0.0
 47
0.0
 47
0.0
 47
1.0
171
     0
 49
0.0208333333333333
 49
0.0
 49
0.0
 49
0.0
 49
0.0
 49
0.0208333333333333
 49
0.0
 49
0.0
 49
0.0
 49
0.0
 49
1.0
 49
0.0
 49
0.0
 49
0.0
 49
0.0
 49
1.0
175
     0
142
0.0208333333333333
142
0.0
142
0.0
142
0.0
142
0.0
142
0.0208333333333333
142
0.0
142
0.0
142
0.0
142
0.0
142
1.0
142
0.0
142
0.0
142
0.0
142
0.0
142
1.0
179
     0
144
0.0208333333333333
144
0.0
144
0.0
144
0.0
144
0.0
144
0.0208333333333333
144
0.0
144
0.0
144
0.0
144
0.0
144
1.0
144
0.0
144
0.0
144
0.0
144
0.0
144
1.0
147
0.0208333333333333
147
0.0
147
0.0
147
0.0
147
0.0
147
0.0208333333333333
147
0.0
147
0.0
147
0.0
147
0.0
147
1.0
147
0.0
147
0.0
147
0.0
147
0.0
147
1.0
  0
MATERIAL
  5
11
102
{ACAD_XDICTIONARY
360
12
102
}
102
{ACAD_REACTORS
330
10
102
}
330
10
100
AcDbMaterial
  1
ByLayer
 72
     0
 43
0.0208333333333333
 43
0.0
 43
0.0
 43
0.0
 43
0.0
 43
0.0208333333333333
 43
0.0
 43
0.0
 43
0.0
 43
0.0
 43
1.0
 43
0.0
 43
0.0
 43
0.0
 43
0.0
 43
1.0
 77
     0
 47
0.0208333333333333
 47
0.0
 47
0.0
 47
0.0
 47
0.0
 47
0.0208333333333333
 47
0.0
 47
0.0
 47
0.0
 47
0.0
 47
1.0
 47
0.0
 47
0.0
 47
0.0
 47
0.0
 47
1.0
171
     0
 49
0.0208333333333333
 49
0.0
 49
0.0
 49
0.0
 49
0.0
 49
0.0208333333333333
 49
0.0
 49
0.0
 49
0.0
 49
0.0
 49
1.0
 49
0.0
 49
0.0
 49
0.0
 49
0.0
 49
1.0
175
     0
142
0.0208333333333333
142
0.0
142
0.0
142
0.0
142
0.0
142
0.0208333333333333
142
0.0
142
0.0
142
0.0
142
0.0
142
1.0
142
0.0
142
0.0
142
0.0
142
0.0
142
1.0
179
     0
144
0.0208333333333333
144
0.0
144
0.0
144
0.0
144
0.0
144
0.0208333333333333
144
0.0
144
0.0
144
0.0
144
0.0
144
1.0
144
0.0
144
0.0
144
0.0
144
0.0
144
1.0
147
0.0208333333333333
147
0.0
147
0.0
147
0.0
147
0.0
147
0.0208333333333333
147
0.0
147
0.0
147
0.0
147
0.0
147
1.0
147
0.0
147
0.0
147
0.0
147
0.0
147
1.0
  0
MATERIAL
  5
21
102
{ACAD_XDICTIONARY
360
22
102
}
102
{ACAD_REACTORS
330
10
102
}
330
10
100
AcDbMaterial
  1
Global
 72
     0
 43
0.0208333333333333
 43
0.0
 43
0.0
 43
0.0
 43
0.0
 43
0.0208333333333333
 43
0.0
 43
0.0
 43
0.0
 43
0.0
 43
1.0
 43
0.0
 43
0.0
 43
0.0
 43
0.0
 43
1.0
 77
     0
 47
0.0208333333333333
 47
0.0
 47
0.0
 47
0.0
 47
0.0
 47
0.0208333333333333
 47
0.0
 47
0.0
 47
0.0
 47
0.0
 47
1.0
 47
0.0
 47
0.0
 47
0.0
 47
0.0
 47
1.0
171
     0
 49
0.0208333333333333
 49
0.0
 49
0.0
 49
0.0
 49
0.0
 49
0.0208333333333333
 49
0.0
 49
0.0
 49
0.0
 49
0.0
 49
1.0
 49
0.0
 49
0.0
 49
0.0
 49
0.0
 49
1.0
175
     0
142
0.0208333333333333
142
0.0
142
0.0
142
0.0
142
0.0
142
0.0208333333333333
142
0.0
142
0.0
142
0.0
142
0.0
142
1.0
142
0.0
142
0.0
142
0.0
142
0.0
142
1.0
179
     0
144
0.0208333333333333
144
0.0
144
0.0
144
0.0
144
0.0
144
0.0208333333333333
144
0.0
144
0.0
144
0.0
144
0.0
144
1.0
144
0.0
144
0.0
144
0.0
144
0.0
144
1.0
147
0.0208333333333333
147
0.0
147
0.0
147
0.0
147
0.0
147
0.0208333333333333
147
0.0
147
0.0
147
0.0
147
0.0
147
1.0
147
0.0
147
0.0
147
0.0
147
0.0
147
1.0
  0
MLEADERSTYLE
  5
67
102
{ACAD_XDICTIONARY
360
11D6
102
}
102
{ACAD_REACTORS
330
66
102
}
330
66
100
AcDbMLeaderStyle
170
     2
171
     1
172
     0
 90
        2
 40
0.0
 41
0.0
173
     1
 91
-1056964608
340
5B
 92
       -2
290
     1
 42
0.09
291
     1
 43
0.36
  3
Standard
 44
0.18
300

342
55
174
     1
178
     6
175
     1
176
     0
 93
-1056964608
 45
0.18
292
     0
297
     0
 46
0.18
 94
-1056964608
 47
1.0
 49
1.0
140
1.0
293
     1
141
0.0
294
     1
177
     0
142
1.0
295
     0
296
     0
143
0.125
1001
ACAD_MLEADERVER
1070
     2
  0
MLINESTYLE
  5
60
102
{ACAD_REACTORS
330
5F
102
}
330
5F
100
AcDbMlineStyle
  2
STANDARD
 70
     0
  3

 62
   256
 51
90.0
 52
90.0
 71
     2
 49
0.5
 62
   256
  6
BYLAYER
 49
-0.5
 62
   256
  6
BYLAYER
  0
ACDBPLACEHOLDER
  5
F
102
{ACAD_REACTORS
330
E
102
}
330
E
  0
SCALE
  5
43
102
{ACAD_REACTORS
330
42
102
}
330
42
100
AcDbScale
 70
     0
300
1:1
140
1.0
141
1.0
290
     1
  0
SCALE
  5
44
102
{ACAD_REACTORS
330
42
102
}
330
42
100
AcDbScale
 70
     0
300
1/128" = 1'-0"
140
0.0078125
141
12.0
290
     0
  0
SCALE
  5
45
102
{ACAD_REACTORS
330
42
102
}
330
42
100
AcDbScale
 70
     0
300
1/64" = 1'-0"
140
0.015625
141
12.0
290
     0
  0
SCALE
  5
46
102
{ACAD_REACTORS
330
42
102
}
330
42
100
AcDbScale
 70
     0
300
1/32" = 1'-0"
140
0.03125
141
12.0
290
     0
  0
SCALE
  5
47
102
{ACAD_REACTORS
330
42
102
}
330
42
100
AcDbScale
 70
     0
300
1/16" = 1'-0"
140
0.0625
141
12.0
290
     0
  0
SCALE
  5
48
102
{ACAD_REACTORS
330
42
102
}
330
42
100
AcDbScale
 70
     0
300
3/32" = 1'-0"
140
0.09375
141
12.0
290
     0
  0
SCALE
  5
49
102
{ACAD_REACTORS
330
42
102
}
330
42
100
AcDbScale
 70
     0
300
1/8" = 1'-0"
140
0.125
141
12.0
290
     0
  0
SCALE
  5
4A
102
{ACAD_REACTORS
330
42
102
}
330
42
100
AcDbScale
 70
     0
300
3/16" = 1'-0"
140
0.1875
141
12.0
290
     0
  0
SCALE
  5
4B
102
{ACAD_REACTORS
330
42
102
}
330
42
100
AcDbScale
 70
     0
300
1/4" = 1'-0"
140
0.25
141
12.0
290
     0
  0
SCALE
  5
4C
102
{ACAD_REACTORS
330
42
102
}
330
42
100
AcDbScale
 70
     0
300
3/8" = 1'-0"
140
0.375
141
12.0
290
     0
  0
SCALE
  5
4D
102
{ACAD_REACTORS
330
42
102
}
330
42
100
AcDbScale
 70
     0
300
1/2" = 1'-0"
140
0.5
141
12.0
290
     0
  0
SCALE
  5
4E
102
{ACAD_REACTORS
330
42
102
}
330
42
100
AcDbScale
 70
     0
300
3/4" = 1'-0"
140
0.75
141
12.0
290
     0
  0
SCALE
  5
4F
102
{ACAD_REACTORS
330
42
102
}
330
42
100
AcDbScale
 70
     0
300
1" = 1'-0"
140
1.0
141
12.0
290
     0
  0
SCALE
  5
50
102
{ACAD_REACTORS
330
42
102
}
330
42
100
AcDbScale
 70
     0
300
1-1/2" = 1'-0"
140
1.5
141
12.0
290
     0
  0
SCALE
  5
51
102
{ACAD_REACTORS
330
42
102
}
330
42
100
AcDbScale
 70
     0
300
3" = 1'-0"
140
3.0
141
12.0
290
     0
  0
SCALE
  5
52
102
{ACAD_REACTORS
330
42
102
}
330
42
100
AcDbScale
 70
     0
300
6" = 1'-0"
140
6.0
141
12.0
290
     0
  0
SCALE
  5
53
102
{ACAD_REACTORS
330
42
102
}
330
42
100
AcDbScale
 70
     0
300
1'-0" = 1'-0"
140
12.0
141
12.0
290
     0
  0
TABLESTYLE
  5
65
102
{ACAD_XDICTIONARY
360
297
102
}
102
{ACAD_REACTORS
330
64
102
}
330
64
100
AcDbTableStyle
  3
Standard
 70
     0
 71
     0
 40
0.06
 41
0.06
280
     0
281
     0
  7
Standard
140
0.18
170
     2
 62
     0
 63
     7
283
     0
274
    -2
284
     1
 64
     0
275
    -2
285
     1
 65
     0
276
    -2
286
     1
 66
     0
277
    -2
287
     1
 67
     0
278
    -2
288
     1
 68
     0
279
    -2
289
     1
 69
     0
  7
Standard
140
0.25
170
     5
 62
     0
 63
     7
283
     0
274
    -2
284
     1
 64
     0
275
    -2
285
     1
 65
     0
276
    -2
286
     1
 66
     0
277
    -2
287
     1
 67
     0
278
    -2
288
     1
 68
     0
279
    -2
289
     1
 69
     0
  7
Standard
140
0.18
170
     5
 62
     0
 63
     7
283
     0
274
    -2
284
     1
 64
     0
275
    -2
285
     1
 65
     0
276
    -2
286
     1
 66
     0
277
    -2
287
     1
 67
     0
278
    -2
288
     1
 68
     0
279
    -2
289
     1
 69
     0
  0
VISUALSTYLE
  5
2F
102
{ACAD_XDICTIONARY
360
11EB
102
}
102
{ACAD_REACTORS
330
29
102
}
330
29
100
AcDbVisualStyle
  2
2dWireframe
 70
     4
 71
     0
 72
     2
 73
     0
 90
        0
 40
-0.6
 41
-30.0
 62
     5
 63
     7
 74
     1
 91
        4
 64
     7
 65
   257
 75
     1
175
     1
 42
1.0
 92
        0
 66
   257
 43
1.0
 76
     1
 77
     6
 78
     2
 67
     7
 79
     5
170
     0
171
     0
290
     0
174
     0
 93
        1
 44
0.0
173
     0
291
     0
 45
0.0
1001
ACAD
1000
AcDbSavedByObjectVersion
1070
     0
  0
VISUALSTYLE
  5
2E
102
{ACAD_XDICTIONARY
360
11E9
102
}
102
{ACAD_REACTORS
330
29
102
}
330
29
100
AcDbVisualStyle
  2
Basic
 70
     7
 71
     1
 72
     0
 73
     1
 90
        0
 40
-0.6
 41
-30.0
 62
     5
 63
     7
 74
     0
 91
        4
 64
     7
 65
   257
 75
     1
175
     1
 42
1.0
 92
        8
 66
     7
 43
1.0
 76
     1
 77
     6
 78
     2
 67
     7
 79
     5
170
     0
171
     0
290
     0
174
     0
 93
        1
 44
0.0
173
     0
291
     1
 45
0.0
1001
ACAD
1000
AcDbSavedByObjectVersion
1070
     0
  0
VISUALSTYLE
  5
35
102
{ACAD_XDICTIONARY
360
11F7
102
}
102
{ACAD_REACTORS
330
29
102
}
330
29
100
AcDbVisualStyle
  2
Brighten
 70
    12
 71
     2
 72
     2
 73
     0
 90
        0
 40
-0.6
 41
-30.0
 62
     5
 63
     7
 74
     1
 91
        4
 64
     7
 65
   257
 75
     1
175
     1
 42
1.0
 92
        8
 66
     7
 43
1.0
 76
     1
 77
     6
 78
     2
 67
     7
 79
     5
170
     0
171
     0
290
     0
174
     0
 93
        1
 44
50.0
173
     0
291
     1
 45
0.0
1001
ACAD
1000
AcDbSavedByObjectVersion
1070
     0
  0
VISUALSTYLE
  5
39
102
{ACAD_XDICTIONARY
360
11FF
102
}
102
{ACAD_REACTORS
330
29
102
}
330
29
100
AcDbVisualStyle
  2
ColorChange
 70
    16
 71
     2
 72
     2
 73
     3
 90
        0
 40
-0.6
 41
-30.0
 62
     5
 63
     8
 74
     1
 91
        4
 64
     7
 65
   257
 75
     1
175
     1
 42
1.0
 92
        8
 66
     8
 43
1.0
 76
     1
 77
     6
 78
     2
 67
     7
 79
     5
170
     0
171
     0
290
     0
174
     0
 93
        1
 44
0.0
173
     0
291
     1
 45
0.0
1001
ACAD
1000
AcDbSavedByObjectVersion
1070
     0
  0
VISUALSTYLE
  5
32
102
{ACAD_XDICTIONARY
360
11F1
102
}
102
{ACAD_REACTORS
330
29
102
}
330
29
100
AcDbVisualStyle
  2
Conceptual
 70
     9
 71
     3
 72
     2
 73
     0
 90
        0
 40
-0.6
 41
-30.0
 62
     5
 63
     7
 74
     2
 91
        2
 64
     7
 65
   257
 75
     1
175
     1
 42
179.0
 92
        8
 66
     7
 43
1.0
 76
     1
 77
     6
 78
     2
 67
     7
 79
     3
170
     0
171
     0
290
     0
174
     0
 93
        1
 44
0.0
173
     0
291
     0
 45
0.0
1001
ACAD
1000
AcDbSavedByObjectVersion
1070
     0
  0
VISUALSTYLE
  5
34
102
{ACAD_XDICTIONARY
360
11F5
102
}
102
{ACAD_REACTORS
330
29
102
}
330
29
100
AcDbVisualStyle
  2
Dim
 70
    11
 71
     2
 72
     2
 73
     0
 90
        0
 40
-0.6
 41
-30.0
 62
     5
 63
     7
 74
     1
 91
        4
 64
     7
 65
   257
 75
     1
175
     1
 42
1.0
 92
        8
 66
     7
 43
1.0
 76
     1
 77
     6
 78
     2
 67
     7
 79
     5
170
     0
171
     0
290
     0
174
     0
 93
        1
 44
-50.0
173
     0
291
     1
 45
0.0
1001
ACAD
1000
AcDbSavedByObjectVersion
1070
     0
  0
VISUALSTYLE
  5
41
102
{ACAD_XDICTIONARY
360
120F
102
}
102
{ACAD_REACTORS
330
29
102
}
330
29
100
AcDbVisualStyle
  2
EdgeColorOff
 70
    22
 71
     2
 72
     2
 73
     0
 90
        0
 40
-0.6
 41
-30.0
 62
     5
 63
     7
 74
     1
 91
        4
 64
     7
 65
   257
 75
     1
175
     1
 42
1.0
 92
        8
 66
     7
 43
1.0
 76
     1
 77
     6
 78
     2
 67
     7
 79
     5
170
     0
171
     0
290
     0
174
     0
 93
        1
 44
0.0
173
     0
291
     1
 45
0.0
1001
ACAD
1000
AcDbSavedByObjectVersion
1070
     0
  0
VISUALSTYLE
  5
38
102
{ACAD_XDICTIONARY
360
11FD
102
}
102
{ACAD_REACTORS
330
29
102
}
330
29
100
AcDbVisualStyle
  2
Facepattern
 70
    15
 71
     2
 72
     2
 73
     0
 90
        0
 40
-0.6
 41
-30.0
 62
     5
 63
     7
 74
     1
 91
        4
 64
     7
 65
   257
 75
     1
175
     1
 42
1.0
 92
        8
 66
     7
 43
1.0
 76
     1
 77
     6
 78
     2
 67
     7
 79
     5
170
     0
171
     0
290
     0
174
     0
 93
        1
 44
0.0
173
     0
291
     1
 45
0.0
1001
ACAD
1000
AcDbSavedByObjectVersion
1070
     0
  0
VISUALSTYLE
  5
2A
102
{ACAD_XDICTIONARY
360
11E1
102
}
102
{ACAD_REACTORS
330
29
102
}
330
29
100
AcDbVisualStyle
  2
Flat
 70
     0
 71
     2
 72
     1
 73
     1
 90
        2
 40
-0.6
 41
30.0
 62
     5
 63
     7
 74
     0
 91
        0
 64
     7
 65
   257
 75
     1
175
     1
 42
1.0
 92
        8
 66
     7
 43
1.0
 76
     1
 77
     6
 78
     2
 67
     7
 79
     5
170
     0
171
     0
290
     0
174
     0
 93
       13
 44
0.0
173
     0
291
     1
 45
0.0
1001
ACAD
1000
AcDbSavedByObjectVersion
1070
     0
  0
VISUALSTYLE
  5
2B
102
{ACAD_XDICTIONARY
360
11E3
102
}
102
{ACAD_REACTORS
330
29
102
}
330
29
100
AcDbVisualStyle
  2
FlatWithEdges
 70
     1
 71
     2
 72
     1
 73
     1
 90
        2
 40
-0.6
 41
30.0
 62
     5
 63
     7
 74
     1
 91
        0
 64
     7
 65
   257
 75
     1
175
     1
 42
1.0
 92
        0
 66
   257
 43
1.0
 76
     1
 77
     6
 78
     2
 67
     7
 79
     5
170
     0
171
     0
290
     0
174
     0
 93
       13
 44
0.0
173
     0
291
     1
 45
0.0
1001
ACAD
1000
AcDbSavedByObjectVersion
1070
     0
  0
VISUALSTYLE
  5
2C
102
{ACAD_XDICTIONARY
360
11E5
102
}
102
{ACAD_REACTORS
330
29
102
}
330
29
100
AcDbVisualStyle
  2
Gouraud
 70
     2
 71
     2
 72
     2
 73
     1
 90
        2
 40
-0.6
 41
30.0
 62
     5
 63
     7
 74
     0
 91
        0
 64
     7
 65
   257
 75
     1
175
     1
 42
1.0
 92
        0
 66
     7
 43
1.0
 76
     1
 77
     6
 78
     2
 67
     7
 79
     5
170
     0
171
     0
290
     0
174
     0
 93
       13
 44
0.0
173
     0
291
     1
 45
0.0
1001
ACAD
1000
AcDbSavedByObjectVersion
1070
     0
  0
VISUALSTYLE
  5
2D
102
{ACAD_XDICTIONARY
360
11E7
102
}
102
{ACAD_REACTORS
330
29
102
}
330
29
100
AcDbVisualStyle
  2
GouraudWithEdges
 70
     3
 71
     2
 72
     2
 73
     1
 90
        2
 40
-0.6
 41
30.0
 62
     5
 63
     7
 74
     1
 91
        0
 64
     7
 65
   257
 75
     1
175
     1
 42
1.0
 92
        0
 66
   257
 43
1.0
 76
     1
 77
     6
 78
     2
 67
     7
 79
     5
170
     0
171
     0
290
     0
174
     0
 93
       13
 44
0.0
173
     0
291
     1
 45
0.0
1001
ACAD
1000
AcDbSavedByObjectVersion
1070
     0
  0
VISUALSTYLE
  5
31
102
{ACAD_XDICTIONARY
360
11EF
102
}
102
{ACAD_REACTORS
330
29
102
}
330
29
100
AcDbVisualStyle
  2
Hidden
 70
     6
 71
     1
 72
     2
 73
     2
 90
        0
 40
-0.6
 41
-30.0
 62
     5
 63
     7
 74
     2
 91
        2
 64
     7
 65
   257
 75
     2
175
     1
 42
40.0
 92
        0
 66
   257
 43
1.0
 76
     1
 77
     6
 78
     2
 67
     7
 79
     3
170
     0
171
     0
290
     0
174
     0
 93
        1
 44
0.0
173
     0
291
     0
 45
0.0
1001
ACAD
1000
AcDbSavedByObjectVersion
1070
     0
  0
VISUALSTYLE
  5
3F
102
{ACAD_XDICTIONARY
360
120B
102
}
102
{ACAD_REACTORS
330
29
102
}
330
29
100
AcDbVisualStyle
  2
JitterOff
 70
    20
 71
     2
 72
     2
 73
     0
 90
        0
 40
-0.6
 41
-30.0
 62
     5
 63
     7
 74
     1
 91
        4
 64
     7
 65
   257
 75
     1
175
     1
 42
1.0
 92
       10
 66
     7
 43
1.0
 76
     1
 77
     6
 78
     2
 67
     7
 79
     5
170
     0
171
     0
290
     0
174
     0
 93
        1
 44
0.0
173
     0
291
     1
 45
0.0
1001
ACAD
1000
AcDbSavedByObjectVersion
1070
     0
  0
VISUALSTYLE
  5
37
102
{ACAD_XDICTIONARY
360
11FB
102
}
102
{ACAD_REACTORS
330
29
102
}
330
29
100
AcDbVisualStyle
  2
Linepattern
 70
    14
 71
     2
 72
     2
 73
     0
 90
        0
 40
-0.6
 41
-30.0
 62
     5
 63
     7
 74
     1
 91
        4
 64
     7
 65
   257
 75
     7
175
     7
 42
1.0
 92
        8
 66
     7
 43
1.0
 76
     1
 77
     6
 78
     2
 67
     7
 79
     5
170
     0
171
     0
290
     0
174
     0
 93
        1
 44
0.0
173
     0
291
     1
 45
0.0
1001
ACAD
1000
AcDbSavedByObjectVersion
1070
     0
  0
VISUALSTYLE
  5
40
102
{ACAD_XDICTIONARY
360
120D
102
}
102
{ACAD_REACTORS
330
29
102
}
330
29
100
AcDbVisualStyle
  2
OverhangOff
 70
    21
 71
     2
 72
     2
 73
     0
 90
        0
 40
-0.6
 41
-30.0
 62
     5
 63
     7
 74
     1
 91
        4
 64
     7
 65
   257
 75
     1
175
     1
 42
1.0
 92
        9
 66
     7
 43
1.0
 76
     1
 77
     6
 78
     2
 67
     7
 79
     5
170
     0
171
     0
290
     0
174
     0
 93
        1
 44
0.0
173
     0
291
     1
 45
0.0
1001
ACAD
1000
AcDbSavedByObjectVersion
1070
     0
  0
VISUALSTYLE
  5
33
102
{ACAD_XDICTIONARY
360
11F3
102
}
102
{ACAD_REACTORS
330
29
102
}
330
29
100
AcDbVisualStyle
  2
Realistic
 70
     8
 71
     2
 72
     2
 73
     0
 90
        2
 40
-0.6
 41
30.0
 62
     5
 63
     7
 74
     0
 91
        0
 64
     7
 65
   257
 75
     1
175
     1
 42
1.0
 92
        8
 66
   257
 43
1.0
 76
     1
 77
     6
 78
     2
 67
     7
 79
     3
170
     0
171
     0
290
     0
174
     0
 93
       13
 44
0.0
173
     0
291
     0
 45
0.0
1001
ACAD
1000
AcDbSavedByObjectVersion
1070
     0
  0
VISUALSTYLE
  5
3E
102
{ACAD_XDICTIONARY
360
1209
102
}
102
{ACAD_REACTORS
330
29
102
}
330
29
100
AcDbVisualStyle
  2
Shaded
 70
    27
 71
     2
 72
     2
 73
     1
 90
        2
 40
-0.6
 41
30.0
 62
     5
 63
     7
 74
     0
 91
        4
 64
     7
 65
   257
 75
     1
175
     1
 42
1.0
 92
        8
 66
   257
 43
1.0
 76
     1
 77
     6
 78
     2
 67
     8
 79
     3
170
     0
171
     0
290
     0
174
     0
 93
        5
 44
0.0
173
     0
291
     0
 45
0.0
1001
ACAD
1000
AcDbSavedByObjectVersion
1070
     0
  0
VISUALSTYLE
  5
3D
102
{ACAD_XDICTIONARY
360
1207
102
}
102
{ACAD_REACTORS
330
29
102
}
330
29
100
AcDbVisualStyle
  2
Shaded with edges
 70
    26
 71
     2
 72
     2
 73
     1
 90
        2
 40
-0.6
 41
30.0
 62
     5
 63
     7
 74
     1
 91
       10
 64
     7
 65
   257
 75
     2
175
     1
 42
1.0
 92
        8
 66
   257
 43
1.0
 76
     1
 77
     6
 78
     2
 67
     7
 79
     3
170
     0
171
     0
290
     0
174
     0
 93
        5
 44
0.0
173
     0
291
     0
 45
0.0
1001
ACAD
1000
AcDbSavedByObjectVersion
1070
     0
  0
VISUALSTYLE
  5
3A
102
{ACAD_XDICTIONARY
360
1201
102
}
102
{ACAD_REACTORS
330
29
102
}
330
29
100
AcDbVisualStyle
  2
Shades of Gray
 70
    23
 71
     2
 72
     2
 73
     3
 90
        0
 40
-0.6
 41
-30.0
 62
     5
 63
     7
 74
     2
 91
        2
 64
     7
 65
     7
 75
     1
175
     1
 42
40.0
 92
        8
 66
     7
 43
1.0
 76
     1
 77
     6
 78
     2
 67
     7
 79
     3
170
     0
171
     0
290
     0
174
     0
 93
        1
 44
0.0
173
     0
291
     0
 45
0.0
1001
ACAD
1000
AcDbSavedByObjectVersion
1070
     0
  0
VISUALSTYLE
  5
3B
102
{ACAD_XDICTIONARY
360
1203
102
}
102
{ACAD_REACTORS
330
29
102
}
330
29
100
AcDbVisualStyle
  2
Sketchy
 70
    24
 71
     1
 72
     2
 73
     2
 90
        0
 40
-0.6
 41
-30.0
 62
     5
 63
     7
 74
     2
 91
        2
 64
     7
 65
     7
 75
     1
175
     1
 42
40.0
 92
       11
 66
     7
 43
1.0
 76
     1
 77
     6
 78
     2
 67
     7
 79
     6
170
     0
171
     0
290
     0
174
     0
 93
        1
 44
0.0
173
     0
291
     0
 45
0.0
1001
ACAD
1000
AcDbSavedByObjectVersion
1070
     0
  0
VISUALSTYLE
  5
36
102
{ACAD_XDICTIONARY
360
11F9
102
}
102
{ACAD_REACTORS
330
29
102
}
330
29
100
AcDbVisualStyle
  2
Thicken
 70
    13
 71
     2
 72
     2
 73
     0
 90
        0
 40
-0.6
 41
-30.0
 62
     5
 63
     7
 74
     1
 91
        4
 64
     7
 65
   257
 75
     1
175
     1
 42
1.0
 92
       12
 66
     7
 43
1.0
 76
     1
 77
     6
 78
     2
 67
     7
 79
     5
170
     0
171
     0
290
     0
174
     0
 93
        1
 44
0.0
173
     0
291
     1
 45
0.0
1001
ACAD
1000
AcDbSavedByObjectVersion
1070
     0
  0
VISUALSTYLE
  5
30
102
{ACAD_XDICTIONARY
360
11ED
102
}
102
{ACAD_REACTORS
330
29
102
}
330
29
100
AcDbVisualStyle
  2
Wireframe
 70
     5
 71
     0
 72
     2
 73
     0
 90
        0
 40
-0.6
 41
-30.0
 62
     5
 63
     7
 74
     1
 91
        4
 64
     7
 65
   257
 75
     1
175
     1
 42
1.0
 92
        0
 66
   257
 43
1.0
 76
     1
 77
     6
 78
     2
 67
     7
 79
     3
170
     0
171
     0
290
     0
174
     0
 93
        1
 44
0.0
173
     0
291
     0
 45
0.0
1001
ACAD
1000
AcDbSavedByObjectVersion
1070
     0
  0
VISUALSTYLE
  5
3C
102
{ACAD_XDICTIONARY
360
1205
102
}
102
{ACAD_REACTORS
330
29
102
}
330
29
100
AcDbVisualStyle
  2
X-Ray
 70
    25
 71
     2
 72
     2
 73
     1
 90
        1
 40
0.5
 41
-30.0
 62
     5
 63
     7
 74
     1
 91
        0
 64
     7
 65
   257
 75
     1
175
     1
 42
1.0
 92
        8
 66
     7
 43
1.0
 76
     1
 77
     6
 78
     2
 67
     7
 79
     3
170
     0
171
     0
290
     0
174
     0
 93
       13
 44
0.0
173
     0
291
     0
 45
0.0
1001
ACAD
1000
AcDbSavedByObjectVersion
1070
     0
  0
DICTIONARYVAR
  5
2E4
102
{ACAD_REACTORS
330
2E0
102
}
330
2E0
100
DictionaryVariables
280
     0
  1
1:1
  0
DICTIONARYVAR
  5
2E2
102
{ACAD_REACTORS
330
2E0
102
}
330
2E0
100
DictionaryVariables
280
     0
  1
STANDARD
  0
DICTIONARYVAR
  5
2E1
102
{ACAD_REACTORS
330
2E0
102
}
330
2E0
100
DictionaryVariables
280
     0
  1
STANDARD
  0
DICTIONARYVAR
  5
2EB
102
{ACAD_REACTORS
330
2E0
102
}
330
2E0
100
DictionaryVariables
280
     0
  1
2
  0
DICTIONARYVAR
  5
2EA
102
{ACAD_REACTORS
330
2E0
102
}
330
2E0
100
DictionaryVariables
280
     0
  1
1
  0
DICTIONARYVAR
  5
2E9
102
{ACAD_REACTORS
330
2E0
102
}
330
2E0
100
DictionaryVariables
280
     0
  1
0
  0
DICTIONARYVAR
  5
11D1
102
{ACAD_REACTORS
330
2E0
102
}
330
2E0
100
DictionaryVariables
280
     0
  1
0.000000
  0
DICTIONARYVAR
  5
2E6
102
{ACAD_REACTORS
330
2E0
102
}
330
2E0
100
DictionaryVariables
280
     0
  1
0
  0
DICTIONARYVAR
  5
2E7
102
{ACAD_REACTORS
330
2E0
102
}
330
2E0
100
DictionaryVariables
280
     0
  1
0
  0
DICTIONARYVAR
  5
2E5
102
{ACAD_REACTORS
330
2E0
102
}
330
2E0
100
DictionaryVariables
280
     0
  1
2
  0
DICTIONARYVAR
  5
11D2
102
{ACAD_REACTORS
330
2E0
102
}
330
2E0
100
DictionaryVariables
280
     0
  1
0.000000
  0
DICTIONARYVAR
  5
2E3
102
{ACAD_REACTORS
330
2E0
102
}
330
2E0
100
DictionaryVariables
280
     0
  1
1
  0
DICTIONARYVAR
  5
2E8
102
{ACAD_REACTORS
330
2E0
102
}
330
2E0
100
DictionaryVariables
280
     0
  1
127
  0
DICTIONARYVAR
  5
11D3
102
{ACAD_REACTORS
330
2E0
102
}
330
2E0
100
DictionaryVariables
280
     0
  1
0
  0
DICTIONARYVAR
  5
11D4
102
{ACAD_REACTORS
330
2E0
102
}
330
2E0
100
DictionaryVariables
280
     0
  1
2
  0
XRECORD
  5
293
102
{ACAD_REACTORS
330
290
102
}
330
290
100
AcDbXrecord
280
     1
  1
BUILDING_ID
  1
D90
  1
FLOOR_ID
  1
252381
  0
XRECORD
  5
292
102
{ACAD_REACTORS
330
290
102
}
330
290
100
AcDbXrecord
280
     1
  1
-2000151
  1
Generic Models
  1
-2000300
  1
Text Notes
  1
-2001300
  1
Structural Foundations
  0
XRECORD
  5
291
102
{ACAD_REACTORS
330
290
102
}
330
290
100
AcDbXrecord
280
     1
  1
248164
  1
CPS7 : A34
  1
248226
  1
Text : 1/20"
  1
248233
  1
Text : 3/32"
  1
248237
  1
Text : 1/16"
  1
250463
  1
Generic Models 5 : Generic Models 1
  1
252395
  1
Foundation Slab : 6" Foundation Slab 2
  0
DICTIONARY
  5
2FF
330
6B
100
AcDbDictionary
280
     1
281
     1
  3
ACAD_XREC_ROUNDTRIP
360
1212
  3
ADSK_XREC_LAYOUTTHUMBNAIL
360
300
  0
DICTIONARY
  5
1215
330
73
100
AcDbDictionary
280
     1
281
     1
  3
ACAD_XREC_ROUNDTRIP
360
1216
  0
DICTIONARY
  5
1213
330
6F
100
AcDbDictionary
280
     1
281
     1
  3
ACAD_XREC_ROUNDTRIP
360
1214
  0
DICTIONARY
  5
1A
330
19
100
AcDbDictionary
280
     1
281
     1
  3
ACAD_XREC_ROUNDTRIP
360
11DF
  3
BUMPTILE
360
1C
  3
DIFFUSETILE
360
1B
  3
OPACITYTILE
360
1F
  3
REFLECTIONTILE
360
1E
  3
REFRACTIONTILE
360
20
  3
SPECULARTILE
360
1D
  0
DICTIONARY
  5
12
330
11
100
AcDbDictionary
280
     1
281
     1
  3
ACAD_XREC_ROUNDTRIP
360
11DE
  3
BUMPTILE
360
14
  3
DIFFUSETILE
360
13
  3
OPACITYTILE
360
17
  3
REFLECTIONTILE
360
16
  3
REFRACTIONTILE
360
18
  3
SPECULARTILE
360
15
  0
DICTIONARY
  5
22
330
21
100
AcDbDictionary
280
     1
281
     1
  3
ACAD_XREC_ROUNDTRIP
360
11E0
  3
BUMPTILE
360
24
  3
DIFFUSETILE
360
23
  3
OPACITYTILE
360
27
  3
REFLECTIONTILE
360
26
  3
REFRACTIONTILE
360
28
  3
SPECULARTILE
360
25
  0
DICTIONARY
  5
11D6
330
67
100
AcDbDictionary
280
     1
281
     1
  3
ACAD_XREC_ROUNDTRIP
360
11D7
  0
DICTIONARY
  5
297
330
65
100
AcDbDictionary
280
     1
281
     1
  3
ACAD_ROUNDTRIP_2008_TABLESTYLE_CELLSTYLEMAP
360
11D5
  3
ACAD_XREC_ROUNDTRIP
360
1211
  0
DICTIONARY
  5
11EB
330
2F
100
AcDbDictionary
280
     1
281
     1
  3
ACAD_XREC_ROUNDTRIP
360
11EC
  0
DICTIONARY
  5
11E9
330
2E
100
AcDbDictionary
280
     1
281
     1
  3
ACAD_XREC_ROUNDTRIP
360
11EA
  0
DICTIONARY
  5
11F7
330
35
100
AcDbDictionary
280
     1
281
     1
  3
ACAD_XREC_ROUNDTRIP
360
11F8
  0
DICTIONARY
  5
11FF
330
39
100
AcDbDictionary
280
     1
281
     1
  3
ACAD_XREC_ROUNDTRIP
360
1200
  0
DICTIONARY
  5
11F1
330
32
100
AcDbDictionary
280
     1
281
     1
  3
ACAD_XREC_ROUNDTRIP
360
11F2
  0
DICTIONARY
  5
11F5
330
34
100
AcDbDictionary
280
     1
281
     1
  3
ACAD_XREC_ROUNDTRIP
360
11F6
  0
DICTIONARY
  5
120F
330
41
100
AcDbDictionary
280
     1
281
     1
  3
ACAD_XREC_ROUNDTRIP
360
1210
  0
DICTIONARY
  5
11FD
330
38
100
AcDbDictionary
280
     1
281
     1
  3
ACAD_XREC_ROUNDTRIP
360
11FE
  0
DICTIONARY
  5
11E1
330
2A
100
AcDbDictionary
280
     1
281
     1
  3
ACAD_XREC_ROUNDTRIP
360
11E2
  0
DICTIONARY
  5
11E3
330
2B
100
AcDbDictionary
280
     1
281
     1
  3
ACAD_XREC_ROUNDTRIP
360
11E4
  0
DICTIONARY
  5
11E5
330
2C
100
AcDbDictionary
280
     1
281
     1
  3
ACAD_XREC_ROUNDTRIP
360
11E6
  0
DICTIONARY
  5
11E7
330
2D
100
AcDbDictionary
280
     1
281
     1
  3
ACAD_XREC_ROUNDTRIP
360
11E8
  0
DICTIONARY
  5
11EF
330
31
100
AcDbDictionary
280
     1
281
     1
  3
ACAD_XREC_ROUNDTRIP
360
11F0
  0
DICTIONARY
  5
120B
330
3F
100
AcDbDictionary
280
     1
281
     1
  3
ACAD_XREC_ROUNDTRIP
360
120C
  0
DICTIONARY
  5
11FB
330
37
100
AcDbDictionary
280
     1
281
     1
  3
ACAD_XREC_ROUNDTRIP
360
11FC
  0
DICTIONARY
  5
120D
330
40
100
AcDbDictionary
280
     1
281
     1
  3
ACAD_XREC_ROUNDTRIP
360
120E
  0
DICTIONARY
  5
11F3
330
33
100
AcDbDictionary
280
     1
281
     1
  3
ACAD_XREC_ROUNDTRIP
360
11F4
  0
DICTIONARY
  5
1209
330
3E
100
AcDbDictionary
280
     1
281
     1
  3
ACAD_XREC_ROUNDTRIP
360
120A
  0
DICTIONARY
  5
1207
330
3D
100
AcDbDictionary
280
     1
281
     1
  3
ACAD_XREC_ROUNDTRIP
360
1208
  0
DICTIONARY
  5
1201
330
3A
100
AcDbDictionary
280
     1
281
     1
  3
ACAD_XREC_ROUNDTRIP
360
1202
  0
DICTIONARY
  5
1203
330
3B
100
AcDbDictionary
280
     1
281
     1
  3
ACAD_XREC_ROUNDTRIP
360
1204
  0
DICTIONARY
  5
11F9
330
36
100
AcDbDictionary
280
     1
281
     1
  3
ACAD_XREC_ROUNDTRIP
360
11FA
  0
DICTIONARY
  5
11ED
330
30
100
AcDbDictionary
280
     1
281
     1
  3
ACAD_XREC_ROUNDTRIP
360
11EE
  0
DICTIONARY
  5
1205
330
3C
100
AcDbDictionary
280
     1
281
     1
  3
ACAD_XREC_ROUNDTRIP
360
1206
  0
XRECORD
  5
1212
102
{ACAD_REACTORS
330
2FF
102
}
330
2FF
100
AcDbXrecord
280
     1
102
SHADEPLOT
 70
     0
102
SHADEPLOTRESLEVEL
 70
     2
102
SHADEPLOTCUSTOMDPI
 70
   300
  0
XRECORD
  5
300
102
{ACAD_REACTORS
330
2FF
102
}
330
2FF
100
AcDbXrecord
280
     1
310
28000000B40000007F00000001000800000000004C59000000000000000000000001000000000000FFFFFF0000000000FFFFFF000000000000000000000000000000000000000000000000000000000000000000330000006600000099000000CC000000FF00000000330000333300006633000099330000CC330000FF3300
310
0000660000336600006666000099660000CC660000FF66000000990000339900006699000099990000CC990000FF99000000CC000033CC000066CC000099CC0000CCCC0000FFCC000000FF000033FF000066FF000099FF0000CCFF0000FFFF000000003300330033006600330099003300CC003300FF003300003333003333
310
33006633330099333300CC333300FF33330000663300336633006666330099663300CC663300FF66330000993300339933006699330099993300CC993300FF99330000CC330033CC330066CC330099CC3300CCCC3300FFCC330000FF330033FF330066FF330099FF3300CCFF3300FFFF330000006600330066006600660099
310
006600CC006600FF00660000336600333366006633660099336600CC336600FF33660000666600336666006666660099666600CC666600FF66660000996600339966006699660099996600CC996600FF99660000CC660033CC660066CC660099CC6600CCCC6600FFCC660000FF660033FF660066FF660099FF6600CCFF6600
310
FFFF660000009900330099006600990099009900CC009900FF00990000339900333399006633990099339900CC339900FF33990000669900336699006666990099669900CC669900FF66990000999900339999006699990099999900CC999900FF99990000CC990033CC990066CC990099CC9900CCCC9900FFCC990000FF99
310
0033FF990066FF990099FF9900CCFF9900FFFF99000000CC003300CC006600CC009900CC00CC00CC00FF00CC000033CC003333CC006633CC009933CC00CC33CC00FF33CC000066CC003366CC006666CC009966CC00CC66CC00FF66CC000099CC003399CC006699CC009999CC00CC99CC00FF99CC0000CCCC0033CCCC0066CC
310
CC0099CCCC00CCCCCC00FFCCCC0000FFCC0033FFCC0066FFCC0099FFCC00CCFFCC00FFFFCC000000FF003300FF006600FF009900FF00CC00FF00FF00FF000033FF003333FF006633FF009933FF00CC33FF00FF33FF000066FF003366FF006666FF009966FF00CC66FF00FF66FF000099FF003399FF006699FF009999FF00CC
310
99FF00FF99FF0000CCFF0033CCFF0066CCFF0099CCFF00CCCCFF00FFCCFF0000FFFF0033FFFF0066FFFF0099FFFF00CCFFFF00FFFFFF00000000000D0D0D001A1A1A00282828003535350043434300505050005D5D5D006B6B6B00787878008686860093939300A1A1A100AEAEAE00BBBBBB00C9C9C900D6D6D600E4E4E400
310
F1F1F100FFFFFF0000000000000000000000000000000000000000000000000000000000000000000000000000000000E2E2E2E2E2E2E2E2E2E2E2E2E2E2E2E2E2E2E2E2E2E2E2E2E2E2E2E2E2E2E2E2E2E2E2E2E2E2E2E2E2E2E2E2E2E2E2E2E2E2E2E2E2E2E2E2E2E2E2E2E2E2E2E2E2E2E2E2E2E2E2E2E2E2E2E2E2E2E2
310
E2E2E2E2E2E2E2E2E2E2E2E2E2E2E2E2E2E2E2E2E2E2E2E2E2E2E2E2E2E2E2E2E2E2E2E2E2E2E2E2E2E2E2E2E2E2E2E2E2E2E2E2E2E2E2E2E2E2E2E2E2E2E2E2E2E2E2E2E2E2E2E2E2E2E2E2E2E2E2E2E2E2E2E2E2E2E2E2E2E2E2E2E2E2E2E2E2E2E2E2E2E200000000000000000000000000000000000000000000000000
310
00000000000000000000000000000000000000000000000000000000000000000000000000000000000000000000000000000000000000000000000000000000000000000000000000000000000000000000000000000000000000000000000000000000000000000000000000000000000000000000000000000000000000
310
0000000000000000000000000000000000000000000000000000E2E2000000000000000000000000000000000000000000000000000000000000000000000000000000000000000000000000000000000000000000000000000000000000000000000000000000000000000000000000000000000000000000000000000000
310
00000000000000000000000000000000000000000000000000000000000000000000000000000000000000000000000000000000000000000000000000000000000000000000000000000000000000E2E200000000000000000000000000000000000000000000000000000000000000000000000000000000000000000000
310
00000000000000000000000000000000000000000000000000000000000000000000000000000000000000000000000000000000000000000000000000000000000000000000000000000000000000000000000000000000000000000000000000000000000000000000000000000000000000000000000000000000000000
310
0000000000E2E20000E2E2E2E2E2E2E2E2000000000000000000E2E2E2E2E2E2E2E2E2E2E2E2E2E2E2E2000000000000000000E2E2E2E2E2E2E2E2E2E2E2000000000000000000000000000000000000000000000000000000E2E2000000000000000000E2E2E2E2E2E2E2E2E2E2E2E2E2E2E2E20000000000000000E2E2E2
310
E2E2E2E2E2E2E2E2E2E2E2E2E2000000000000000000E2E2E2E2E2E2E2E2E2E2E2E2E2E2E2E2000000000000000000E2E2E2E2E2E2E2E2000000E2E20000E200000000000000000000000000000000000000000000000000000000000000000000000000000000000000000000000000000000000000000000000000000000
310
0000000000000000000000000000000000000000000000000000000000000000000000000000000000000000000000000000000000000000000000000000000000000000000000000000000000000000000000000000000000000000000000000000000000000000000000E2000000E2E20000E20000000000000000000000
310
00000000000000000000000000000000000000000000000000000000000000000000000000000000000000000000000000000000000000000000000000000000000000000000000000000000000000000000000000000000000000000000000000000000000000000000000000000000000000000000000000000000000000
310
000000000000000000000000000000000000000000000000000000000000000000E2000000E2E20000E2000000000000000000000000000000000000000000000000000000000000000000000000000000000000000000000000000000000000E2E2E2E20000E200000000E2E2E2000000E200000000000000000000000000
310
0000000000000000000000000000000000000000000000000000000000000000000000000000000000000000000000000000000000000000000000000000000000000000000000000000000000000000000000000000E2000000E2E20000E20000000000000000000000000000000000000000000000000000000000000000
310
000000000000000000000000000000000000000000E2E2000000E200E200000000E200E200E2E2E2E20000000000000000000000000000000000000000000000000000000000000000000000000000000000000000000000000000000000000000000000000000000000000000000000000000000000000000000000000000
310
000000000000000000000000E2000000E2E20000E20000000000000000000000000000000000000000000000000000000000000000000000000000000000000000000000000000000000E2000000000000E2E2E2000000E2E200E200E200000000000000000000000000000000000000000000000000000000000000000000
310
0000000000000000000000000000000000000000000000000000000000000000000000000000000000000000000000000000000000000000000000000000000000E2000000E2E20000E20000000000000000000000000000000000000000000000000000000000000000000000000000000000000000000000000000000000
310
E2000000000000E20000E200E2E2000000E2E2000000000000000000000000000000000000000000000000000000000000000000000000000000000000000000000000000000000000000000000000000000000000000000000000000000000000000000000000000000000000000000000000000000E2000000E2E20000E2
310
0F0F0F0F0F0F0F0F0F0F0F0F0F0F0F0F0F0F0F0F0F0F0F0F0F0F0F0F0F0F0F0F0F0F0F0F0F0F0F0F0F0F0F0F0F0F0F0F0F0F0F0F00E2E2000000E200E20000E200E200E20000E2E2000000000000000F0F0F0F0F0F0F0F0F0F0F0F0F0F0F0F0F0F0F0F0F0F0F0F0F0F0F0F0F0F0F0F0F0F0F0F0F0F0F0F0F0F0F0F0F0F0F0F
310
0F0F0F0F0F0F0F0F0F0000000000000000000000000000000000000000000000000000000000000000000000E2000000E2E20000000F0000000000000000000000000000000000000000000000000000000000000000000000000000000000000000000000000000000000E2E2E2E20000E2E2E2E200E2E2E2000000E20000
310
000000000000000000000000000000000000000000000000000000000000000000000000000000000000000000000000000000000000000000000000000F000000000000000000000000000000000000000000000000000000000000000000000000000000E2E20000000F0000000000000000000000000000000000000000
310
0000000000000000000000000000000000000000000000000000000000000000000000000000000000000000000000000000000000000000000000000000000000000000000000000000000000000000000000000000000000000000000000000000000000000000000000000000000000000F000000000000000000000000
310
000000000000000000000000000000000000000000000000000000E2E20000000F00000000000000000000000000000000000000000000000000000000000000000000000000000000000000000000000000000000000000000000000000000000000000000000000000000000000000000000000000000000000000000000
310
000000000000000000000000000000000000000000000000000000000000000000000000000000000F000000000000000000000000000000000000000000000000000000000000000000000000000000E2E20000000F0000000000000000000000000000000000000000000000000000000000000000000000000000000000
310
0000000000000000000000000000000000000000000000000000000000000000000000000000000000000000000000000000000000000000000000000000000000000000000000000000000000000000000000000000000000000000000F000000000000000000000000000000000000000000000000000000000000000000
310
000000000000E2E20000000F00000000000000000000000000000000000000000000000000000000000000000000000000000000000000000000000000000000000000000000000000000000000000000000000000000000000000000000000000000000000000000000000000000000000000000000000000000000000000
310
000000000000000000000000000000000000000F000000000000000000000000000000000000000000000000000000000000000000000000000000E2E20000000F0000000000000000000000000000000000000000000000000000000000000000000000000000000000000000000000000000000000000000000000000000
310
0000000000000000000000000000000000000000000000000000000000000000000000000000000000000000000000000000000000000000000000000000000000000000000000000F000000000000000000000000000000000000000000000000000000000000000000000000000000E2E20000000F000000000000000000
310
00000000000000000000000000000000000000000000000000000000000000000000000000000000000000000000000000000000000000000000000000000000000000000000000000000000000000000000000000000000000000000000000000000000000000000000000000000000000000000000000000000000000F00
310
0000000000000000000000000000000000000000000000000000000000000000000000000000E2E20000000F0000000000000000000000000000000000000000000000000000000000000000000000000000000000000000000000000000000000000000000000000000000000000000000000000000000000000000000000
310
0000000000000000000000000000000000000000000000000000000000000000000000000000000000000000000000000000000F000000000000000000000000000000000000000000000000000000000000000000000000000000E2E20000E20F000000000000000000000000000000000000000000000000000000000000
310
00000000000000000000000000000000000000000000000000000000000000000000000000000000000000000000000000000000000000000000000000000000000000000000000000000000000000000000000000000000000000000000000000000000000000000F00000000000000000000000000000000000000000000
310
00000000000000000000000000E2000000E2E20000E20F0000000000000000000000000000000000000000000000000000000000000000000000000000000000000000000000000000000000000000000000000000000000000000000000000000000000000000000000000000000000000000000000000000000000000000
310
0000000000000000000000000000000000000000000000000000000000000F0000000000000000000000000000000000000000000000000000000000000000000000E2000000E2E20000E20F000000000000000000000000000000000000000000000000000000000000000000000000000000000000000000000000000000
310
00000000000000000000000000000000000000000000000000000000000000000000000000000000000000000000000000000000000000000000000000000000000000000000000000000000000000000000000F0000000000000000000000000000000000000000000000000000000000000000000000E2000000E2E20000
310
E20F0000000000000000000000000000000000000000000000000000000000000000000000000000000000000000000000000000000000000000000000000000000000000000000000000000000000000000000000000000000000000000000000000000000000000000000000000000000000000000000000000000000000
310
0000000000000000000F0000000000000000000000000000000000000000000000000000000000000000000000E2000000E2E20000E20F000000000000000000000000000000000000000000000000000000000000000000000000000000000000000000000000000000000000000000000000000000000000000000000000
310
00000000000000000000000000000000000000000000000000000000000000000000000000000000000000000000000000000000000000000000000000000F0000000000000000000000000000000000000000000000000000000000000000000000E2000000E2E20000E20F00000000000000000000000000000000000000
310
000000000000000000000000000000000000000000000000000000000000000000000000000000000000000000000000000000000000000000000000000000000000000000000000000000000000000000000000000000000000000000000000000000000000000000000000000000000000000F0000000000000000000000
310
000000000000000000000000000000000000000000000000E2000000E2E20000E20F000000000000000000000000000000000000000000000000000000000000000000000000000000000000000000000000000000000000000000000000000000000000000000000000000000000000000000000000000000000000000000
310
00000000000000000000000000000000000000000000000000000000000000000000000000000000000F0000000000000000000000000000000000000000000000000000000000000000000000E2000000E2E20000E20F00000000000000000000000000000000000000000000000000000000000000000000000000000000
310
000000000000000000000000000000000000000000000000000000000000000000000000000000000000000000000000000000000000000000000000000000000000000000000000000000000000000000000000000000000000000000000F0000000000000000000000000000000000000000000000000000000000000000
310
000000E2000000E2E20000E20F000000000000000000000000000000000000000000000000000000000000000000000000000000000000000000000000000000000000000000000000000000000000000000000000000000000000000000000000000000000000000000000000000000000000000000000000000000000000
310
00000000000000000000000000000000000000000F0000000000000000000000000000000000000000000000000000000000000000000000E2000000E2E20000E20F00000000000000000000000000000000000000000000000000000000000000000000000000000000000000000000000000000000000000000000000000
310
000000000000000000000000000000000000000000000000000000000000000000000000000000000000000000000000000000000000000000000000000000000000000000000000000F0000000000000000000000000000000000000000000000000000000000000000000000E2000000E2E20000E20F0000000000000000
310
0000000000000000000000000000000000000000000000000000000000000000000000000000000000000000000000000000000000000000000000000000000000000000000000000000000000000000000000000000000000000000000000000000000000000000000000000000000000000000000000000000000000000F
310
0000000000000000000000000000000000000000000000000000000000000000000000E2000000E2E20000E20F00000000000000000000000000000000000000000000000000000000000000000000000000000000000000000000000000000000000000000000000000000000000000000000000000000000000000000000
310
000000000000000000000000000000000000000000000000000000000000000000000000000000000000000000000000000000000F0000000000000000000000000000000000000000000000000000000000000000000000E2000000E2E20000E20F0000000000000000000000000000000000000000000000000000000000
310
0000000000000000000000000000000000000000000000000000000000000000000000000000000000000000000000000000000000000000000000000000000000000000000000000000000000000000000000000000000000000000000000000000000000000000000F000000000000000000000000000000000000000000
310
0000000000000000000000000000E2000000E2E20000E20F00000000000000000000000000000000000000000000000000000000000000000000000000000000000000000000000000000000000000000000000000000000000000000000000000000000000000000000000000000000000000000000000000000000000000
310
000000000000000000000000000000000000000000000000000000000000000F0000000000000000000000000000000000000000000000000000000000000000000000E2000000E2E20000E20F0000000000000000000000000000000000000000000000000000000000000000000000000000000000000000000000000000
310
0000000000000000000000000000000000000000000000000000000000000000000000000000000000000000000000000000000000000000000000000000000000000000000000000000000000000000000000000F0000000000000000000000000000000000000000000000000000000000000000000000E2000000E2E200
310
00000F00000000000000000000000000000000000000000000000000000000000000000000000000000000000000000000000000000000000000000000000000000000000000000000000000000000000000000000000000000000000000000000000000000000000000000000000000000000000000000000000000000000
310
000000000000000000000F000000000000000000000000000000000000000000000000000000000000000000000000000000E2E20000000F0000000000000000000000000000000000000000000000000000000000000000000000000000000000000000000000000000000000000000000000000000000000000000000000
310
0000000000000000000000000000000000000000000000000000000000000000000000000000000000000000000000000000000000000000000000000000000F000000000000000000000000000000000000000000000000000000000000000000000000000000E2E20000000F000000000000000000000000000000000000
310
00000000000000000000000000000000000000000000000000000000000000000000000000000000000000000000000000000000000000000000000000000000000000000000000000000000000000000000000000000000000000000000000000000000000000000000000000000000000000000F00000000000000000000
310
0000000000000000000000000000000000000000000000000000000000E2E20000000F0000000000000000000000000000000000000000000000000000000000000000000000000000000000000000000000000000000000000000000000000000000000000000000000000000000000000000000000000000000000000000
310
0000000000000000000000000000000000000000000000000000000000000000000000000000000000000F000000000000000000000000000000000000000000000000000000000000000000000000000000E2E20000000F000000000000000000000000000000000000000000000000000000000000000000000000000000
310
00000000000000000000000000000000000000000000000000000000000000000000000000000000000000000000000000000000000000000000000000000000000000000000000000000000000000000000000000000000000000000000000F00000000000000000000000000000000000000000000000000000000000000
310
0000000000000000E2E20000000F0000000000000000000000000000000000000000000000000000000000000000000000000000000000000000000000000000000000000000000000000000000000000000000000000000000000000000000000000000000000000000000000000000000000000000000000000000000000
310
0000000000000000000000000000000000000000000F000000000000000000000000000000000000000000000000000000000000000000000000000000E2E20000000F000000000000000000000000000000000000000000000000000000000000000000000000000000000000000000000000000000000000000000000000
310
00000000000000000000000000000000000000000000000000000000000000000000000000000000000000000000000000000000000000000000000000000000000000000000000000000F000000000000000000000000000000000000000000000000000000000000000000000000000000E2E20000000F00000000000000
310
00000000000000000000000000000000000000000000000000000000000000000000000000000000000000000000000000000000000000002D2D2D2D00000000000000000000000000000000000000000000000000000000000000000000000000000000000000000000000000000000000000000000000000000000000000
310
0F000000000000000000000000000000000000000000000000000000000000000000000000000000E2E20000000F00000000000000000000000000000000000000000000000000000000000000000000000000000000000000000000000000000000000000000000002D2D2D2D002D00002D2D2D2D2D000000000000000000
310
00000000000000000000000000000000000000000000000000000000000000000000000000000000000000000000000000000000000F000000000000000000000000000000000000000000000000000000000000000000000000000000E2E20000E20F00000000000000000000000000000000000000000000000000000000
310
000000000000000000000000000000000000000000000000000000002D2D2D00000000002D00000000002D2D2D2D2D2D000000000000000000000000000000000000000000000000000000000000000000000000000000000000000000000000000000000000000000000F0000000000000000000000000000000000000000
310
000000000000000000000000000000E2000000E2E20000E20F00000000000000000000000000000000000000000000000000000000000000000000000000000000000000000000000000000000002D2D2D2D000000000000002D00000000002D00000000002D2D2D2D00000000000000000000000000000000000000000000
310
00000000000000000000000000000000000000000000000000000000000000000F0000000000000000000000000000000000000000000000000000000000000000000000E2000000E2E20000E20F00000000000000000000000000000000000000000000000000000000000000000000000000000000000000000000000000
310
2D2D2D2D0000002D2D0000000000002D00002D2D2D2D0000000000000000002D2D2D2D00000000000000000000000000000000000000000000000000000000000000000000000000000000000000000000000000000F0000000000000000000000000000000000000000000000000000000000000000000000E2000000E2E2
310
0000E20F000000000000000000000000000000000000000000000000000000000000000000000000000000000000000000002D2D2D0000000000002D2D000000000000002D00000000002D000000000000000000000000002D2D2D2D2D00000000000000000000000000000000000000000000000000000000000000000000
310
00000000000000000000000F0000000000000000000000000000000000000000000000000000000000000000000000E2000000E2E20000E20F000000000000000000000000000000000000000000000000000000000000000000000000000000000000002D2D2D0000000000000000002D00000000000000002D0000000000
310
2D002D2D00000000002D2D000000002D2D00002D2D2D2D00000000000000000000000000000000000000000000000000000000000000000000000000000000000F0000000000000000000000000000000000000000000000000000000000000000000000E2000000E2E20000E20F0000000000000000000000000000000000
310
000000000000000000000000000000000000000000002D2D2D2D002D000000000000000000000000000000000000002D0000000000000000000000000000000000000000002D0000002D2D2D2D2D2D2D2D0000000000000000000000000000000000000000000000000000000000000000000000000F000000000000000000
310
0000000000000000000000000000000000000000000000000000E2000000E2E20000E20F0000000000000000000000000000000000000000000000000000000000000000000000002D2D2D2D000000000000000000000000000000000000002D00002D002D000000000000000000000000000000002D000000002D00000000
310
2D2D00000000002D2D2D2D00000000000000000000000000000000000000000000000000000000000000000F0000000000000000000000000000000000000000000000000000000000000000000000E2000000E2E20000E20F00000000000000000000000000000000000000000000000000000000000000002D2D2D2D0000
310
0000000000000000002D0000002D2D0000000000000000002D2D2D000000002D2D000000000000000000002D000000000000000000000000000000000000002D2D2D2D2D000000000000000000000000000000000000000000000000000000000F000000000000000000000000000000000000000000000000000000000000
310
0000000000E2000000E2E20000E20F00000000000000000000000000000000000000000000000000000000002D2D2D0000002D2D0000000000000000000000000000000000000000000000002D2D2D2D00000000000000000000000000000000000000000000000000002D000000000000000000002D0000002D2D2D2D2D00
310
000000000000000000000000000000000000000000000F0000000000000000000000000000000000000000000000000000000000000000000000E2000000E2E20000E20F00000000000000000000000000000000000000000000000000002D2D2D2D2D00000000000000000000000000000000000000000000000000000000
310
00000000002D000000000000000000000000000000000000000000000000002D002D0000000000000000000000000000000000002D2D2D2D000000000000000000000000000000000000000F0000000000000000000000000000000000000000000000000000000000000000000000E2000000E2E20000E20F000000000000
310
000000000000000000000000000000002D2D2D2D00000000000000000000000000000000000000000000000000000000000000000000000000002D00000000000000000000000000000000000000002D2D000000002D2D000000000000000000002D002D000000000000002D002D2D2D000000000000000000000000000000
310
000F0000000000000000000000000000000000000000000000000000000000000000000000E2000000E2E20000E20F00000000000000000000000000000000000000002D2D0000000000000000000000000000002D00000000000000000000000000000000000000000000000000002D000000000000000000000000000000
310
0000000000000000000000002D000000000000000000002D0000000000000000002D0000002D000000000000000000000000000000000F0000000000000000000000000000000000000000000000000000000000000000000000E2000000E2E20000E20F00000000000000000000000000000000000000002D2D2D00000000
310
00000000000000002D2D2D0000000000000000002D0000000000000000002D00000000002D2D00000000002D000000000000000000000000002D000000000000000000000000000000000000000000000000002D0000000000002D000000000000000000000000000000000F00000000000000000000000000000000000000
310
00000000000000000000000000000000E2000000E2E20000E20F00000000000000000000000000000000000000002D2D2D000000000000000000000000002D002D0000000000000000002D00000000000000000000000000002D2D00000000002D000000000000000000000000000000000000000000000000000000000000
310
000000000000000000000000000000002D000000000000000000000000000000000F0000000000000000000000000000000000000000000000000000000000000000000000E2000000E2E20000E20F00000000000000000000000000000000000000002D00000000000000002D0000000000002D002D000000000000000000
310
000000000000000000000000000000002D0000000000000000000000000000000000000000000000002D0000000000000000000000000000000000000000000000000000002D000000000000000000000000000000000F0000000000000000000000000000000000000000000000000000000000000000000000E2000000E2
310
E20000000F00000000000000000000000000000000000000002D2D0000000000000000000000000000000000000000000000000000000000000000000000000000000000002D000000000000000000000000000000000000000000000000002D000000000000002D000000002D00000000000000000000002D002D00000000
310
0000000000000000000000000F000000000000000000000000000000000000000000000000000000000000000000000000000000E2E20000000F00000000000000000000000000000000000000002D0000000000000000000000000000002D000000000000000000000000000000002D00002D2D0000000000002D00000000
310
0000000000000000000000002D000000000000000000000000000000002D000000002D000000000000000000002D00002D000000000000000000000000000000000F000000000000000000000000000000000000000000000000000000000000000000000000000000E2E20000000F00000000000000000000000000000000
310
000000002D0000000000000000000000000000002D0000000000000000000000000000002D000000002D0000000000002D00002D000000000000000000002D0000002D00000000000000000000000000002D000000000000000000000000000000000000002D000000000000000000000000000000000F0000000000000000
310
00000000000000000000000000000000000000000000000000000000000000E2E20000000F00000000000000000000000000000000000000002D00000000000000000000000000002D2D0000000000000000000000000000002D0000002D2D00000000002D2D2D2D00000000002D000000002D002D00000000000000000000
310
00000000000000002D0000000000000000000000000000000000002D000000000000000000000000000000000F000000000000000000000000000000000000000000000000000000000000000000000000000000E2E20000000F00000000000000000000000000000000000000002D00000000000000002D0000002D2D0000
310
0000002D00002D0000000000000000000000000000002D2D2D2D000000002D2D2D2D2D2D00000000002D2D0000000000000000000000000000000000000000000000000000000000000000002D0000002D000000000000000000000000000000000F0000000000000000000000000000000000000000000000000000000000
310
00000000000000000000E2E20000000F0000000000000000000000000000000000000000000000000000000000000000000000000000000000002D0000000000000000000000002D2D2D2D0000002D000000000000002D2D2D2D2D2D2D000000000000002D0000000000000000000000000000000000000000000000000000
310
0000002D00002D000000000000000000000000000000000F000000000000000000000000000000000000000000000000000000000000000000000000000000E2E20000000F00000000000000000000000000000000000000000000000000000000000000000000000000000000000000002D2D0000000000002D2D2D000000
310
000000000000000000000000000000000000002D2D2D2D00000000000000000000002D2D00002D0000000000000000000000002D2D0000000000002D000000000000000000000000000000000F000000000000000000000000000000000000000000000000000000000000000000000000000000E2E20000000F0000000000
310
00000000000000000000000000000000000000000000000000000000000000000000000000002D2D2D00002D2D2D2D00002D0000000000000000002D2D00002D000000000000002D002D2DE22D2D2D2D2D0000000000000000002D0000000000000000000000002D2D000000000000002D0000000000000000000000000000
310
00000F000000000000000000000000000000000000000000000000000000000000000000000000000000E2E20000E20F00000000000000000000000000000000000000000000000000000000000000000000000000000000000000002D2D2D2D2D000000000000002D2D2D00000000000000000000000000000000002D2D00
310
00E2E20000002D2D2D2D2D2D0000000000000000000000000000002D2D002D2D2D00000000002D000000000000000000000000000000000F0000000000000000000000000000000000000000000000000000000000000000000000E2000000E2E20000E20F0000000000000000000000000000000000000000000000000000
310
0000000000000000000000000000002D2D2D000000000000002D2D00000000000000000000002D2D2D000000000000000000000000E2E2E2000000000000002D002D2D2D2D2D000000000000000000000000000000000000002D002D000000000000000000000000000000000F000000000000000000000000000000000000
310
0000000000000000000000000000000000E2000000E2E20000E20F000000000000000000000000000000000000000000E2E2E2000000000000000000000000000000000000000000002D2D0000000000000000000000000000000000000000000000000000000000000000E20000000000000000000000000000002D2D2D2D
310
2D00002D0000000000000000000000002D2D000000000000000000000000000000000F0000000000000000000000000000000000000000000000000000000000000000000000E2000000E2E20000E20F0000000000000000000000000000000000000000E2E200E2E200000000000000000000000000000000000000000000
310
00000000000000002D2D0000000000002D2D00C3C3C3C32D2D2D00000000000000E2000000002D2D002D2D0000002D000000000000002D2D2D2D0000000000000000000000002D000000000000000000000000000000000F0000000000000000000000000000000000000000000000000000000000000000000000E2000000
310
E2E20000E20F0000000000000000000000000000000000000000E2E200E2E20000000000000000000000000000000000000000002D2D2D0000000000000000002D00000000C3C3C300000000C3C3C3C3C30000000000E2002D2D000000002D00000000002D0000000000002D2D00002D2D2D2D2D000000000000002D000000
310
000000000000000000000000000F0000000000000000000000000000000000000000000000000000000000000000000000E2000000E2E20000E20F0000000000000000000000000000000000000000E2E200E2E2000000000000000000000000000000002D2D00000000002D002D00000000002D2D2DC3C3C3C300C3C30000
310
00000000000000C3C3C3C3C3E200002D00000000002D2D0000002D2D000000000000002D0000000000002D2D2D2D2D00002D000000000000000000000000000000000F0000000000000000000000000000000000000000000000000000000000000000000000E2000000E2E20000E20F000000000000000000000000000000
310
0000000000E2E200E2E20000000000000000000000000000000000000000002D0000000000000000C3C3C3C30000000000C3000000000000000000000000000000E2C3C300000000002D2D0000000000000000002D2D00002D00000000000000000000002D2D2D000000000000000000000000000000000F00000000000000
310
00000000000000000000000000000000000000000000000000000000E2000000E2E20000E20F0000000000000000000000000000000000000000E2E200E2E2000000000000000000000000000000000000000000000000002D0000C3C3C3C30000000000000000000000000000000000000000000000E200C300000000002D
310
2D0000000000000000000000002D002D2D0000002D2D2D2D2D2D000000000000000000000000000000000000000F0000000000000000000000000000000000000000000000000000000000000000000000E2000000E2E20000E20F0000000000000000000000000000000000000000E2E200E2E20000000000000000000000
310
00000000000000002D2D002D002D00002DC300C3C30000000000000000000000000000000000000000000000E200C3000000000000000000000000000000002D00000000002D2D2D2D2D0000000000000000000000000000000000000000000000000F00000000000000000000000000000000000000000000000000000000
310
00000000000000E2000000E2E20000E20F000000000000000000000000000000000000000000E2E2E20000000000000000000000000000000000E2E20000000000000000002DC30000000000000000000000000000000000000000000000000000E22DC3000000000000000000002D2D000000002D2D2D2D2D2D0000000000
310
0000000000000000000000000000000000000000000000000F0000000000000000000000000000000000000000000000000000000000000000000000E2000000E2E20000E20F00000000000000000000000000000000000000000000000000000000000000000000000000000000002DE2002D2D0000000000000000C30000
310
00000000000000C3C3C3C3C30000000000000000000000000000000000000000000000002D2D2D2D2D2D2D000000000000000000000000000000000000000000000000000000000000000000000F0000000000000000000000000000000000000000000000000000000000000000000000E2000000E2E20000E20F00000000
310
0000000000000000000000000000000000000000000000000000000000000000000000000000E22D2D2D2D2D00000000002DC300000000C3C3C3C3C30000C30000C3C3C3C3C3000000000000000000000000000000002D2D2D2D2D000000000000000000000000000000000000000000000000000000000000000000000000
310
0000000F0000000000000000000000000000000000000000000000000000000000000000000000E2000000E2E20000E20F000000000000000000000000000000000000000000000000000000000000000000000000000000000000E200000000002D2D2D2D0000C3C3C3C3C300000000000000C30000000000000000000000
310
00E2E2E200000000002D2D2D00000000000000000000000000000000000000000000000000000000000000000000000000000000000000000F0000000000000000000000000000000000000000000000000000000000000000000000E2000000E2E20000E20F00000000000000000000000000000000000000000000000000
310
0000000000000000000000000000000000E2000000000000000000C3C3C30000000000000000000000C3000000000000000000E20000E200E2000000000000000000000000000000000000000000000000000000000000000000000000000000000000000000000000000000000F0000000000000000000000000000000000
310
000000000000000000000000000000000000E2000000E2E20000E20F000000000000000000000000000000000000000000000000000000000000000000000000000000000000E2000000000000000000C300000000000000000000000000C3000000000000000000E20000E200E20000000000000000000000000000000000
310
00000000000000000000000000000000000000000000000000000000000000000000000F0000000000000000000000000000000000000000000000000000000000000000000000E2000000E2E20000000F0000000000000000000000000000000000000000E2E2E2E2E200000000E2E2E200000000000000000000E2000000
310
000000000000C300000000000000000000000000C3000000000000000000E20000E2E2E2E2E200000000000000000000000000000000000000000000000000000000000000000000000000000000000000000000000000000F0000000000000000000000000000000000000000000000000000000000000000000000000000
310
00E2E20000000F0000000000000000000000000000000000000000E2E20000E2E20000E2E200E2E2000000000000000000E2000000000000000000C300000000000000000000000000C30000000000000000000000000000000000000000000000000000000000000000000000000000000000000000000000000000000000
310
00000000000000000000000000000F000000000000000000000000000000000000000000000000000000000000000000000000000000E2E20000000F0000000000000000000000000000000000000000E2E20000E2E20000000000E2E2000000000000000000E2000000000000000000C300000000000000000000000000C3
310
000000000000000000000000000000000000000000000000000000000000000000000000000000000000000000000000000000000000000000000000000000000000000F000000000000000000000000000000000000000000000000000000000000000000000000000000E2E20000000F0000000000000000000000000000
310
000000000000E2E20000E2E2000000E2E2E2E2000000000000000000E2000000000000000000C300000000000000000000000000C300000000000000000000000000E200C30000000000000000000000000000000000000000000000000000000000000000000000000000000000000000000000000000000F000000000000
310
000000000000000000000000000000000000000000000000000000000000000000E2E20000000F0000000000000000000000000000000000000000E2E20000E2E20000E2E200E2E2000000000000000000E2000000000000000000C300000000000000000000000000C300000000000000000000000000E200C30000000000
310
000000000000000000000000000000000000000000000000000000000000000000000000000000000000000000000F000000000000000000000000000000000000000000000000000000000000000000000000000000E2E20000000F0000000000000000000000000000000000000000E2E20000E2E20000E2E200E2E20000
310
00000000000000E2000000000000000000C300000000000000000000000000C300000000000000000000000000E200C30000000000000000000000000000000000000000000000000000000000000000000000000000000000000000000000000000000F000000000000000000000000000000000000000000000000000000
310
000000000000000000000000E2E20000000F0000000000000000000000000000000000000000E2E20000E2E20000E2E200E2E2000000000000000000E2000000000000000000C300000000000000000000000000C300000000000000000000000000E200C30000000000000000000000000000000000000000000000000000
310
000000000000000000000000000000000000000000000000000F000000000000000000000000000000000000000000000000000000000000000000000000000000E2E20000000F0000000000000000000000000000000000000000E2E2E2E2E200000000E2E2E200000000000000000000E2000000000000000000C3000000
310
00000000000000000000C300000000000000000000000000E200C30000000000000000000000000000000000000000000000000000000000000000000000000000000000000000000000000000000F000000000000000000000000000000000000000000000000000000000000000000000000000000E2E20000000F000000
310
000000000000000000000000000000000000000000000000000000000000000000000000000000E2000000000000000000C300000000000000000000000000C300000000000000000000000000E200C30000000000000000000000000000000000000000000000000000000000000000000000000000000000000000000000
310
000000000F000000000000000000000000000000000000000000000000000000000000000000000000000000E2E20000E20F000000000000000000000000000000000000000000000000000000000000000000000000000000000000E2000000000000000000C300000000000000000000000000C300000000000000000000
310
000000E200C30000000000000000000000000000000000000000000000000000000000000000000000000000000000000000000000000000000F0000000000000000000000000000000000000000000000000000000000000000000000E2000000E2E20000E20F000000000000000000000000000000000000000000000000
310
000000000000000000000000000000000000E2000000000000000000C300000000000000000000000000C300000000000000000000000000E200C30000000000000000000000000000000000000000000000000000000000000000000000000000000000000000000000000000000F00000000000000000000000000000000
310
00000000000000000000000000000000000000E2000000E2E20000E20F00000000000000000000000000000000000000E200000000000000000000000000000000000000000000E2000000000000000000C300000000000000000000000000C300000000000000000000000000E200C3000000000000000000000000000000
310
0000000000000000000000000000000000000000000000000000000000000000000000000F0000000000000000000000000000000000000000000000000000000000000000000000E2000000E2E20000E20F00000000000000000000000000000000000000E2E2E2E2E2E2E2E2E2E2E2E2E2E2E2E2E2E2E2E2E2E2E2E20000
310
00000000000000C300000000000000000000000000C300000000000000000000000000E200C30000000000000000000000000000000000000000000000000000000000000000000000000000000000000000000000000000000F0000000000000000000000000000000000000000000000000000000000000000000000E200
310
0000E2E20000E20F00000000000000000000000000000000000000000000000000000000000000000000000000000000000000000000000000000000C300000000000000000000000000C300000000000000000000000000E200C3000000000000000000000000000000000000000000000000000000000000000000000000
310
0000000000000000000000000000000F0000000000000000000000000000000000000000000000000000000000000000000000E2000000E2E20000E20F00000000000000000000000000000000000000000000000000000000000000000000000000000000000000000000000000000000C300000000000000000000000000
310
C300000000000000000000000000E200C30000000000000000000000000000000000000000000000000000000000000000000000000000000000000000000000000000000F0000000000000000000000000000000000000000000000000000000000000000000000E2000000E2E20000E20F00000000000000000000000000
310
000000000000000000000000000000000000000000000000000000000000000000000000000000C300000000000000000000000000C300000000000000000000000000E200C30000000000000000000000000000000000000000000000000000000000000000000000000000000000000000000000000000000F0000000000
310
000000000000000000000000000000000000000000000000000000000000E2000000E2E20000E20F00000000000000000000000000000000000000000000000000000000000000000000000000000000000000000000000000000000C300000000000000000000000000C300000000000000000000000000E200C300000000
310
00000000000000000000000000000000000000000000000000000000000000000000000000000000000000000000000F0000000000000000000000000000000000000000000000000000000000000000000000E2000000E2E20000E20F00000000000000000000000000000000000000000000000000000000000000000000
310
000000000000000000000000000000000000C300000000000000000000000000C3000000000000000000000000E2E2E2C30000000000000000000000000000000000000000000000000000000000000000000000000000000000000000000000000000000F0000000000000000000000000000000000000000000000000000
310
000000000000000000E2000000E2E20000E20F00000000000000000000000000000000000000000000000000000000000000000000000000000000000000000000000000000000C300000000000000000000000000C300000000000000000000000000E2E2C300000000000000000000000000000000000000000000000000
310
00000000000000000000000000000000000000000000000000000F0000000000000000000000000000000000000000000000000000000000000000000000E2000000E2E20000E20F00000000000000000000000000000000000000000000000000000000000000000000000000000000000000000000000000000000C30000
310
0000000000000000000000C300000000000000000000000000E200C30000000000000000000000000000000000000000000000000000000000000000000000000000000000000000000000000000000F0000000000000000000000000000000000000000000000000000000000000000000000E2000000E2E20000E20F0000
310
0000000000000000000000000000000000000000000000000000000000000000000000000000000000000000000000000000C300000000000000000000000000C3000000000000000000000000000000C300000000000000000000000000000000000000000000000000000000000000000000000000000000000000000000
310
00000000000F0000000000000000000000000000000000000000000000000000000000000000000000E2000000E2E20000E20F00000000000000000000000000000000000000000000000000000000000000000000000000000000000000000000000000000000C300000000000000000000000000C3000000000000000000
310
000000000000C30000000000000000000000000000000000000000000000000000000000000000000000000000000000000000000000000000000F0000000000000000000000000000000000000000000000000000000000000000000000E2000000E2E20000E20F0000000000000000000000000000000000000000000000
310
0000000000000000000000000000000000000000000000000000000000C300000000000000000000000000C3000000000000000000000000000000C30000000000000000000000000000000000000000000000000000000000000000000000000000000000000000000000000000000F000000000000000000000000000000
310
0000000000000000000000000000000000000000E2000000E2E20000E20F00000000000000000000000000000000000000000000000000000000000000000000000000000000000000000000000000000000C300000000000000000000000000C3000000000000000000000000000000C30000000000000000000000000000
310
000000000000000000000000000000000000000000000000000000000000000000000000000F0000000000000000000000000000000000000000000000000000000000000000000000E2000000E2E20000000F0000000000000000000000000000000000000000000000000000000000000000000000000000000000000000
310
0000000000000000C300000000000000000000000000C3000000000000000000000000000000C30000000000000000000000000000000000000000000000000000000000000000000000000000000000000000000000000000000F000000000000000000000000000000000000000000000000000000000000000000000000
310
000000E2E20000000F00000000000000000000000000000000000000000000000000000000000000000000000000000000000000000000000000000000C300000000000000000000000000C3000000000000000000000000000000C30000000000000000000000000000000000000000000000000000000000000000000000
310
000000000000000000000000000000000F000000000000000000000000000000000000000000000000000000000000000000000000000000E2E20000000F00000000000000000000000000000000000000000000000000000000000000000000000000000000000000000000000000000000C3000000000000000000000000
310
00C3000000000000000000000000000000C30000000000000000000000000000000000000000000000000000000000000000000000000000000000000000000000000000000F000000000000000000000000000000000000000000000000000000000000000000000000000000E2E20000000F000000000000000000000000
310
00000000000000000000000000000000000000000000000000000000000000000000000000000000C300000000000000000000000000C3000000000000000000000000000000C30000000000000000000000000000000000000000000000000000000000000000000000000000000000000000000000000000000F00000000
310
0000000000000000000000000000000000000000000000000000000000000000000000E2E20000000F00000000000000000000000000000000000000000000000000000000000000000000000000000000000000000000000000000000C300000000000000000000000000C3000000000000000000000000000000C3000000
310
0000000000000000000000000000000000000000000000000000000000000000000000000000000000000000000000000F000000000000000000000000000000000000000000000000000000000000000000000000000000E2E20000000F000000000000000000000000000000000000000000000000000000000000000000
310
00000000000000000000000000000000000000C300000000000000000000000000C3000000000000000000000000000000C30000000000000000000000000000000000000000000000000000000000000000000000000000000000000000000000000000000F00000000000000000000000000000000000000000000000000
310
0000000000000000000000000000E2E20000000F00000000000000000000000000000000000000000000000000000000000000000000000000000000000000000000000000000000C300000000000000000000000000C3000000000000000000000000000000C3000000000000000000000000000000000000000000000000
310
0000000000000000000000000000000000000000000000000000000F000000000000000000000000000000000000000000000000000000000000000000000000000000E2E20000000F00000000000000000000000000000000000000000000000000000000000000000000000000000000000000000000000000000000C300
310
000000000000000000000000C3000000000000000000000000000000C30000000000000000000000000000000000000000000000000000000000000000000000000000000000000000000000000000000F000000000000000000000000000000000000000000000000000000000000000000000000000000E2E20000E20F00
310
000000000000000000000000000000000000000000000000000000000000000000000000000000000000000000000000000000C300000000000000000000000000C3000000000000000000000000000000C3000000000000000000000000000000000000000000000000000000000000000000000000000000000000000000
310
0000000000000F0000000000000000000000000000000000000000000000000000000000000000000000E2000000E2E20000E20F00000000000000000000000000000000000000000000000000000000000000000000000000000000000000000000000000000000C300000000000000000000000000C30000000000000000
310
00000000000000C30000000000000000000000000000000000000000000000000000000000000000000000000000000000000000000000000000000F0000000000000000000000000000000000000000000000000000000000000000000000E2000000E2E20000E20F00000000000000000000000000000000000000000000
310
000000000000000000000000000000000000000000000000000000000000C300000000000000000000000000C3000000000000000000000000000000C30000000000000000000000000000000000000000000000000000000000000000000000000000000000000000000000000000000F0000000000000000000000000000
310
000000000000000000000000000000000000000000E2000000E2E20000E20F00000000000000000000000000000000000000000000000000000000000000000000000000000000000000000000000000000000C300000000000000000000000000C3000000000000000000000000000000C300000000000000000000000000
310
00000000000000000000000000000000000000000000000000000000000000000000000000000F0000000000000000000000000000000000000000000000000000000000000000000000E2000000E2E20000E20F00000000000000000000000000000000000000000000000000000000000000000000000000000000000000
310
000000000000000000C300000000000000000000000000C3000000000000000000000000000000C30000000000000000000000000000000000000000000000000000000000000000000000000000000000000000000000000000000F0000000000000000000000000000000000000000000000000000000000000000000000
310
E2000000E2E20000E20F00000000000000000000000000000000000000000000000000000000000000000000000000000000000000000000000000000000C30000000000C300000000000000C3000000000000000000000000000000C300000000000000000000000000000000000000000000000000000000000000000000
310
00000000000000000000000000000000000F0000000000000000000000000000000000000000000000000000000000000000000000E2000000E2E20000E20F00000000000000000000000000000000000000000000000000000000000000000000000000000000000000000000000000000000C30000000000C30000000000
310
0000C3000000000000000000000000000000C30000000000000000000000000000000000000000000000000000000000000000000000000000000000000000000000000000000F0000000000000000000000000000000000000000000000000000000000000000000000E2000000E2E20000E20F0F0F0F0F0F0F0F0F0F0F0F
310
0F0F0F0F0F0F0F0F0F0F0F0F0F0F0F0F0F0F0F0F0F0F0F0F0F0F0F0F0F0F0F0F0F0F0F0F0F0F0F0F0F0F0F0F0F0F0F0F0F0F0F0F0F0F0F0F0F0F0F0F0F0F0F0F0F0F0F0F0F0F0F0F0F0F0F0F0F0F0F0F0F0F0F0F0F0F0F0F0F0F0F0F0F0F0F0F0F0F0F0F0F0F0F0F0F0F0F0F0F0F0F0F0F0F0F0F0F0F0F0F0F0F0F0F000000
310
E2E2E2E2E2E2E2E2E2E2E2E2E2E2E2E2000000000000000000E2E2E2E2E2E2E2E2000000E2E20000000000000000000000000000000000000000000000000000000000000000000000000000000000000000000000000000000000000000000000000000000000000000000000000000000000000000000000000000000000
310
0000000000000000000000000000000000000000000000000000000000000000000000000000000000000000000000000000000000000000000000000000000000000000000000000000000000000000000000000000000000E2E2000000000000000000000000000000000000000000000000000000000000000000000000
310
00000000000000000000000000000000000000000000000000000000000000000000000000000000000000000000000000000000000000000000000000000000000000000000000000000000000000000000000000000000000000000000000000000000000000000000000000000000000000000000000000000000000000
310
000000000000000000000000000000E2E20000000000000000000000000000000000000000000000000000000000000000000000000000000000000000000000000000000000000000000000000000000000000000000000000000000000000000000000000000000000000000000000000000000000000000000000000000
310
0000000000000000000000000000000000000000000000000000000000000000000000000000000000000000000000000000000000000000000000000000000000000000E2E2000000000000000000000000000000000000000000000000000000000000000000000000000000000000000000000000000000000000000000
310
00000000000000000000000000000000000000000000000000000000000000000000000000000000000000000000000000000000000000000000000000000000000000000000000000000000000000000000000000000000000000000000000000000000000000000000000000000000000000000000000000E2E2E2E2E2E2
310
E2E2E2E2E2E2E2E2E2E2E2E2E2E2E2E2E2E2E2E2E2E2E2E2E2E2E2E2E2E2E2E2E2E2E2E2E2E2E2E2E2E2E2E2E2E2E2E2E2E2E2E2E2E2E2E2E2E2E2E2E2E2E2E2E2E2E2E2E2E2E2E2E2E2E2E2E2E2E2E2E2E2E2E2E2E2E2E2E2E2E2E2E2E2E2E2E2E2E2E2E2E2E2E2E2E2E2E2E2E2E2E2E2E2E2E2E2E2E2E2E2E2E2E2E2E2E2
310
E2E2E2E2E2E2E2E2E2E2E2E2E2E2E2E2E2E2E2E2E2E2E2E2E2E2E2E2E2E2E2E2E2E2E2E2E2E2E2E2E2E2E2E2E2E2E2E2
  0
XRECORD
  5
1216
102
{ACAD_REACTORS
330
1215
102
}
330
1215
100
AcDbXrecord
280
     1
102
SHADEPLOT
 70
     0
102
SHADEPLOTRESLEVEL
 70
     2
102
SHADEPLOTCUSTOMDPI
 70
   300
  0
XRECORD
  5
1214
102
{ACAD_REACTORS
330
1213
102
}
330
1213
100
AcDbXrecord
280
     1
102
SHADEPLOT
 70
     0
102
SHADEPLOTRESLEVEL
 70
     2
102
SHADEPLOTCUSTOMDPI
 70
   300
  0
XRECORD
  5
11DF
102
{ACAD_REACTORS
330
1A
102
}
330
1A
100
AcDbXrecord
280
     1
102
MATERIAL
148
0.0
149
0.0
149
0.0
 93
        0
 94
      127
282
     0
 72
     0
 77
     0
171
     0
175
     0
179
     0
273
     0
  0
XRECORD
  5
1C
102
{ACAD_REACTORS
330
1A
102
}
330
1A
100
AcDbXrecord
280
     1
270
     1
271
     1
  0
XRECORD
  5
1B
102
{ACAD_REACTORS
330
1A
102
}
330
1A
100
AcDbXrecord
280
     1
270
     1
271
     1
  0
XRECORD
  5
1F
102
{ACAD_REACTORS
330
1A
102
}
330
1A
100
AcDbXrecord
280
     1
270
     1
271
     1
  0
XRECORD
  5
1E
102
{ACAD_REACTORS
330
1A
102
}
330
1A
100
AcDbXrecord
280
     1
270
     1
271
     1
  0
XRECORD
  5
20
102
{ACAD_REACTORS
330
1A
102
}
330
1A
100
AcDbXrecord
280
     1
270
     1
271
     1
  0
XRECORD
  5
1D
102
{ACAD_REACTORS
330
1A
102
}
330
1A
100
AcDbXrecord
280
     1
270
     1
271
     1
  0
XRECORD
  5
11DE
102
{ACAD_REACTORS
330
12
102
}
330
12
100
AcDbXrecord
280
     1
102
MATERIAL
148
0.0
149
0.0
149
0.0
 93
        0
 94
      127
282
     0
 72
     0
 77
     0
171
     0
175
     0
179
     0
273
     0
  0
XRECORD
  5
14
102
{ACAD_REACTORS
330
12
102
}
330
12
100
AcDbXrecord
280
     1
270
     1
271
     1
  0
XRECORD
  5
13
102
{ACAD_REACTORS
330
12
102
}
330
12
100
AcDbXrecord
280
     1
270
     1
271
     1
  0
XRECORD
  5
17
102
{ACAD_REACTORS
330
12
102
}
330
12
100
AcDbXrecord
280
     1
270
     1
271
     1
  0
XRECORD
  5
16
102
{ACAD_REACTORS
330
12
102
}
330
12
100
AcDbXrecord
280
     1
270
     1
271
     1
  0
XRECORD
  5
18
102
{ACAD_REACTORS
330
12
102
}
330
12
100
AcDbXrecord
280
     1
270
     1
271
     1
  0
XRECORD
  5
15
102
{ACAD_REACTORS
330
12
102
}
330
12
100
AcDbXrecord
280
     1
270
     1
271
     1
  0
XRECORD
  5
11E0
102
{ACAD_REACTORS
330
22
102
}
330
22
100
AcDbXrecord
280
     1
102
MATERIAL
148
0.0
149
0.0
149
0.0
 93
        0
 94
      127
282
     0
 72
     0
 77
     0
171
     0
175
     0
179
     0
273
     0
  0
XRECORD
  5
24
102
{ACAD_REACTORS
330
22
102
}
330
22
100
AcDbXrecord
280
     1
270
     1
271
     1
  0
XRECORD
  5
23
102
{ACAD_REACTORS
330
22
102
}
330
22
100
AcDbXrecord
280
     1
270
     1
271
     1
  0
XRECORD
  5
27
102
{ACAD_REACTORS
330
22
102
}
330
22
100
AcDbXrecord
280
     1
270
     1
271
     1
  0
XRECORD
  5
26
102
{ACAD_REACTORS
330
22
102
}
330
22
100
AcDbXrecord
280
     1
270
     1
271
     1
  0
XRECORD
  5
28
102
{ACAD_REACTORS
330
22
102
}
330
22
100
AcDbXrecord
280
     1
270
     1
271
     1
  0
XRECORD
  5
25
102
{ACAD_REACTORS
330
22
102
}
330
22
100
AcDbXrecord
280
     1
270
     1
271
     1
  0
XRECORD
  5
11D7
102
{ACAD_REACTORS
330
11D6
102
}
330
11D6
100
AcDbXrecord
280
     1
102
ACAD_ROUNDTRIP_2012_MLEADER_STYLE
298
     1
  0
CELLSTYLEMAP
  5
11D5
102
{ACAD_REACTORS
330
297
102
}
330
297
100
AcDbCellStyleMap
 90
        3
300
CELLSTYLE
  1
TABLEFORMAT_BEGIN
 90
        5
170
     1
 91
        0
 92
    32768
 62
   257
 93
        1
300
CONTENTFORMAT
  1
CONTENTFORMAT_BEGIN
 90
        0
 91
        0
 92
      512
 93
        0
300

 40
0.0
140
1.0
 94
        5
 62
     0
340
55
144
0.25
309
CONTENTFORMAT_END
171
     0
 94
        0
309
TABLEFORMAT_END
  1
CELLSTYLE_BEGIN
 90
        1
 91
        1
300
_TITLE
309
CELLSTYLE_END
300
CELLSTYLE
  1
TABLEFORMAT_BEGIN
 90
        5
170
     1
 91
        0
 92
        0
 62
   257
 93
        1
300
CONTENTFORMAT
  1
CONTENTFORMAT_BEGIN
 90
        0
 91
        0
 92
      512
 93
        0
300

 40
0.0
140
1.0
 94
        5
 62
     0
340
55
144
0.18
309
CONTENTFORMAT_END
171
     0
 94
        0
309
TABLEFORMAT_END
  1
CELLSTYLE_BEGIN
 90
        2
 91
        1
300
_HEADER
309
CELLSTYLE_END
300
CELLSTYLE
  1
TABLEFORMAT_BEGIN
 90
        5
170
     1
 91
        0
 92
        0
 62
   257
 93
        1
300
CONTENTFORMAT
  1
CONTENTFORMAT_BEGIN
 90
        0
 91
        0
 92
      512
 93
        0
300

 40
0.0
140
1.0
 94
        2
 62
     0
340
55
144
0.18
309
CONTENTFORMAT_END
171
     0
 94
        0
309
TABLEFORMAT_END
  1
CELLSTYLE_BEGIN
 90
        3
 91
        2
300
_DATA
309
CELLSTYLE_END
  0
XRECORD
  5
1211
102
{ACAD_REACTORS
330
297
102
}
330
297
100
AcDbXrecord
280
     1
102
ACAD_ROUNDTRIP_PRE2007_TABLESTYLE
 90
      512
 91
        0
  1

 92
      512
 93
        0
  2

 94
      512
 95
        0
  3

  0
XRECORD
  5
11EC
102
{ACAD_REACTORS
330
11EB
102
}
330
11EB
100
AcDbXrecord
280
     1
102
RTVSPropertyOp0
 70
     1
102
RTVSPropertyOp1
 70
     1
102
RTVSPropertyOp2
 70
     1
102
RTVSPropertyOp3
 70
     1
102
RTVSPropertyOp4
 70
     1
102
RTVSPropertyOp5
 70
     1
102
RTVSPropertyOp6
 70
     1
102
RTVSPropertyOp7
 70
     1
102
RTVSPropertyOp8
 70
     1
102
RTVSPropertyOp9
 70
     1
102
RTVSPropertyOp10
 70
     1
102
RTVSPropertyOp11
 70
     1
102
RTVSPropertyOp12
 70
     1
102
RTVSPropertyOp13
 70
     1
102
RTVSPropertyOp14
 70
     1
102
RTVSPropertyOp15
 70
     1
102
RTVSPropertyOp16
 70
     1
102
RTVSPropertyOp17
 70
     1
102
RTVSPropertyOp18
 70
     1
102
RTVSPropertyOp19
 70
     1
102
RTVSPropertyOp20
 70
     1
102
RTVSPropertyOp21
 70
     1
102
RTVSPropertyOp22
 70
     1
102
RTVSPropertyOp23
 70
     1
102
RTVSPropertyOp24
 70
     1
102
RTVSPropertyOp25
 70
     1
102
RTVSPropertyOp26
 70
     1
102
RTVSPropertyOp27
 70
     1
102
RTVSPropertyOp28
 70
     1
102
RTVSPropertyOp29
 70
     1
102
RTVSPropertyOp30
 70
     1
102
RTVSPropertyOp31
 70
     1
102
RTVSPropertyOp32
 70
     1
  0
XRECORD
  5
11EA
102
{ACAD_REACTORS
330
11E9
102
}
330
11E9
100
AcDbXrecord
280
     1
102
RTVSPropertyOp0
 70
     1
102
RTVSPropertyOp1
 70
     1
102
RTVSPropertyOp2
 70
     1
102
RTVSPropertyOp3
 70
     1
102
RTVSPropertyOp4
 70
     1
102
RTVSPropertyOp5
 70
     1
102
RTVSPropertyOp6
 70
     1
102
RTVSPropertyOp7
 70
     1
102
RTVSPropertyOp8
 70
     1
102
RTVSPropertyOp9
 70
     1
102
RTVSPropertyOp10
 70
     1
102
RTVSPropertyOp11
 70
     1
102
RTVSPropertyOp12
 70
     1
102
RTVSPropertyOp13
 70
     1
102
RTVSPropertyOp14
 70
     1
102
RTVSPropertyOp15
 70
     1
102
RTVSPropertyOp16
 70
     1
102
RTVSPropertyOp17
 70
     1
102
RTVSPropertyOp18
 70
     1
102
RTVSPropertyOp19
 70
     1
102
RTVSPropertyOp20
 70
     1
102
RTVSPropertyOp21
 70
     1
102
RTVSPropertyOp22
 70
     1
102
RTVSPropertyOp23
 70
     1
102
RTVSPropertyOp24
 70
     1
102
RTVSPropertyOp25
 70
     1
102
RTVSPropertyOp26
 70
     1
102
RTVSPropertyOp27
 70
     1
102
RTVSPropertyOp28
 70
     1
102
RTVSPropertyOp29
 70
     1
102
RTVSPropertyOp30
 70
     1
102
RTVSPropertyOp31
 70
     1
102
RTVSPropertyOp32
 70
     1
  0
XRECORD
  5
11F8
102
{ACAD_REACTORS
330
11F7
102
}
330
11F7
100
AcDbXrecord
280
     1
102
RTVSPropertyOp0
 70
     1
102
RTVSPropertyOp1
 70
     1
102
RTVSPropertyOp2
 70
     1
102
RTVSPropertyOp3
 70
     1
102
RTVSPropertyOp4
 70
     1
102
RTVSPropertyOp5
 70
     1
102
RTVSPropertyOp6
 70
     1
102
RTVSPropertyOp7
 70
     1
102
RTVSPropertyOp8
 70
     1
102
RTVSPropertyOp9
 70
     1
102
RTVSPropertyOp10
 70
     1
102
RTVSPropertyOp11
 70
     1
102
RTVSPropertyOp12
 70
     1
102
RTVSPropertyOp13
 70
     1
102
RTVSPropertyOp14
 70
     1
102
RTVSPropertyOp15
 70
     1
102
RTVSPropertyOp16
 70
     1
102
RTVSPropertyOp17
 70
     1
102
RTVSPropertyOp18
 70
     1
102
RTVSPropertyOp19
 70
     1
102
RTVSPropertyOp20
 70
     1
102
RTVSPropertyOp21
 70
     1
102
RTVSPropertyOp22
 70
     1
102
RTVSPropertyOp23
 70
     1
102
RTVSPropertyOp24
 70
     1
102
RTVSPropertyOp25
 70
     1
102
RTVSPropertyOp26
 70
     1
102
RTVSPropertyOp27
 70
     1
102
RTVSPropertyOp28
 70
     1
102
RTVSPropertyOp29
 70
     1
102
RTVSPropertyOp30
 70
     1
102
RTVSPropertyOp31
 70
     1
102
RTVSPropertyOp32
 70
     1
  0
XRECORD
  5
1200
102
{ACAD_REACTORS
330
11FF
102
}
330
11FF
100
AcDbXrecord
280
     1
102
RTVSPropertyOp0
 70
     1
102
RTVSPropertyOp1
 70
     1
102
RTVSPropertyOp2
 70
     1
102
RTVSPropertyOp3
 70
     1
102
RTVSPropertyOp4
 70
     1
102
RTVSPropertyOp5
 70
     1
102
RTVSPropertyOp6
 70
     1
102
RTVSPropertyOp7
 70
     1
102
RTVSPropertyOp8
 70
     1
102
RTVSPropertyOp9
 70
     1
102
RTVSPropertyOp10
 70
     1
102
RTVSPropertyOp11
 70
     1
102
RTVSPropertyOp12
 70
     1
102
RTVSPropertyOp13
 70
     1
102
RTVSPropertyOp14
 70
     1
102
RTVSPropertyOp15
 70
     1
102
RTVSPropertyOp16
 70
     1
102
RTVSPropertyOp17
 70
     1
102
RTVSPropertyOp18
 70
     1
102
RTVSPropertyOp19
 70
     1
102
RTVSPropertyOp20
 70
     1
102
RTVSPropertyOp21
 70
     1
102
RTVSPropertyOp22
 70
     1
102
RTVSPropertyOp23
 70
     1
102
RTVSPropertyOp24
 70
     1
102
RTVSPropertyOp25
 70
     1
102
RTVSPropertyOp26
 70
     1
102
RTVSPropertyOp27
 70
     1
102
RTVSPropertyOp28
 70
     1
102
RTVSPropertyOp29
 70
     1
102
RTVSPropertyOp30
 70
     1
102
RTVSPropertyOp31
 70
     1
102
RTVSPropertyOp32
 70
     1
  0
XRECORD
  5
11F2
102
{ACAD_REACTORS
330
11F1
102
}
330
11F1
100
AcDbXrecord
280
     1
102
RTVSPropertyOp0
 70
     1
102
RTVSPropertyOp1
 70
     1
102
RTVSPropertyOp2
 70
     1
102
RTVSPropertyOp3
 70
     1
102
RTVSPropertyOp4
 70
     1
102
RTVSPropertyOp5
 70
     1
102
RTVSPropertyOp6
 70
     1
102
RTVSPropertyOp7
 70
     1
102
RTVSPropertyOp8
 70
     1
102
RTVSPropertyOp9
 70
     1
102
RTVSPropertyOp10
 70
     1
102
RTVSPropertyOp11
 70
     1
102
RTVSPropertyOp12
 70
     1
102
RTVSPropertyOp13
 70
     1
102
RTVSPropertyOp14
 70
     1
102
RTVSPropertyOp15
 70
     1
102
RTVSPropertyOp16
 70
     1
102
RTVSPropertyOp17
 70
     1
102
RTVSPropertyOp18
 70
     1
102
RTVSPropertyOp19
 70
     1
102
RTVSPropertyOp20
 70
     1
102
RTVSPropertyOp21
 70
     1
102
RTVSPropertyOp22
 70
     1
102
RTVSPropertyOp23
 70
     1
102
RTVSPropertyOp24
 70
     1
102
RTVSPropertyOp25
 70
     1
102
RTVSPropertyOp26
 70
     1
102
RTVSPropertyOp27
 70
     1
102
RTVSPropertyOp28
 70
     1
102
RTVSPropertyOp29
 70
     1
102
RTVSPropertyOp30
 70
     1
102
RTVSPropertyOp31
 70
     1
102
RTVSPropertyOp32
 70
     1
  0
XRECORD
  5
11F6
102
{ACAD_REACTORS
330
11F5
102
}
330
11F5
100
AcDbXrecord
280
     1
102
RTVSPropertyOp0
 70
     1
102
RTVSPropertyOp1
 70
     1
102
RTVSPropertyOp2
 70
     1
102
RTVSPropertyOp3
 70
     1
102
RTVSPropertyOp4
 70
     1
102
RTVSPropertyOp5
 70
     1
102
RTVSPropertyOp6
 70
     1
102
RTVSPropertyOp7
 70
     1
102
RTVSPropertyOp8
 70
     1
102
RTVSPropertyOp9
 70
     1
102
RTVSPropertyOp10
 70
     1
102
RTVSPropertyOp11
 70
     1
102
RTVSPropertyOp12
 70
     1
102
RTVSPropertyOp13
 70
     1
102
RTVSPropertyOp14
 70
     1
102
RTVSPropertyOp15
 70
     1
102
RTVSPropertyOp16
 70
     1
102
RTVSPropertyOp17
 70
     1
102
RTVSPropertyOp18
 70
     1
102
RTVSPropertyOp19
 70
     1
102
RTVSPropertyOp20
 70
     1
102
RTVSPropertyOp21
 70
     1
102
RTVSPropertyOp22
 70
     1
102
RTVSPropertyOp23
 70
     1
102
RTVSPropertyOp24
 70
     1
102
RTVSPropertyOp25
 70
     1
102
RTVSPropertyOp26
 70
     1
102
RTVSPropertyOp27
 70
     1
102
RTVSPropertyOp28
 70
     1
102
RTVSPropertyOp29
 70
     1
102
RTVSPropertyOp30
 70
     1
102
RTVSPropertyOp31
 70
     1
102
RTVSPropertyOp32
 70
     1
  0
XRECORD
  5
1210
102
{ACAD_REACTORS
330
120F
102
}
330
120F
100
AcDbXrecord
280
     1
102
RTVSPropertyOp0
 70
     0
102
RTVSPropertyOp1
 70
     0
102
RTVSPropertyOp2
 70
     0
102
RTVSPropertyOp3
 70
     0
102
RTVSPropertyOp4
 70
     0
102
RTVSPropertyOp5
 70
     0
102
RTVSPropertyOp6
 70
     0
102
RTVSPropertyOp7
 70
     0
102
RTVSPropertyOp8
 70
     0
102
RTVSPropertyOp9
 70
     0
102
RTVSPropertyOp10
 70
     0
102
RTVSPropertyOp11
 70
     0
102
RTVSPropertyOp12
 70
     0
102
RTVSPropertyOp13
 70
     0
102
RTVSPropertyOp14
 70
     2
102
RTVSPropertyOp15
 70
     0
102
RTVSPropertyOp16
 70
     0
102
RTVSPropertyOp17
 70
     0
102
RTVSPropertyOp18
 70
     0
102
RTVSPropertyOp19
 70
     0
102
RTVSPropertyOp20
 70
     0
102
RTVSPropertyOp21
 70
     0
102
RTVSPropertyOp22
 70
     0
102
RTVSPropertyOp23
 70
     0
102
RTVSPropertyOp24
 70
     0
102
RTVSPropertyOp25
 70
     0
102
RTVSPropertyOp26
 70
     0
102
RTVSPropertyOp27
 70
     0
102
RTVSPropertyOp28
 70
     0
102
RTVSPropertyOp29
 70
     0
102
RTVSPropertyOp30
 70
     0
102
RTVSPropertyOp31
 70
     0
102
RTVSPropertyOp32
 70
     0
  0
XRECORD
  5
11FE
102
{ACAD_REACTORS
330
11FD
102
}
330
11FD
100
AcDbXrecord
280
     1
102
RTVSPropertyOp0
 70
     1
102
RTVSPropertyOp1
 70
     1
102
RTVSPropertyOp2
 70
     1
102
RTVSPropertyOp3
 70
     1
102
RTVSPropertyOp4
 70
     1
102
RTVSPropertyOp5
 70
     1
102
RTVSPropertyOp6
 70
     1
102
RTVSPropertyOp7
 70
     1
102
RTVSPropertyOp8
 70
     1
102
RTVSPropertyOp9
 70
     1
102
RTVSPropertyOp10
 70
     1
102
RTVSPropertyOp11
 70
     1
102
RTVSPropertyOp12
 70
     1
102
RTVSPropertyOp13
 70
     1
102
RTVSPropertyOp14
 70
     1
102
RTVSPropertyOp15
 70
     1
102
RTVSPropertyOp16
 70
     1
102
RTVSPropertyOp17
 70
     1
102
RTVSPropertyOp18
 70
     1
102
RTVSPropertyOp19
 70
     1
102
RTVSPropertyOp20
 70
     1
102
RTVSPropertyOp21
 70
     1
102
RTVSPropertyOp22
 70
     1
102
RTVSPropertyOp23
 70
     1
102
RTVSPropertyOp24
 70
     1
102
RTVSPropertyOp25
 70
     1
102
RTVSPropertyOp26
 70
     1
102
RTVSPropertyOp27
 70
     1
102
RTVSPropertyOp28
 70
     1
102
RTVSPropertyOp29
 70
     1
102
RTVSPropertyOp30
 70
     1
102
RTVSPropertyOp31
 70
     1
102
RTVSPropertyOp32
 70
     1
  0
XRECORD
  5
11E2
102
{ACAD_REACTORS
330
11E1
102
}
330
11E1
100
AcDbXrecord
280
     1
102
RTVSPropertyOp0
 70
     1
102
RTVSPropertyOp1
 70
     1
102
RTVSPropertyOp2
 70
     1
102
RTVSPropertyOp3
 70
     1
102
RTVSPropertyOp4
 70
     1
102
RTVSPropertyOp5
 70
     1
102
RTVSPropertyOp6
 70
     1
102
RTVSPropertyOp7
 70
     1
102
RTVSPropertyOp8
 70
     1
102
RTVSPropertyOp9
 70
     1
102
RTVSPropertyOp10
 70
     1
102
RTVSPropertyOp11
 70
     1
102
RTVSPropertyOp12
 70
     1
102
RTVSPropertyOp13
 70
     1
102
RTVSPropertyOp14
 70
     1
102
RTVSPropertyOp15
 70
     1
102
RTVSPropertyOp16
 70
     1
102
RTVSPropertyOp17
 70
     1
102
RTVSPropertyOp18
 70
     1
102
RTVSPropertyOp19
 70
     1
102
RTVSPropertyOp20
 70
     1
102
RTVSPropertyOp21
 70
     1
102
RTVSPropertyOp22
 70
     1
102
RTVSPropertyOp23
 70
     1
102
RTVSPropertyOp24
 70
     1
102
RTVSPropertyOp25
 70
     1
102
RTVSPropertyOp26
 70
     1
102
RTVSPropertyOp27
 70
     1
102
RTVSPropertyOp28
 70
     1
102
RTVSPropertyOp29
 70
     1
102
RTVSPropertyOp30
 70
     1
102
RTVSPropertyOp31
 70
     1
102
RTVSPropertyOp32
 70
     1
  0
XRECORD
  5
11E4
102
{ACAD_REACTORS
330
11E3
102
}
330
11E3
100
AcDbXrecord
280
     1
102
RTVSPropertyOp0
 70
     1
102
RTVSPropertyOp1
 70
     1
102
RTVSPropertyOp2
 70
     1
102
RTVSPropertyOp3
 70
     1
102
RTVSPropertyOp4
 70
     1
102
RTVSPropertyOp5
 70
     1
102
RTVSPropertyOp6
 70
     1
102
RTVSPropertyOp7
 70
     1
102
RTVSPropertyOp8
 70
     1
102
RTVSPropertyOp9
 70
     1
102
RTVSPropertyOp10
 70
     1
102
RTVSPropertyOp11
 70
     1
102
RTVSPropertyOp12
 70
     1
102
RTVSPropertyOp13
 70
     1
102
RTVSPropertyOp14
 70
     1
102
RTVSPropertyOp15
 70
     1
102
RTVSPropertyOp16
 70
     1
102
RTVSPropertyOp17
 70
     1
102
RTVSPropertyOp18
 70
     1
102
RTVSPropertyOp19
 70
     1
102
RTVSPropertyOp20
 70
     1
102
RTVSPropertyOp21
 70
     1
102
RTVSPropertyOp22
 70
     1
102
RTVSPropertyOp23
 70
     1
102
RTVSPropertyOp24
 70
     1
102
RTVSPropertyOp25
 70
     1
102
RTVSPropertyOp26
 70
     1
102
RTVSPropertyOp27
 70
     1
102
RTVSPropertyOp28
 70
     1
102
RTVSPropertyOp29
 70
     1
102
RTVSPropertyOp30
 70
     1
102
RTVSPropertyOp31
 70
     1
102
RTVSPropertyOp32
 70
     1
  0
XRECORD
  5
11E6
102
{ACAD_REACTORS
330
11E5
102
}
330
11E5
100
AcDbXrecord
280
     1
102
RTVSPropertyOp0
 70
     1
102
RTVSPropertyOp1
 70
     1
102
RTVSPropertyOp2
 70
     1
102
RTVSPropertyOp3
 70
     1
102
RTVSPropertyOp4
 70
     1
102
RTVSPropertyOp5
 70
     1
102
RTVSPropertyOp6
 70
     1
102
RTVSPropertyOp7
 70
     1
102
RTVSPropertyOp8
 70
     1
102
RTVSPropertyOp9
 70
     1
102
RTVSPropertyOp10
 70
     1
102
RTVSPropertyOp11
 70
     1
102
RTVSPropertyOp12
 70
     1
102
RTVSPropertyOp13
 70
     1
102
RTVSPropertyOp14
 70
     1
102
RTVSPropertyOp15
 70
     1
102
RTVSPropertyOp16
 70
     1
102
RTVSPropertyOp17
 70
     1
102
RTVSPropertyOp18
 70
     1
102
RTVSPropertyOp19
 70
     1
102
RTVSPropertyOp20
 70
     1
102
RTVSPropertyOp21
 70
     1
102
RTVSPropertyOp22
 70
     1
102
RTVSPropertyOp23
 70
     1
102
RTVSPropertyOp24
 70
     1
102
RTVSPropertyOp25
 70
     1
102
RTVSPropertyOp26
 70
     1
102
RTVSPropertyOp27
 70
     1
102
RTVSPropertyOp28
 70
     1
102
RTVSPropertyOp29
 70
     1
102
RTVSPropertyOp30
 70
     1
102
RTVSPropertyOp31
 70
     1
102
RTVSPropertyOp32
 70
     1
  0
XRECORD
  5
11E8
102
{ACAD_REACTORS
330
11E7
102
}
330
11E7
100
AcDbXrecord
280
     1
102
RTVSPropertyOp0
 70
     1
102
RTVSPropertyOp1
 70
     1
102
RTVSPropertyOp2
 70
     1
102
RTVSPropertyOp3
 70
     1
102
RTVSPropertyOp4
 70
     1
102
RTVSPropertyOp5
 70
     1
102
RTVSPropertyOp6
 70
     1
102
RTVSPropertyOp7
 70
     1
102
RTVSPropertyOp8
 70
     1
102
RTVSPropertyOp9
 70
     1
102
RTVSPropertyOp10
 70
     1
102
RTVSPropertyOp11
 70
     1
102
RTVSPropertyOp12
 70
     1
102
RTVSPropertyOp13
 70
     1
102
RTVSPropertyOp14
 70
     1
102
RTVSPropertyOp15
 70
     1
102
RTVSPropertyOp16
 70
     1
102
RTVSPropertyOp17
 70
     1
102
RTVSPropertyOp18
 70
     1
102
RTVSPropertyOp19
 70
     1
102
RTVSPropertyOp20
 70
     1
102
RTVSPropertyOp21
 70
     1
102
RTVSPropertyOp22
 70
     1
102
RTVSPropertyOp23
 70
     1
102
RTVSPropertyOp24
 70
     1
102
RTVSPropertyOp25
 70
     1
102
RTVSPropertyOp26
 70
     1
102
RTVSPropertyOp27
 70
     1
102
RTVSPropertyOp28
 70
     1
102
RTVSPropertyOp29
 70
     1
102
RTVSPropertyOp30
 70
     1
102
RTVSPropertyOp31
 70
     1
102
RTVSPropertyOp32
 70
     1
  0
XRECORD
  5
11F0
102
{ACAD_REACTORS
330
11EF
102
}
330
11EF
100
AcDbXrecord
280
     1
102
RTVSPropertyOp0
 70
     1
102
RTVSPropertyOp1
 70
     1
102
RTVSPropertyOp2
 70
     1
102
RTVSPropertyOp3
 70
     1
102
RTVSPropertyOp4
 70
     1
102
RTVSPropertyOp5
 70
     1
102
RTVSPropertyOp6
 70
     1
102
RTVSPropertyOp7
 70
     1
102
RTVSPropertyOp8
 70
     1
102
RTVSPropertyOp9
 70
     1
102
RTVSPropertyOp10
 70
     1
102
RTVSPropertyOp11
 70
     1
102
RTVSPropertyOp12
 70
     1
102
RTVSPropertyOp13
 70
     1
102
RTVSPropertyOp14
 70
     1
102
RTVSPropertyOp15
 70
     1
102
RTVSPropertyOp16
 70
     1
102
RTVSPropertyOp17
 70
     1
102
RTVSPropertyOp18
 70
     1
102
RTVSPropertyOp19
 70
     1
102
RTVSPropertyOp20
 70
     1
102
RTVSPropertyOp21
 70
     1
102
RTVSPropertyOp22
 70
     1
102
RTVSPropertyOp23
 70
     1
102
RTVSPropertyOp24
 70
     1
102
RTVSPropertyOp25
 70
     1
102
RTVSPropertyOp26
 70
     1
102
RTVSPropertyOp27
 70
     1
102
RTVSPropertyOp28
 70
     1
102
RTVSPropertyOp29
 70
     1
102
RTVSPropertyOp30
 70
     1
102
RTVSPropertyOp31
 70
     1
102
RTVSPropertyOp32
 70
     1
  0
XRECORD
  5
120C
102
{ACAD_REACTORS
330
120B
102
}
330
120B
100
AcDbXrecord
280
     1
102
RTVSPropertyOp0
 70
     0
102
RTVSPropertyOp1
 70
     0
102
RTVSPropertyOp2
 70
     0
102
RTVSPropertyOp3
 70
     0
102
RTVSPropertyOp4
 70
     0
102
RTVSPropertyOp5
 70
     0
102
RTVSPropertyOp6
 70
     0
102
RTVSPropertyOp7
 70
     0
102
RTVSPropertyOp8
 70
     0
102
RTVSPropertyOp9
 70
     0
102
RTVSPropertyOp10
 70
     0
102
RTVSPropertyOp11
 70
     0
102
RTVSPropertyOp12
 70
     0
102
RTVSPropertyOp13
 70
     0
102
RTVSPropertyOp14
 70
     2
102
RTVSPropertyOp15
 70
     0
102
RTVSPropertyOp16
 70
     0
102
RTVSPropertyOp17
 70
     0
102
RTVSPropertyOp18
 70
     0
102
RTVSPropertyOp19
 70
     0
102
RTVSPropertyOp20
 70
     0
102
RTVSPropertyOp21
 70
     0
102
RTVSPropertyOp22
 70
     0
102
RTVSPropertyOp23
 70
     0
102
RTVSPropertyOp24
 70
     0
102
RTVSPropertyOp25
 70
     0
102
RTVSPropertyOp26
 70
     0
102
RTVSPropertyOp27
 70
     0
102
RTVSPropertyOp28
 70
     0
102
RTVSPropertyOp29
 70
     0
102
RTVSPropertyOp30
 70
     0
102
RTVSPropertyOp31
 70
     0
102
RTVSPropertyOp32
 70
     0
  0
XRECORD
  5
11FC
102
{ACAD_REACTORS
330
11FB
102
}
330
11FB
100
AcDbXrecord
280
     1
102
RTVSPropertyOp0
 70
     1
102
RTVSPropertyOp1
 70
     1
102
RTVSPropertyOp2
 70
     1
102
RTVSPropertyOp3
 70
     1
102
RTVSPropertyOp4
 70
     1
102
RTVSPropertyOp5
 70
     1
102
RTVSPropertyOp6
 70
     1
102
RTVSPropertyOp7
 70
     1
102
RTVSPropertyOp8
 70
     1
102
RTVSPropertyOp9
 70
     1
102
RTVSPropertyOp10
 70
     1
102
RTVSPropertyOp11
 70
     1
102
RTVSPropertyOp12
 70
     1
102
RTVSPropertyOp13
 70
     1
102
RTVSPropertyOp14
 70
     1
102
RTVSPropertyOp15
 70
     1
102
RTVSPropertyOp16
 70
     1
102
RTVSPropertyOp17
 70
     1
102
RTVSPropertyOp18
 70
     1
102
RTVSPropertyOp19
 70
     1
102
RTVSPropertyOp20
 70
     1
102
RTVSPropertyOp21
 70
     1
102
RTVSPropertyOp22
 70
     1
102
RTVSPropertyOp23
 70
     1
102
RTVSPropertyOp24
 70
     1
102
RTVSPropertyOp25
 70
     1
102
RTVSPropertyOp26
 70
     1
102
RTVSPropertyOp27
 70
     1
102
RTVSPropertyOp28
 70
     1
102
RTVSPropertyOp29
 70
     1
102
RTVSPropertyOp30
 70
     1
102
RTVSPropertyOp31
 70
     1
102
RTVSPropertyOp32
 70
     1
  0
XRECORD
  5
120E
102
{ACAD_REACTORS
330
120D
102
}
330
120D
100
AcDbXrecord
280
     1
102
RTVSPropertyOp0
 70
     0
102
RTVSPropertyOp1
 70
     0
102
RTVSPropertyOp2
 70
     0
102
RTVSPropertyOp3
 70
     0
102
RTVSPropertyOp4
 70
     0
102
RTVSPropertyOp5
 70
     0
102
RTVSPropertyOp6
 70
     0
102
RTVSPropertyOp7
 70
     0
102
RTVSPropertyOp8
 70
     0
102
RTVSPropertyOp9
 70
     0
102
RTVSPropertyOp10
 70
     0
102
RTVSPropertyOp11
 70
     0
102
RTVSPropertyOp12
 70
     0
102
RTVSPropertyOp13
 70
     0
102
RTVSPropertyOp14
 70
     2
102
RTVSPropertyOp15
 70
     0
102
RTVSPropertyOp16
 70
     0
102
RTVSPropertyOp17
 70
     0
102
RTVSPropertyOp18
 70
     0
102
RTVSPropertyOp19
 70
     0
102
RTVSPropertyOp20
 70
     0
102
RTVSPropertyOp21
 70
     0
102
RTVSPropertyOp22
 70
     0
102
RTVSPropertyOp23
 70
     0
102
RTVSPropertyOp24
 70
     0
102
RTVSPropertyOp25
 70
     0
102
RTVSPropertyOp26
 70
     0
102
RTVSPropertyOp27
 70
     0
102
RTVSPropertyOp28
 70
     0
102
RTVSPropertyOp29
 70
     0
102
RTVSPropertyOp30
 70
     0
102
RTVSPropertyOp31
 70
     0
102
RTVSPropertyOp32
 70
     0
  0
XRECORD
  5
11F4
102
{ACAD_REACTORS
330
11F3
102
}
330
11F3
100
AcDbXrecord
280
     1
102
RTVSPropertyOp0
 70
     1
102
RTVSPropertyOp1
 70
     1
102
RTVSPropertyOp2
 70
     1
102
RTVSPropertyOp3
 70
     1
102
RTVSPropertyOp4
 70
     1
102
RTVSPropertyOp5
 70
     1
102
RTVSPropertyOp6
 70
     1
102
RTVSPropertyOp7
 70
     1
102
RTVSPropertyOp8
 70
     1
102
RTVSPropertyOp9
 70
     1
102
RTVSPropertyOp10
 70
     1
102
RTVSPropertyOp11
 70
     1
102
RTVSPropertyOp12
 70
     1
102
RTVSPropertyOp13
 70
     1
102
RTVSPropertyOp14
 70
     1
102
RTVSPropertyOp15
 70
     1
102
RTVSPropertyOp16
 70
     1
102
RTVSPropertyOp17
 70
     1
102
RTVSPropertyOp18
 70
     1
102
RTVSPropertyOp19
 70
     1
102
RTVSPropertyOp20
 70
     1
102
RTVSPropertyOp21
 70
     1
102
RTVSPropertyOp22
 70
     1
102
RTVSPropertyOp23
 70
     1
102
RTVSPropertyOp24
 70
     1
102
RTVSPropertyOp25
 70
     1
102
RTVSPropertyOp26
 70
     1
102
RTVSPropertyOp27
 70
     1
102
RTVSPropertyOp28
 70
     1
102
RTVSPropertyOp29
 70
     1
102
RTVSPropertyOp30
 70
     1
102
RTVSPropertyOp31
 70
     1
102
RTVSPropertyOp32
 70
     1
  0
XRECORD
  5
120A
102
{ACAD_REACTORS
330
1209
102
}
330
1209
100
AcDbXrecord
280
     1
102
RTVSPropertyOp0
 70
     1
102
RTVSPropertyOp1
 70
     1
102
RTVSPropertyOp2
 70
     1
102
RTVSPropertyOp3
 70
     1
102
RTVSPropertyOp4
 70
     1
102
RTVSPropertyOp5
 70
     1
102
RTVSPropertyOp6
 70
     1
102
RTVSPropertyOp7
 70
     1
102
RTVSPropertyOp8
 70
     1
102
RTVSPropertyOp9
 70
     1
102
RTVSPropertyOp10
 70
     1
102
RTVSPropertyOp11
 70
     1
102
RTVSPropertyOp12
 70
     1
102
RTVSPropertyOp13
 70
     1
102
RTVSPropertyOp14
 70
     1
102
RTVSPropertyOp15
 70
     1
102
RTVSPropertyOp16
 70
     1
102
RTVSPropertyOp17
 70
     1
102
RTVSPropertyOp18
 70
     1
102
RTVSPropertyOp19
 70
     1
102
RTVSPropertyOp20
 70
     1
102
RTVSPropertyOp21
 70
     1
102
RTVSPropertyOp22
 70
     1
102
RTVSPropertyOp23
 70
     1
102
RTVSPropertyOp24
 70
     1
102
RTVSPropertyOp25
 70
     1
102
RTVSPropertyOp26
 70
     1
102
RTVSPropertyOp27
 70
     1
102
RTVSPropertyOp28
 70
     1
102
RTVSPropertyOp29
 70
     1
102
RTVSPropertyOp30
 70
     1
102
RTVSPropertyOp31
 70
     1
102
RTVSPropertyOp32
 70
     1
  0
XRECORD
  5
1208
102
{ACAD_REACTORS
330
1207
102
}
330
1207
100
AcDbXrecord
280
     1
102
RTVSPropertyOp0
 70
     1
102
RTVSPropertyOp1
 70
     1
102
RTVSPropertyOp2
 70
     1
102
RTVSPropertyOp3
 70
     1
102
RTVSPropertyOp4
 70
     1
102
RTVSPropertyOp5
 70
     1
102
RTVSPropertyOp6
 70
     1
102
RTVSPropertyOp7
 70
     1
102
RTVSPropertyOp8
 70
     1
102
RTVSPropertyOp9
 70
     1
102
RTVSPropertyOp10
 70
     1
102
RTVSPropertyOp11
 70
     1
102
RTVSPropertyOp12
 70
     1
102
RTVSPropertyOp13
 70
     1
102
RTVSPropertyOp14
 70
     1
102
RTVSPropertyOp15
 70
     1
102
RTVSPropertyOp16
 70
     1
102
RTVSPropertyOp17
 70
     1
102
RTVSPropertyOp18
 70
     1
102
RTVSPropertyOp19
 70
     1
102
RTVSPropertyOp20
 70
     1
102
RTVSPropertyOp21
 70
     1
102
RTVSPropertyOp22
 70
     1
102
RTVSPropertyOp23
 70
     1
102
RTVSPropertyOp24
 70
     1
102
RTVSPropertyOp25
 70
     1
102
RTVSPropertyOp26
 70
     1
102
RTVSPropertyOp27
 70
     1
102
RTVSPropertyOp28
 70
     1
102
RTVSPropertyOp29
 70
     1
102
RTVSPropertyOp30
 70
     1
102
RTVSPropertyOp31
 70
     1
102
RTVSPropertyOp32
 70
     1
  0
XRECORD
  5
1202
102
{ACAD_REACTORS
330
1201
102
}
330
1201
100
AcDbXrecord
280
     1
102
RTVSPropertyOp0
 70
     1
102
RTVSPropertyOp1
 70
     1
102
RTVSPropertyOp2
 70
     1
102
RTVSPropertyOp3
 70
     1
102
RTVSPropertyOp4
 70
     1
102
RTVSPropertyOp5
 70
     1
102
RTVSPropertyOp6
 70
     1
102
RTVSPropertyOp7
 70
     1
102
RTVSPropertyOp8
 70
     1
102
RTVSPropertyOp9
 70
     1
102
RTVSPropertyOp10
 70
     1
102
RTVSPropertyOp11
 70
     1
102
RTVSPropertyOp12
 70
     1
102
RTVSPropertyOp13
 70
     1
102
RTVSPropertyOp14
 70
     1
102
RTVSPropertyOp15
 70
     1
102
RTVSPropertyOp16
 70
     1
102
RTVSPropertyOp17
 70
     1
102
RTVSPropertyOp18
 70
     1
102
RTVSPropertyOp19
 70
     1
102
RTVSPropertyOp20
 70
     1
102
RTVSPropertyOp21
 70
     1
102
RTVSPropertyOp22
 70
     1
102
RTVSPropertyOp23
 70
     1
102
RTVSPropertyOp24
 70
     1
102
RTVSPropertyOp25
 70
     1
102
RTVSPropertyOp26
 70
     1
102
RTVSPropertyOp27
 70
     1
102
RTVSPropertyOp28
 70
     1
102
RTVSPropertyOp29
 70
     1
102
RTVSPropertyOp30
 70
     1
102
RTVSPropertyOp31
 70
     1
102
RTVSPropertyOp32
 70
     1
  0
XRECORD
  5
1204
102
{ACAD_REACTORS
330
1203
102
}
330
1203
100
AcDbXrecord
280
     1
102
RTVSPropertyOp0
 70
     1
102
RTVSPropertyOp1
 70
     1
102
RTVSPropertyOp2
 70
     1
102
RTVSPropertyOp3
 70
     1
102
RTVSPropertyOp4
 70
     1
102
RTVSPropertyOp5
 70
     1
102
RTVSPropertyOp6
 70
     1
102
RTVSPropertyOp7
 70
     1
102
RTVSPropertyOp8
 70
     1
102
RTVSPropertyOp9
 70
     1
102
RTVSPropertyOp10
 70
     1
102
RTVSPropertyOp11
 70
     1
102
RTVSPropertyOp12
 70
     1
102
RTVSPropertyOp13
 70
     1
102
RTVSPropertyOp14
 70
     1
102
RTVSPropertyOp15
 70
     1
102
RTVSPropertyOp16
 70
     1
102
RTVSPropertyOp17
 70
     1
102
RTVSPropertyOp18
 70
     1
102
RTVSPropertyOp19
 70
     1
102
RTVSPropertyOp20
 70
     1
102
RTVSPropertyOp21
 70
     1
102
RTVSPropertyOp22
 70
     1
102
RTVSPropertyOp23
 70
     1
102
RTVSPropertyOp24
 70
     1
102
RTVSPropertyOp25
 70
     1
102
RTVSPropertyOp26
 70
     1
102
RTVSPropertyOp27
 70
     1
102
RTVSPropertyOp28
 70
     1
102
RTVSPropertyOp29
 70
     1
102
RTVSPropertyOp30
 70
     1
102
RTVSPropertyOp31
 70
     1
102
RTVSPropertyOp32
 70
     1
  0
XRECORD
  5
11FA
102
{ACAD_REACTORS
330
11F9
102
}
330
11F9
100
AcDbXrecord
280
     1
102
RTVSPropertyOp0
 70
     1
102
RTVSPropertyOp1
 70
     1
102
RTVSPropertyOp2
 70
     1
102
RTVSPropertyOp3
 70
     1
102
RTVSPropertyOp4
 70
     1
102
RTVSPropertyOp5
 70
     1
102
RTVSPropertyOp6
 70
     1
102
RTVSPropertyOp7
 70
     1
102
RTVSPropertyOp8
 70
     1
102
RTVSPropertyOp9
 70
     1
102
RTVSPropertyOp10
 70
     1
102
RTVSPropertyOp11
 70
     1
102
RTVSPropertyOp12
 70
     1
102
RTVSPropertyOp13
 70
     1
102
RTVSPropertyOp14
 70
     1
102
RTVSPropertyOp15
 70
     1
102
RTVSPropertyOp16
 70
     1
102
RTVSPropertyOp17
 70
     1
102
RTVSPropertyOp18
 70
     1
102
RTVSPropertyOp19
 70
     1
102
RTVSPropertyOp20
 70
     1
102
RTVSPropertyOp21
 70
     1
102
RTVSPropertyOp22
 70
     1
102
RTVSPropertyOp23
 70
     1
102
RTVSPropertyOp24
 70
     1
102
RTVSPropertyOp25
 70
     1
102
RTVSPropertyOp26
 70
     1
102
RTVSPropertyOp27
 70
     1
102
RTVSPropertyOp28
 70
     1
102
RTVSPropertyOp29
 70
     1
102
RTVSPropertyOp30
 70
     1
102
RTVSPropertyOp31
 70
     1
102
RTVSPropertyOp32
 70
     1
  0
XRECORD
  5
11EE
102
{ACAD_REACTORS
330
11ED
102
}
330
11ED
100
AcDbXrecord
280
     1
102
RTVSPropertyOp0
 70
     1
102
RTVSPropertyOp1
 70
     1
102
RTVSPropertyOp2
 70
     1
102
RTVSPropertyOp3
 70
     1
102
RTVSPropertyOp4
 70
     1
102
RTVSPropertyOp5
 70
     1
102
RTVSPropertyOp6
 70
     1
102
RTVSPropertyOp7
 70
     1
102
RTVSPropertyOp8
 70
     1
102
RTVSPropertyOp9
 70
     1
102
RTVSPropertyOp10
 70
     1
102
RTVSPropertyOp11
 70
     1
102
RTVSPropertyOp12
 70
     1
102
RTVSPropertyOp13
 70
     1
102
RTVSPropertyOp14
 70
     1
102
RTVSPropertyOp15
 70
     1
102
RTVSPropertyOp16
 70
     1
102
RTVSPropertyOp17
 70
     1
102
RTVSPropertyOp18
 70
     1
102
RTVSPropertyOp19
 70
     1
102
RTVSPropertyOp20
 70
     1
102
RTVSPropertyOp21
 70
     1
102
RTVSPropertyOp22
 70
     1
102
RTVSPropertyOp23
 70
     1
102
RTVSPropertyOp24
 70
     1
102
RTVSPropertyOp25
 70
     1
102
RTVSPropertyOp26
 70
     1
102
RTVSPropertyOp27
 70
     1
102
RTVSPropertyOp28
 70
     1
102
RTVSPropertyOp29
 70
     1
102
RTVSPropertyOp30
 70
     1
102
RTVSPropertyOp31
 70
     1
102
RTVSPropertyOp32
 70
     1
  0
XRECORD
  5
1206
102
{ACAD_REACTORS
330
1205
102
}
330
1205
100
AcDbXrecord
280
     1
102
RTVSPropertyOp0
 70
     1
102
RTVSPropertyOp1
 70
     1
102
RTVSPropertyOp2
 70
     1
102
RTVSPropertyOp3
 70
     1
102
RTVSPropertyOp4
 70
     1
102
RTVSPropertyOp5
 70
     1
102
RTVSPropertyOp6
 70
     1
102
RTVSPropertyOp7
 70
     1
102
RTVSPropertyOp8
 70
     1
102
RTVSPropertyOp9
 70
     1
102
RTVSPropertyOp10
 70
     1
102
RTVSPropertyOp11
 70
     1
102
RTVSPropertyOp12
 70
     1
102
RTVSPropertyOp13
 70
     1
102
RTVSPropertyOp14
 70
     1
102
RTVSPropertyOp15
 70
     1
102
RTVSPropertyOp16
 70
     1
102
RTVSPropertyOp17
 70
     1
102
RTVSPropertyOp18
 70
     1
102
RTVSPropertyOp19
 70
     1
102
RTVSPropertyOp20
 70
     1
102
RTVSPropertyOp21
 70
     1
102
RTVSPropertyOp22
 70
     1
102
RTVSPropertyOp23
 70
     1
102
RTVSPropertyOp24
 70
     1
102
RTVSPropertyOp25
 70
     1
102
RTVSPropertyOp26
 70
     1
102
RTVSPropertyOp27
 70
     1
102
RTVSPropertyOp28
 70
     1
102
RTVSPropertyOp29
 70
     1
102
RTVSPropertyOp30
 70
     1
102
RTVSPropertyOp31
 70
     1
102
RTVSPropertyOp32
 70
     1
  0
ENDSEC
  0
EOF
