  0
SECTION
  2
HEADER
  9
$ACADVER
  1
AC1015
  9
$ACADMAINTVER
 70
     6
  9
$DWGCODEPAGE
  3
ANSI_1252
  9
$INSBASE
 10
0.0
 20
0.0
 30
0.0
  9
$EXTMIN
 10
-0.1425714900919815
 20
-0.0813927472552862
 30
-0.0000000349181948
  9
$EXTMAX
 10
5.329591018465415
 20
4.283624478948511
 30
0.0000000814935746
  9
$LIMMIN
 10
0.0
 20
0.0
  9
$LIMMAX
 10
16.0
 20
21.0
  9
$ORTHOMODE
 70
     0
  9
$REGENMODE
 70
     1
  9
$FILLMODE
 70
     1
  9
$QTEXTMODE
 70
     0
  9
$MIRRTEXT
 70
     0
  9
$LTSCALE
 40
0.5
  9
$ATTMODE
 70
     1
  9
$TEXTSIZE
 40
0.18
  9
$TRACEWID
 40
0.05
  9
$TEXTSTYLE
  7
STANDARD
  9
$CLAYER
  8
0
  9
$CELTYPE
  6
BYLAYER
  9
$CECOLOR
 62
   256
  9
$CELTSCALE
 40
1.0
  9
$DISPSILH
 70
     0
  9
$DIMSCALE
 40
2.0
  9
$DIMASZ
 40
0.125
  9
$DIMEXO
 40
0.062
  9
$DIMDLI
 40
0.375
  9
$DIMRND
 40
0.0
  9
$DIMDLE
 40
0.0
  9
$DIMEXE
 40
0.08
  9
$DIMTP
 40
0.0
  9
$DIMTM
 40
0.0
  9
$DIMTXT
 40
0.09
  9
$DIMCEN
 40
-0.06
  9
$DIMTSZ
 40
0.0
  9
$DIMTOL
 70
     0
  9
$DIMLIM
 70
     0
  9
$DIMTIH
 70
     1
  9
$DIMTOH
 70
     1
  9
$DIMSE1
 70
     0
  9
$DIMSE2
 70
     0
  9
$DIMTAD
 70
     0
  9
$DIMZIN
 70
     0
  9
$DIMBLK
  1

  9
$DIMASO
 70
     0
  9
$DIMSHO
 70
     0
  9
$DIMPOST
  1

  9
$DIMAPOST
  1

  9
$DIMALT
 70
     0
  9
$DIMALTD
 70
     2
  9
$DIMALTF
 40
25.4
  9
$DIMLFAC
 40
1.0
  9
$DIMTOFL
 70
     0
  9
$DIMTVP
 40
0.0
  9
$DIMTIX
 70
     0
  9
$DIMSOXD
 70
     0
  9
$DIMSAH
 70
     0
  9
$DIMBLK1
  1

  9
$DIMBLK2
  1

  9
$DIMSTYLE
  2
STANDARD
  9
$DIMCLRD
 70
     0
  9
$DIMCLRE
 70
     0
  9
$DIMCLRT
 70
     0
  9
$DIMTFAC
 40
1.0
  9
$DIMGAP
 40
0.09
  9
$DIMJUST
 70
     0
  9
$DIMSD1
 70
     0
  9
$DIMSD2
 70
     0
  9
$DIMTOLJ
 70
     1
  9
$DIMTZIN
 70
     0
  9
$DIMALTZ
 70
     0
  9
$DIMALTTZ
 70
     0
  9
$DIMUPT
 70
     0
  9
$DIMDEC
 70
     5
  9
$DIMTDEC
 70
     5
  9
$DIMALTU
 70
     5
  9
$DIMALTTD
 70
     2
  9
$DIMTXSTY
  7
STANDARD
  9
$DIMAUNIT
 70
     0
  9
$DIMADEC
 70
     0
  9
$DIMALTRND
 40
0.0
  9
$DIMAZIN
 70
     0
  9
$DIMDSEP
 70
    46
  9
$DIMATFIT
 70
     3
  9
$DIMFRAC
 70
     0
  9
$DIMLDRBLK
  1

  9
$DIMLUNIT
 70
     5
  9
$DIMLWD
 70
    -2
  9
$DIMLWE
 70
    -2
  9
$DIMTMOVE
 70
     2
  9
$LUNITS
 70
     5
  9
$LUPREC
 70
     5
  9
$SKETCHINC
 40
0.1
  9
$FILLETRAD
 40
0.07
  9
$AUNITS
 70
     0
  9
$AUPREC
 70
     0
  9
$MENU
  1
qa
  9
$ELEVATION
 40
0.0
  9
$PELEVATION
 40
0.0
  9
$THICKNESS
 40
0.0
  9
$LIMCHECK
 70
     0
  9
$CHAMFERA
 40
0.34375
  9
$CHAMFERB
 40
0.34375
  9
$CHAMFERC
 40
0.0
  9
$CHAMFERD
 40
0.0
  9
$SKPOLY
 70
     0
  9
$TDCREATE
 40
2449192.875516783
  9
$TDUCREATE
 40
2449193.208850116
  9
$TDUPDATE
 40
2454160.698523935
  9
$TDUUPDATE
 40
2454161.031857268
  9
$TDINDWG
 40
0.1243208449
  9
$TDUSRTIMER
 40
0.1243208449
  9
$USRTIMER
 70
     1
  9
$ANGBASE
 50
0.0
  9
$ANGDIR
 70
     0
  9
$PDMODE
 70
     0
  9
$PDSIZE
 40
0.0
  9
$PLINEWID
 40
0.0
  9
$SPLFRAME
 70
     0
  9
$SPLINETYPE
 70
     6
  9
$SPLINESEGS
 70
     8
  9
$HANDSEED
  5
15D
  9
$SURFTAB1
 70
     6
  9
$SURFTAB2
 70
     6
  9
$SURFTYPE
 70
     6
  9
$SURFU
 70
     6
  9
$SURFV
 70
     6
  9
$UCSBASE
  2

  9
$UCSNAME
  2

  9
$UCSORG
 10
0.0
 20
0.0
 30
0.0
  9
$UCSXDIR
 10
1.0
 20
0.0
 30
0.0
  9
$UCSYDIR
 10
0.0
 20
1.0
 30
0.0
  9
$UCSORTHOREF
  2

  9
$UCSORTHOVIEW
 70
     0
  9
$UCSORGTOP
 10
0.0
 20
0.0
 30
0.0
  9
$UCSORGBOTTOM
 10
0.0
 20
0.0
 30
0.0
  9
$UCSORGLEFT
 10
0.0
 20
0.0
 30
0.0
  9
$UCSORGRIGHT
 10
0.0
 20
0.0
 30
0.0
  9
$UCSORGFRONT
 10
0.0
 20
0.0
 30
0.0
  9
$UCSORGBACK
 10
0.0
 20
0.0
 30
0.0
  9
$PUCSBASE
  2

  9
$PUCSNAME
  2

  9
$PUCSORG
 10
0.0
 20
0.0
 30
0.0
  9
$PUCSXDIR
 10
1.0
 20
0.0
 30
0.0
  9
$PUCSYDIR
 10
0.0
 20
1.0
 30
0.0
  9
$PUCSORTHOREF
  2

  9
$PUCSORTHOVIEW
 70
     0
  9
$PUCSORGTOP
 10
0.0
 20
0.0
 30
0.0
  9
$PUCSORGBOTTOM
 10
0.0
 20
0.0
 30
0.0
  9
$PUCSORGLEFT
 10
0.0
 20
0.0
 30
0.0
  9
$PUCSORGRIGHT
 10
0.0
 20
0.0
 30
0.0
  9
$PUCSORGFRONT
 10
0.0
 20
0.0
 30
0.0
  9
$PUCSORGBACK
 10
0.0
 20
0.0
 30
0.0
  9
$USERI1
 70
     0
  9
$USERI2
 70
     0
  9
$USERI3
 70
     0
  9
$USERI4
 70
     0
  9
$USERI5
 70
     0
  9
$USERR1
 40
0.0
  9
$USERR2
 40
0.0
  9
$USERR3
 40
0.0
  9
$USERR4
 40
0.0
  9
$USERR5
 40
0.0
  9
$WORLDVIEW
 70
     1
  9
$SHADEDGE
 70
     3
  9
$SHADEDIF
 70
    70
  9
$TILEMODE
 70
     1
  9
$MAXACTVP
 70
    16
  9
$PINSBASE
 10
0.0
 20
0.0
 30
0.0
  9
$PLIMCHECK
 70
     0
  9
$PEXTMIN
 10
1.000000000000000E+20
 20
1.000000000000000E+20
 30
1.000000000000000E+20
  9
$PEXTMAX
 10
-1.000000000000000E+20
 20
-1.000000000000000E+20
 30
-1.000000000000000E+20
  9
$PLIMMIN
 10
0.0
 20
0.0
  9
$PLIMMAX
 10
12.0
 20
9.0
  9
$UNITMODE
 70
     0
  9
$VISRETAIN
 70
     0
  9
$PLINEGEN
 70
     0
  9
$PSLTSCALE
 70
     0
  9
$TREEDEPTH
 70
  3020
  9
$CMLSTYLE
  2
STANDARD
  9
$CMLJUST
 70
     0
  9
$CMLSCALE
 40
1.0
  9
$PROXYGRAPHICS
 70
     1
  9
$MEASUREMENT
 70
     0
  9
$CELWEIGHT
370
    -1
  9
$ENDCAPS
280
     0
  9
$JOINSTYLE
280
     0
  9
$LWDISPLAY
290
     0
  9
$INSUNITS
 70
     0
  9
$HYPERLINKBASE
  1

  9
$STYLESHEET
  1

  9
$XEDIT
290
     1
  9
$CEPSNTYPE
380
     0
  9
$PSTYLEMODE
290
     1
  9
$FINGERPRINTGUID
  2
{2E7EA737-DB5A-11D6-BE3F-00508B5FCD51}
  9
$VERSIONGUID
  2
{229DB941-6C57-4297-B1CC-31CF1C84E8B0}
  9
$EXTNAMES
290
     1
  9
$PSVPSCALE
 40
0.0
  9
$OLESTARTUP
290
     0
  0
ENDSEC
  0
SECTION
  2
CLASSES
  0
CLASS
  1
DICTIONARYVAR
  2
AcDbDictionaryVar
  3
AutoCAD 2000
 90
        0
280
     0
281
     0
  0
CLASS
  1
LWPOLYLINE
  2
AcDbPolyline
  3
AutoCAD 2000
 90
        0
280
     0
281
     1
  0
CLASS
  1
ACDBDICTIONARYWDFLT
  2
AcDbDictionaryWithDefault
  3
AutoCAD 2000
 90
        0
280
     0
281
     0
  0
CLASS
  1
ACDBPLACEHOLDER
  2
AcDbPlaceHolder
  3
ObjectDBX Classes
 90
        0
280
     0
281
     0
  0
CLASS
  1
LAYOUT
  2
AcDbLayout
  3
ObjectDBX Classes
 90
        0
280
     0
281
     0
  0
CLASS
  1
LONG_TRANSACTION
  2
AcDbLongTransaction
  3
ObjectDBX Classes
 90
   -65536
280
     1
281
     0
  0
CLASS
  1
LWPOLYLINE
  2
AcDbPolyline
  3
AutoCAD 2000
 90
        0
280
     0
281
     1
  0
CLASS
  1
HATCH
  2
AcDbHatch
  3
AutoCAD 2000
 90
        0
280
     0
281
     1
  0
CLASS
  1
XRECORD
  2
AcDbXrecord
  3
AutoCAD 2000
 90
        0
280
     0
281
     0
  0
CLASS
  1
LONG_TRANSACTION
  2
AcDbLongTransaction
  3
ObjectDBX Classes
 90
   -65536
280
     1
281
     0
  0
CLASS
  1
LWPOLYLINE
  2
AcDbPolyline
  3
AutoCAD 2000
 90
        0
280
     0
281
     1
  0
CLASS
  1
HATCH
  2
AcDbHatch
  3
AutoCAD 2000
 90
        0
280
     0
281
     1
  0
CLASS
  1
XRECORD
  2
AcDbXrecord
  3
AutoCAD 2000
 90
        0
280
     0
281
     0
  0
CLASS
  1
LONG_TRANSACTION
  2
AcDbLongTransaction
  3
ObjectDBX Classes
 90
   -65536
280
     1
281
     0
  0
CLASS
  1
LWPOLYLINE
  2
AcDbPolyline
  3
AutoCAD 2000
 90
        0
280
     0
281
     1
  0
CLASS
  1
HATCH
  2
AcDbHatch
  3
AutoCAD 2000
 90
        0
280
     0
281
     1
  0
CLASS
  1
XRECORD
  2
AcDbXrecord
  3
AutoCAD 2000
 90
        0
280
     0
281
     0
  0
CLASS
  1
LONG_TRANSACTION
  2
AcDbLongTransaction
  3
ObjectDBX Classes
 90
   -65536
280
     1
281
     0
  0
CLASS
  1
LWPOLYLINE
  2
AcDbPolyline
  3
AutoCAD 2000
 90
        0
280
     0
281
     1
  0
CLASS
  1
HATCH
  2
AcDbHatch
  3
AutoCAD 2000
 90
        0
280
     0
281
     1
  0
CLASS
  1
XRECORD
  2
AcDbXrecord
  3
AutoCAD 2000
 90
        0
280
     0
281
     0
  0
CLASS
  1
LONG_TRANSACTION
  2
AcDbLongTransaction
  3
ObjectDBX Classes
 90
   -65536
280
     1
281
     0
  0
CLASS
  1
LWPOLYLINE
  2
AcDbPolyline
  3
AutoCAD 2000
 90
        0
280
     0
281
     1
  0
CLASS
  1
HATCH
  2
AcDbHatch
  3
AutoCAD 2000
 90
        0
280
     0
281
     1
  0
CLASS
  1
XRECORD
  2
AcDbXrecord
  3
AutoCAD 2000
 90
        0
280
     0
281
     0
  0
CLASS
  1
LONG_TRANSACTION
  2
AcDbLongTransaction
  3
ObjectDBX Classes
 90
   -65536
280
     1
281
     0
  0
CLASS
  1
LWPOLYLINE
  2
AcDbPolyline
  3
AutoCAD 2000
 90
        0
280
     0
281
     1
  0
CLASS
  1
HATCH
  2
AcDbHatch
  3
AutoCAD 2000
 90
        0
280
     0
281
     1
  0
CLASS
  1
XRECORD
  2
AcDbXrecord
  3
AutoCAD 2000
 90
        0
280
     0
281
     0
  0
CLASS
  1
TABLESTYLE
  2
AcDbTableStyle
  3
ObjectDBX Classes
 90
     2047
280
     1
281
     0
  0
CLASS
  1
SORTENTSTABLE
  2
AcDbSortentsTable
  3
AutoCAD 2000
 90
        0
280
     0
281
     0
  0
ENDSEC
  0
SECTION
  2
TABLES
  0
TABLE
  2
VPORT
  5
1D
330
0
100
AcDbSymbolTable
 70
     2
  0
VPORT
  5
14F
330
1D
100
AcDbSymbolTableRecord
100
AcDbViewportTableRecord
  2
*Active
 70
     0
 10
0.0
 20
0.0
 11
1.0
 21
1.0
 12
7.928714254954009
 22
10.45930362637236
 13
0.0
 23
0.0
 14
0.063
 24
0.063
 15
0.25
 25
0.25
 16
0.0
 26
0.0
 36
1.0
 17
0.0
 27
0.0
 37
0.0
 40
21.3443623033541
 41
1.814583333333333
 42
50.0
 43
0.0
 44
0.0
 50
0.0
 51
0.0
 71
     0
 72
   100
 73
     1
 74
     0
 75
     0
 76
     0
 77
     0
 78
     0
281
     0
 65
     1
110
0.0
120
0.0
130
0.0
111
1.0
121
0.0
131
0.0
112
0.0
122
1.0
132
0.0
 79
     0
146
0.0
  0
ENDTAB
  0
TABLE
  2
LTYPE
  5
18
330
0
100
AcDbSymbolTable
 70
     1
  0
LTYPE
  5
19
330
18
100
AcDbSymbolTableRecord
100
AcDbLinetypeTableRecord
  2
BYBLOCK
 70
     0
  3

 72
    65
 73
     0
 40
0.0
  0
LTYPE
  5
1A
330
18
100
AcDbSymbolTableRecord
100
AcDbLinetypeTableRecord
  2
BYLAYER
 70
     0
  3

 72
    65
 73
     0
 40
0.0
  0
LTYPE
  5
A
330
18
100
AcDbSymbolTableRecord
100
AcDbLinetypeTableRecord
  2
CONTINUOUS
 70
     0
  3
Solid line
 72
    65
 73
     0
 40
0.0
  0
ENDTAB
  0
TABLE
  2
LAYER
  5
14
330
0
100
AcDbSymbolTable
 70
     2
  0
LAYER
  5
6
330
14
100
AcDbSymbolTableRecord
100
AcDbLayerTableRecord
  2
0
 70
     0
 62
     7
  6
CONTINUOUS
370
    -3
390
7
  0
ENDTAB
  0
TABLE
  2
STYLE
  5
15
330
0
100
AcDbSymbolTable
 70
     1
  0
STYLE
  5
16
330
15
100
AcDbSymbolTableRecord
100
AcDbTextStyleTableRecord
  2
STANDARD
 70
     0
 40
0.0
 41
1.0
 50
0.0
 71
     0
 42
0.18
  3
TXT
  4

  0
ENDTAB
  0
TABLE
  2
VIEW
  5
1B
330
0
100
AcDbSymbolTable
 70
     0
  0
ENDTAB
  0
TABLE
  2
UCS
  5
1C
330
0
100
AcDbSymbolTable
 70
     0
  0
ENDTAB
  0
TABLE
  2
APPID
  5
1F
330
0
100
AcDbSymbolTable
 70
     1
  0
APPID
  5
20
330
1F
100
AcDbSymbolTableRecord
100
AcDbRegAppTableRecord
  2
ACAD
 70
     0
  0
ENDTAB
  0
TABLE
  2
DIMSTYLE
  5
21
330
0
100
AcDbSymbolTable
 70
     1
100
AcDbDimStyleTable
  0
DIMSTYLE
105
2A
330
21
100
AcDbSymbolTableRecord
100
AcDbDimStyleTableRecord
  2
STANDARD
 70
     0
  3

  4

340
16
  0
ENDTAB
  0
TABLE
  2
BLOCK_RECORD
  5
1
330
0
100
AcDbSymbolTable
 70
     0
  0
BLOCK_RECORD
  5
2
102
{ACAD_XDICTIONARY
360
3
102
}
330
1
100
AcDbSymbolTableRecord
100
AcDbBlockTableRecord
  2
*MODEL_SPACE
340
C
  0
BLOCK_RECORD
  5
E
330
1
100
AcDbSymbolTableRecord
100
AcDbBlockTableRecord
  2
*PAPER_SPACE
340
13
  0
ENDTAB
  0
ENDSEC
  0
SECTION
  2
BLOCKS
  0
BLOCK
  5
5
330
2
100
AcDbEntity
  8
0
100
AcDbBlockBegin
  2
*MODEL_SPACE
 70
     0
 10
0.0
 20
0.0
 30
0.0
  3
*MODEL_SPACE
  1

  4

  0
ENDBLK
  5
B
330
2
100
AcDbEntity
  8
0
100
AcDbBlockEnd
  0
BLOCK
  5
11
330
E
100
AcDbEntity
 67
     1
  8
0
100
AcDbBlockBegin
  2
*PAPER_SPACE
 70
     0
 10
0.0
 20
0.0
 30
0.0
  3
*PAPER_SPACE
  1

  4

  0
ENDBLK
  5
12
330
E
100
AcDbEntity
 67
     1
  8
0
100
AcDbBlockEnd
  0
ENDSEC
  0
SECTION
  2
ENTITIES
  0
LINE
  5
BE
330
2
100
AcDbEntity
  8
0
100
AcDbLine
 10
1.28125
 20
0.2656499999999973
 30
0.0
 11
1.28125
 21
0.0700000000000074
 31
0.0
  0
ARC
  5
BF
330
2
100
AcDbEntity
  8
0
100
AcDbCircle
 10
1.35125
 20
0.2656499999999973
 30
0.0
 40
0.07
100
AcDbArc
 50
90.00000000000007
 51
180.0
  0
LINE
  5
C0
330
2
100
AcDbEntity
  8
0
100
AcDbLine
 10
3.906149999999997
 20
0.2656500000000044
 30
0.0
 11
3.906149999999997
 21
0.0700000000000074
 31
0.0
  0
ARC
  5
C1
330
2
100
AcDbEntity
  8
0
100
AcDbCircle
 10
3.836149999999996
 20
0.2656500000000044
 30
0.0
 40
0.07
100
AcDbArc
 50
0.0
 51
90.0000000000002
  0
ARC
  5
C2
330
2
100
AcDbEntity
  8
0
100
AcDbCircle
 10
3.836149999999996
 20
3.936350000000001
 30
0.0
 40
0.07
100
AcDbArc
 50
269.9999999999998
 51
0.0
  0
ARC
  5
C3
330
2
100
AcDbEntity
  8
0
100
AcDbCircle
 10
1.35125
 20
3.936350000000008
 30
0.0
 40
0.07
100
AcDbArc
 50
180.0
 51
269.9999999999999
  0
LINE
  5
C4
330
2
100
AcDbEntity
  8
0
100
AcDbLine
 10
3.906149999999997
 20
3.936350000000001
 30
0.0
 11
3.906149999999997
 21
4.131999999999998
 31
0.0
  0
LINE
  5
C5
330
2
100
AcDbEntity
  8
0
100
AcDbLine
 10
1.28125
 20
3.936350000000008
 30
0.0
 11
1.28125
 21
4.131999999999998
 31
0.0
  0
ARC
  5
C6
330
2
100
AcDbEntity
  8
0
100
AcDbCircle
 10
5.164274999999998
 20
3.718324999999993
 30
0.0
 40
0.07
100
AcDbArc
 50
70.63517406587167
 51
90.0
  0
ARC
  5
C7
330
2
100
AcDbEntity
  8
0
100
AcDbCircle
 10
5.257399999999997
 20
3.787828438654103
 30
0.0
 40
0.07
100
AcDbArc
 50
180.0
 51
220.2938076863661
  0
ARC
  5
C8
330
2
100
AcDbEntity
  8
0
100
AcDbCircle
 10
5.301034363004042
 20
3.824824962769348
 30
0.0
 40
0.1272075207590416
100
AcDbArc
 50
220.2938076863661
 51
252.4218297463013
  0
ARC
  5
C9
330
2
100
AcDbEntity
  8
0
100
AcDbCircle
 10
5.272039448266959
 20
3.733300436211234
 30
0.0
 40
0.0312
100
AcDbArc
 50
252.4218297463008
 51
7.911414716129224
  0
ARC
  5
CA
330
2
100
AcDbEntity
  8
0
100
AcDbCircle
 10
5.164274999999998
 20
3.718324999999993
 30
0.0
 40
0.07
100
AcDbArc
 50
0.0
 51
70.63517406587167
  0
ARC
  5
CB
330
2
100
AcDbEntity
  8
0
100
AcDbCircle
 10
5.164274999999996
 20
3.718324999999997
 30
0.0
 40
0.14
100
AcDbArc
 50
80.49239180042363
 51
90.00000000000364
  0
ARC
  5
CC
330
2
100
AcDbEntity
  8
0
100
AcDbCircle
 10
5.164274999999996
 20
3.718324999999997
 30
0.0
 40
0.14
100
AcDbArc
 50
0.0
 51
80.49239180042363
  0
ARC
  5
CD
330
2
100
AcDbEntity
  8
0
100
AcDbCircle
 10
5.164274999999998
 20
0.4836750000000123
 30
0.0
 40
0.07
100
AcDbArc
 50
289.3648259341284
 51
0.0
  0
ARC
  5
CE
330
2
100
AcDbEntity
  8
0
100
AcDbCircle
 10
5.272039448266959
 20
0.4686995637887712
 30
0.0
 40
0.0312
100
AcDbArc
 50
352.0885852838708
 51
107.5781702536991
  0
ARC
  5
CF
330
2
100
AcDbEntity
  8
0
100
AcDbCircle
 10
5.301034363004042
 20
0.377175037230657
 30
0.0
 40
0.1272075207590416
100
AcDbArc
 50
107.5781702536987
 51
139.706192313634
  0
ARC
  5
D0
330
2
100
AcDbEntity
  8
0
100
AcDbCircle
 10
5.257399999999997
 20
0.4141715613459027
 30
0.0
 40
0.07
100
AcDbArc
 50
139.706192313634
 51
180.0
  0
ARC
  5
D1
330
2
100
AcDbEntity
  8
0
100
AcDbCircle
 10
5.164274999999998
 20
0.4836750000000123
 30
0.0
 40
0.07
100
AcDbArc
 50
270.0
 51
289.3648259341284
  0
ARC
  5
D2
330
2
100
AcDbEntity
  8
0
100
AcDbCircle
 10
5.164274999999996
 20
0.4836750000000087
 30
0.0
 40
0.14
100
AcDbArc
 50
269.9999999999964
 51
279.5076081995764
  0
ARC
  5
D3
330
2
100
AcDbEntity
  8
0
100
AcDbCircle
 10
5.164274999999996
 20
0.4836750000000087
 30
0.0
 40
0.14
100
AcDbArc
 50
279.5076081995764
 51
0.0
  0
ARC
  5
D4
330
2
100
AcDbEntity
  8
0
100
AcDbCircle
 10
0.0231250000000003
 20
0.4836750000000087
 30
0.0
 40
0.14
100
AcDbArc
 50
260.4923918004236
 51
270.0000000000036
  0
ARC
  5
D5
330
2
100
AcDbEntity
  8
0
100
AcDbCircle
 10
0.0231250000000003
 20
0.4836750000000087
 30
0.0
 40
0.14
100
AcDbArc
 50
180.0
 51
260.4923918004236
  0
LINE
  5
D6
330
2
100
AcDbEntity
  8
0
100
AcDbLine
 10
0.078124999999968
 20
0.3436750000000117
 30
0.0
 11
0.0231250000000074
 21
0.3436750000000082
 31
0.0
  0
ARC
  5
D7
330
2
100
AcDbEntity
  8
0
100
AcDbCircle
 10
-0.0700000000000003
 20
0.4141715613459027
 30
0.0
 40
0.07
100
AcDbArc
 50
0.0
 51
40.29380768636604
  0
ARC
  5
D8
330
2
100
AcDbEntity
  8
0
100
AcDbCircle
 10
-0.1136343630040457
 20
0.377175037230657
 30
0.0
 40
0.1272075207590416
100
AcDbArc
 50
40.29380768636604
 51
72.42182974630129
  0
ARC
  5
D9
330
2
100
AcDbEntity
  8
0
100
AcDbCircle
 10
-0.0846394482669623
 20
0.4686995637887712
 30
0.0
 40
0.0312
100
AcDbArc
 50
72.42182974630083
 51
187.9114147161292
  0
ARC
  5
DA
330
2
100
AcDbEntity
  8
0
100
AcDbCircle
 10
0.0231249999999985
 20
0.4836750000000123
 30
0.0
 40
0.07
100
AcDbArc
 50
180.0
 51
250.6351740658717
  0
ARC
  5
DB
330
2
100
AcDbEntity
  8
0
100
AcDbCircle
 10
0.0231249999999985
 20
0.4836750000000123
 30
0.0
 40
0.07
100
AcDbArc
 50
250.6351740658717
 51
270.0
  0
ARC
  5
DC
330
2
100
AcDbEntity
  8
0
100
AcDbCircle
 10
0.0231249999999985
 20
3.718324999999993
 30
0.0
 40
0.07
100
AcDbArc
 50
109.3648259341283
 51
180.0
  0
ARC
  5
DD
330
2
100
AcDbEntity
  8
0
100
AcDbCircle
 10
0.0231250000000003
 20
3.718324999999997
 30
0.0
 40
0.14
100
AcDbArc
 50
99.50760819957623
 51
180.0
  0
ARC
  5
DE
330
2
100
AcDbEntity
  8
0
100
AcDbCircle
 10
0.0231250000000003
 20
3.718324999999997
 30
0.0
 40
0.14
100
AcDbArc
 50
90.0
 51
99.50760819957623
  0
ARC
  5
DF
330
2
100
AcDbEntity
  8
0
100
AcDbCircle
 10
-0.0700000000000003
 20
3.787828438654103
 30
0.0
 40
0.07
100
AcDbArc
 50
319.706192313634
 51
0.0
  0
ARC
  5
E0
330
2
100
AcDbEntity
  8
0
100
AcDbCircle
 10
-0.0846394482669623
 20
3.733300436211234
 30
0.0
 40
0.0312
100
AcDbArc
 50
172.0885852838708
 51
287.5781702536992
  0
ARC
  5
E1
330
2
100
AcDbEntity
  8
0
100
AcDbCircle
 10
4.116774999999999
 20
3.718325000000004
 30
0.0
 40
0.14
100
AcDbArc
 50
90.0000000000002
 51
180.0000000000002
  0
ARC
  5
E2
330
2
100
AcDbEntity
  8
0
100
AcDbCircle
 10
4.116774999999999
 20
3.718325000000007
 30
0.0
 40
0.07
100
AcDbArc
 50
90.0000000000002
 51
180.0
  0
LINE
  5
E3
330
2
100
AcDbEntity
  8
0
100
AcDbLine
 10
3.976775
 20
3.350825
 30
0.0
 11
3.976775
 21
3.718325000000004
 31
0.0
  0
LINE
  5
E4
330
2
100
AcDbEntity
  8
0
100
AcDbLine
 10
4.116774999999997
 20
3.858325000000004
 30
0.0
 11
5.164274999999995
 21
3.858325000000011
 31
0.0
  0
LINE
  5
E5
330
2
100
AcDbEntity
  8
0
100
AcDbLine
 10
3.304900000000018
 20
4.132000000000001
 30
0.0
 11
5.187400000000018
 21
4.132000000000001
 31
0.0
  0
LINE
  5
E6
330
2
100
AcDbEntity
  8
0
100
AcDbLine
 10
3.340553185272221
 20
4.202000000000002
 30
0.0
 11
3.437574999999999
 21
4.202000000000002
 31
0.0
  0
LINE
  5
E7
330
2
100
AcDbEntity
  8
0
100
AcDbLine
 10
2.890699999999999
 20
4.132000000000001
 30
0.0
 11
2.890699999999999
 21
4.202000000000002
 31
0.0
  0
LINE
  5
E8
330
2
100
AcDbEntity
  8
0
100
AcDbLine
 10
3.340553185272221
 20
4.202000000000002
 30
0.0
 11
5.187400000000018
 21
4.202000000000002
 31
0.0
  0
ARC
  5
E9
330
2
100
AcDbEntity
  8
0
100
AcDbCircle
 10
3.304900000000018
 20
4.194500000000001
 30
0.0
 40
0.0625
100
AcDbArc
 50
194.6512525835088
 51
270.0
  0
ARC
  5
EA
330
2
100
AcDbEntity
  8
0
100
AcDbCircle
 10
3.340553185272221
 20
4.233200000000004
 30
0.0
 40
0.0312
100
AcDbArc
 50
194.6512525835084
 51
270.0
  0
ARC
  5
EB
330
2
100
AcDbEntity
  8
0
100
AcDbCircle
 10
3.249900000000018
 20
4.209500000000002
 30
0.0
 40
0.0625
100
AcDbArc
 50
14.65125258351059
 51
89.99999999999969
  0
ARC
  5
EC
330
2
100
AcDbEntity
  8
0
100
AcDbCircle
 10
3.214246814727819
 20
4.170800000000003
 30
0.0
 40
0.0312
100
AcDbArc
 50
14.65125258350733
 51
90.0
  0
LINE
  5
ED
330
2
100
AcDbEntity
  8
0
100
AcDbLine
 10
2.890699999999999
 20
4.202000000000002
 30
0.0
 11
3.214246814727819
 21
4.202000000000002
 31
0.0
  0
LINE
  5
EE
330
2
100
AcDbEntity
  8
0
100
AcDbLine
 10
2.499900000000018
 20
4.202000000000002
 30
0.0
 11
2.499900000000018
 21
4.272000000000002
 31
0.0
  0
LINE
  5
EF
330
2
100
AcDbEntity
  8
0
100
AcDbLine
 10
2.281200000000018
 20
4.272000000000006
 30
0.0
 11
2.281200000000018
 21
4.202000000000002
 31
0.0
  0
LINE
  5
F0
330
2
100
AcDbEntity
  8
0
100
AcDbLine
 10
2.281200000000018
 20
4.257000000000001
 30
0.0
 11
2.281200000000018
 21
4.202000000000002
 31
0.0
  0
LINE
  5
F1
330
2
100
AcDbEntity
  8
0
100
AcDbLine
 10
2.281200000000018
 20
4.272000000000006
 30
0.0
 11
3.249900000000018
 21
4.272000000000002
 31
0.0
  0
ARC
  5
F2
330
2
100
AcDbEntity
  8
0
100
AcDbCircle
 10
1.070625
 20
3.718325
 30
0.0
 40
0.14
100
AcDbArc
 50
0.0
 51
90.0000000000002
  0
ARC
  5
F3
330
2
100
AcDbEntity
  8
0
100
AcDbCircle
 10
1.070625
 20
3.718324999999993
 30
0.0
 40
0.07
100
AcDbArc
 50
0.0
 51
90.0000000000002
  0
ARC
  5
F4
330
2
100
AcDbEntity
  8
0
100
AcDbCircle
 10
0.0231249999999985
 20
3.718324999999993
 30
0.0
 40
0.07
100
AcDbArc
 50
90.0
 51
109.3648259341283
  0
LINE
  5
F5
330
2
100
AcDbEntity
  8
0
100
AcDbLine
 10
1.210625
 20
3.350825
 30
0.0
 11
1.210625
 21
3.718325
 31
0.0
  0
LINE
  5
F6
330
2
100
AcDbEntity
  8
0
100
AcDbLine
 10
0.0
 20
4.202000000000002
 30
0.0
 11
3.214246814727819
 21
4.202000000000002
 31
0.0
  0
LINE
  5
F7
330
2
100
AcDbEntity
  8
0
100
AcDbLine
 10
1.070625
 20
3.858325000000001
 30
0.0
 11
0.078125
 21
3.858324999999994
 31
0.0
  0
ARC
  5
F8
330
2
100
AcDbEntity
  8
0
100
AcDbCircle
 10
4.116774999999997
 20
0.4836750000000016
 30
0.0
 40
0.14
100
AcDbArc
 50
179.9999999999994
 51
269.9999999999999
  0
ARC
  5
F9
330
2
100
AcDbEntity
  8
0
100
AcDbCircle
 10
4.116775000000001
 20
0.4836750000000016
 30
0.0
 40
0.07
100
AcDbArc
 50
179.9999999999997
 51
270.0
  0
LINE
  5
FA
330
2
100
AcDbEntity
  8
0
100
AcDbLine
 10
3.976775
 20
0.8511750000000049
 30
0.0
 11
3.976774999999998
 21
0.4836750000000052
 31
0.0
  0
LINE
  5
FB
330
2
100
AcDbEntity
  8
0
100
AcDbLine
 10
4.116774999999997
 20
0.3436750000000011
 30
0.0
 11
5.164274999999996
 21
0.3436750000000011
 31
0.0
  0
LINE
  5
FC
330
2
100
AcDbEntity
  8
0
100
AcDbLine
 10
5.304274999999999
 20
3.718325000000011
 30
0.0
 11
5.304275000000001
 21
0.4836750000000016
 31
0.0
  0
ARC
  5
FD
330
2
100
AcDbEntity
  8
0
100
AcDbCircle
 10
3.340553185272221
 20
-0.0311999999999983
 30
0.0
 40
0.0312
100
AcDbArc
 50
90.0
 51
165.3487474164916
  0
ARC
  5
FE
330
2
100
AcDbEntity
  8
0
100
AcDbCircle
 10
3.214246814727819
 20
0.0312000000000019
 30
0.0
 40
0.0312
100
AcDbArc
 50
270.0
 51
345.3487474164926
  0
ARC
  5
FF
330
2
100
AcDbEntity
  8
0
100
AcDbCircle
 10
3.249900000000018
 20
-0.0074999999999932
 30
0.0
 40
0.0625
100
AcDbArc
 50
270.0000000000003
 51
345.3487474164894
  0
ARC
  5
100
330
2
100
AcDbEntity
  8
0
100
AcDbCircle
 10
3.304900000000018
 20
0.0075000000000038
 30
0.0
 40
0.0625
100
AcDbArc
 50
90.0
 51
165.3487474164912
  0
LINE
  5
101
330
2
100
AcDbEntity
  8
0
100
AcDbLine
 10
3.340553185272221
 20
0.0000000000000036
 30
0.0
 11
5.187400000000018
 21
0.0000000000000036
 31
0.0
  0
LINE
  5
102
330
2
100
AcDbEntity
  8
0
100
AcDbLine
 10
2.281200000000018
 20
-0.0700000000000003
 30
0.0
 11
3.249900000000018
 21
-0.0699999999999932
 31
0.0
  0
LINE
  5
103
330
2
100
AcDbEntity
  8
0
100
AcDbLine
 10
2.890699999999999
 20
0.0000000000000036
 30
0.0
 11
3.214246814727819
 21
0.0000000000000036
 31
0.0
  0
LINE
  5
104
330
2
100
AcDbEntity
  8
0
100
AcDbLine
 10
3.788774999999998
 20
3.866350000000001
 30
0.0
 11
3.788774999999998
 21
0.3356500000000047
 31
0.0
  0
ARC
  5
105
330
2
100
AcDbEntity
  8
0
100
AcDbCircle
 10
1.070624999999998
 20
0.4836750000000016
 30
0.0
 40
0.14
100
AcDbArc
 50
270.0
 51
359.9999999999997
  0
ARC
  5
106
330
2
100
AcDbEntity
  8
0
100
AcDbCircle
 10
1.070625
 20
0.4836750000000016
 30
0.0
 40
0.07
100
AcDbArc
 50
270.0
 51
359.9999999999997
  0
LINE
  5
107
330
2
100
AcDbEntity
  8
0
100
AcDbLine
 10
1.210625
 20
0.851175000000012
 30
0.0
 11
1.210624999999997
 21
0.4836750000000016
 31
0.0
  0
LINE
  5
108
330
2
100
AcDbEntity
  8
0
100
AcDbLine
 10
1.398624999999999
 20
0.3356500000000047
 30
0.0
 11
1.398624999999999
 21
3.866350000000008
 31
0.0
  0
LINE
  5
109
330
2
100
AcDbEntity
  8
0
100
AcDbLine
 10
0.0
 20
0.0
 30
0.0
 11
2.890699999999999
 21
0.0000000000000036
 31
0.0
  0
LINE
  5
10A
330
2
100
AcDbEntity
  8
0
100
AcDbLine
 10
1.070624999999998
 20
0.3436750000000011
 30
0.0
 11
0.078125
 21
0.3436750000000011
 31
0.0
  0
LINE
  5
10B
330
2
100
AcDbEntity
  8
0
100
AcDbLine
 10
-0.1168750000000003
 20
3.718324999999997
 30
0.0
 11
-0.1168750000000003
 21
0.4836750000000087
 31
0.0
  0
LINE
  5
10C
330
2
100
AcDbEntity
  8
0
100
AcDbLine
 10
2.890699999999999
 20
0.0700000000000038
 30
0.0
 11
2.890699999999999
 21
0.0000000000000036
 31
0.0
  0
CIRCLE
  5
10D
330
2
100
AcDbEntity
  8
0
100
AcDbCircle
 10
2.593699999999998
 20
0.585600000000003
 30
0.0
 40
0.0855
  0
CIRCLE
  5
10E
330
2
100
AcDbEntity
  8
0
100
AcDbCircle
 10
2.593699999999998
 20
3.616400000000002
 30
0.0
 40
0.0855
  0
ARC
  5
10F
330
2
100
AcDbEntity
  8
0
100
AcDbCircle
 10
2.593699999999998
 20
1.694700000000001
 30
0.0
 40
0.34375
100
AcDbArc
 50
180.0
 51
0.0
  0
ARC
  5
110
330
2
100
AcDbEntity
  8
0
100
AcDbCircle
 10
2.593699999999998
 20
2.507300000000004
 30
0.0
 40
0.34375
100
AcDbArc
 50
0.0
 51
180.0
  0
LINE
  5
113
330
2
100
AcDbEntity
  8
0
100
AcDbLine
 10
1.35125
 20
3.866350000000008
 30
0.0
 11
3.836149999999996
 21
3.866350000000001
 31
0.0
  0
LINE
  5
114
330
2
100
AcDbEntity
  8
0
100
AcDbLine
 10
1.35125
 20
0.3356500000000047
 30
0.0
 11
3.836149999999996
 21
0.3356500000000047
 31
0.0
  0
ARC
  5
115
330
2
100
AcDbEntity
  8
0
100
AcDbCircle
 10
-0.1136343630040457
 20
3.824824962769348
 30
0.0
 40
0.1272075207590416
100
AcDbArc
 50
287.5781702536987
 51
319.706192313634
  0
LINE
  5
116
330
2
100
AcDbEntity
  8
0
100
AcDbLine
 10
0.078124999999968
 20
3.858324999999994
 30
0.0
 11
0.0231250000000003
 21
3.858324999999997
 31
0.0
  0
LINE
  5
117
330
2
100
AcDbEntity
  8
0
100
AcDbLine
 10
1.070625
 20
3.788324999999993
 30
0.0
 11
0.0231249999999985
 21
3.788324999999993
 31
0.0
  0
LINE
  5
118
330
2
100
AcDbEntity
  8
0
100
AcDbLine
 10
4.116774999999999
 20
3.788325000000008
 30
0.0
 11
5.164274999999998
 21
3.788325000000011
 31
0.0
  0
LINE
  5
119
330
2
100
AcDbEntity
  8
0
100
AcDbLine
 10
1.070625
 20
0.4136750000000014
 30
0.0
 11
0.0231249999999985
 21
0.4136750000000014
 31
0.0
  0
LINE
  5
11A
330
2
100
AcDbEntity
  8
0
100
AcDbLine
 10
4.116775000000001
 20
0.4136750000000014
 30
0.0
 11
5.164274999999998
 21
0.4136750000000014
 31
0.0
  0
LINE
  5
11B
330
2
100
AcDbEntity
  8
0
100
AcDbLine
 10
4.046775
 20
0.8511750000000049
 30
0.0
 11
4.046775
 21
0.4836750000000016
 31
0.0
  0
LINE
  5
11C
330
2
100
AcDbEntity
  8
0
100
AcDbLine
 10
3.976775
 20
0.8511750000000049
 30
0.0
 11
4.046775
 21
0.8511750000000049
 31
0.0
  0
LINE
  5
11D
330
2
100
AcDbEntity
  8
0
100
AcDbLine
 10
1.140625
 20
0.851175000000012
 30
0.0
 11
1.140625
 21
0.4836750000000016
 31
0.0
  0
LINE
  5
11E
330
2
100
AcDbEntity
  8
0
100
AcDbLine
 10
1.210625
 20
0.851175000000012
 30
0.0
 11
1.140625
 21
0.851175000000012
 31
0.0
  0
LINE
  5
11F
330
2
100
AcDbEntity
  8
0
100
AcDbLine
 10
3.976775
 20
3.350825
 30
0.0
 11
4.046774999999997
 21
3.350825
 31
0.0
  0
LINE
  5
120
330
2
100
AcDbEntity
  8
0
100
AcDbLine
 10
5.187400000000018
 20
4.202000000000002
 30
0.0
 11
5.187400000000018
 21
3.787828438654103
 31
0.0
  0
LINE
  5
121
330
2
100
AcDbEntity
  8
0
100
AcDbLine
 10
4.968698487000017
 20
4.132000000000001
 30
0.0
 11
4.968698487000017
 21
4.202000000000002
 31
0.0
  0
LINE
  5
122
330
2
100
AcDbEntity
  8
0
100
AcDbLine
 10
4.046774999999999
 20
3.350825
 30
0.0
 11
4.046774999999999
 21
3.718325000000007
 31
0.0
  0
LINE
  5
123
330
2
100
AcDbEntity
  8
0
100
AcDbLine
 10
0.0
 20
4.132000000000001
 30
0.0
 11
2.890699999999999
 21
4.132000000000001
 31
0.0
  0
LINE
  5
124
330
2
100
AcDbEntity
  8
0
100
AcDbLine
 10
1.140625
 20
3.350825
 30
0.0
 11
1.140625
 21
3.718324999999993
 31
0.0
  0
LINE
  5
125
330
2
100
AcDbEntity
  8
0
100
AcDbLine
 10
1.210625
 20
3.350825
 30
0.0
 11
1.140625
 21
3.350825
 31
0.0
  0
LINE
  5
126
330
2
100
AcDbEntity
  8
0
100
AcDbLine
 10
0.2186999999999983
 20
4.132000000000001
 30
0.0
 11
0.2186999999999983
 21
4.202000000000002
 31
0.0
  0
LINE
  5
127
330
2
100
AcDbEntity
  8
0
100
AcDbLine
 10
0.0
 20
4.202000000000002
 30
0.0
 11
0.0
 21
3.787828438654103
 31
0.0
  0
LINE
  5
128
330
2
100
AcDbEntity
  8
0
100
AcDbLine
 10
2.937449999999998
 20
2.507300000000004
 30
0.0
 11
2.937449999999998
 21
1.694700000000001
 31
0.0
  0
LINE
  5
129
330
2
100
AcDbEntity
  8
0
100
AcDbLine
 10
2.249949999999998
 20
2.507300000000004
 30
0.0
 11
2.249949999999998
 21
1.694700000000001
 31
0.0
  0
LINE
  5
12A
330
2
100
AcDbEntity
  8
0
100
AcDbLine
 10
5.187400000000018
 20
0.4141715613459027
 30
0.0
 11
5.187400000000018
 21
0.0000000000000036
 31
0.0
  0
LINE
  5
12B
330
2
100
AcDbEntity
  8
0
100
AcDbLine
 10
4.968698487000017
 20
0.0075000000000038
 30
0.0
 11
4.968698487000017
 21
0.0700000000000038
 31
0.0
  0
LINE
  5
12C
330
2
100
AcDbEntity
  8
0
100
AcDbLine
 10
4.968698487000017
 20
0.0000000000000036
 30
0.0
 11
4.968698487000017
 21
0.0700000000000038
 31
0.0
  0
LINE
  5
12D
330
2
100
AcDbEntity
  8
0
100
AcDbLine
 10
2.499900000000018
 20
0.0000000000000036
 30
0.0
 11
2.499900000000018
 21
-0.0699999999999967
 31
0.0
  0
LINE
  5
130
330
2
100
AcDbEntity
  8
0
100
AcDbLine
 10
3.304900000000018
 20
0.0700000000000038
 30
0.0
 11
5.187400000000018
 21
0.0700000000000038
 31
0.0
  0
LINE
  5
133
330
2
100
AcDbEntity
  8
0
100
AcDbLine
 10
2.281200000000018
 20
-0.0549999999999962
 30
0.0
 11
2.281200000000018
 21
0.0000000000000036
 31
0.0
  0
LINE
  5
134
330
2
100
AcDbEntity
  8
0
100
AcDbLine
 10
2.281200000000018
 20
-0.0700000000000003
 30
0.0
 11
2.281200000000018
 21
0.0000000000000036
 31
0.0
  0
LINE
  5
135
330
2
100
AcDbEntity
  8
0
100
AcDbLine
 10
0.2186999999999983
 20
0.0075000000000038
 30
0.0
 11
0.2186999999999983
 21
0.0700000000000038
 31
0.0
  0
LINE
  5
136
330
2
100
AcDbEntity
  8
0
100
AcDbLine
 10
0.2186999999999983
 20
0.0
 30
0.0
 11
0.2186999999999983
 21
0.0700000000000038
 31
0.0
  0
LINE
  5
137
330
2
100
AcDbEntity
  8
0
100
AcDbLine
 10
0.0
 20
0.4141715613459027
 30
0.0
 11
0.0
 21
0.0
 31
0.0
  0
LINE
  5
138
330
2
100
AcDbEntity
  8
0
100
AcDbLine
 10
0.0
 20
0.0700000000000038
 30
0.0
 11
2.890699999999999
 21
0.0700000000000038
 31
0.0
  0
LINE
  5
13A
330
2
100
AcDbEntity
  8
0
100
AcDbLine
 10
3.718774999999997
 20
3.866350000000001
 30
0.0
 11
3.718774999999997
 21
0.3356500000000047
 31
0.0
  0
LINE
  5
13B
330
2
100
AcDbEntity
  8
0
100
AcDbLine
 10
1.468624999999999
 20
0.3356500000000047
 30
0.0
 11
1.468624999999999
 21
3.866350000000008
 31
0.0
  0
LINE
  5
13C
330
2
100
AcDbEntity
  8
0
100
AcDbLine
 10
-0.046875
 20
3.718324999999993
 30
0.0
 11
-0.046875
 21
0.4836750000000052
 31
0.0
  0
LINE
  5
13D
330
2
100
AcDbEntity
  8
0
100
AcDbLine
 10
5.234274999999999
 20
3.718325000000011
 30
0.0
 11
5.234275
 21
0.4836750000000016
 31
0.0
  0
ENDSEC
  0
SECTION
  2
OBJECTS
  0
DICTIONARY
  5
9
330
0
100
AcDbDictionary
281
     1
  3
ACAD_COLOR
350
27
  3
ACAD_GROUP
350
23
  3
ACAD_LAYOUT
350
D
  3
ACAD_MATERIAL
350
26
  3
ACAD_MLINESTYLE
350
24
  3
ACAD_PLOTSETTINGS
350
25
  3
ACAD_PLOTSTYLENAME
350
8
  3
ACAD_TABLESTYLE
350
B9
  3
ACDBHEADERROUNDTRIPXREC
350
156
  3
AcDbVariableDictionary
350
147
  0
DICTIONARY
  5
3
330
2
100
AcDbDictionary
280
     1
281
     1
  3
ACAD_SORTENTS
360
13F
  0
DICTIONARY
  5
27
102
{ACAD_REACTORS
330
9
102
}
330
9
100
AcDbDictionary
281
     1
  0
DICTIONARY
  5
23
102
{ACAD_REACTORS
330
9
102
}
330
9
100
AcDbDictionary
281
     1
  0
DICTIONARY
  5
D
102
{ACAD_REACTORS
330
9
102
}
330
9
100
AcDbDictionary
281
     1
  3
Layout1
350
13
  3
Model
350
C
  0
DICTIONARY
  5
26
102
{ACAD_REACTORS
330
9
102
}
330
9
100
AcDbDictionary
281
     1
  0
DICTIONARY
  5
24
102
{ACAD_REACTORS
330
9
102
}
330
9
100
AcDbDictionary
281
     1
  3
STANDARD
350
29
  0
DICTIONARY
  5
25
102
{ACAD_REACTORS
330
9
102
}
330
9
100
AcDbDictionary
281
     1
  0
ACDBDICTIONARYWDFLT
  5
8
102
{ACAD_REACTORS
330
9
102
}
330
9
100
AcDbDictionary
281
     1
  3
Normal
350
7
100
AcDbDictionaryWithDefault
340
7
  0
DICTIONARY
  5
B9
102
{ACAD_REACTORS
330
9
102
}
330
9
100
AcDbDictionary
281
     1
  3
Standard
350
BA
  0
DICTIONARY
  5
156
102
{ACAD_REACTORS
330
9
102
}
330
9
100
AcDbDictionary
281
     1
  3
COLORDICT
350
157
  3
MATERIALDICT
350
158
  0
DICTIONARY
  5
147
102
{ACAD_REACTORS
330
9
102
}
330
9
100
AcDbDictionary
281
     1
  3
CTABLESTYLE
350
148
  3
HIDETEXT
350
155
  0
SORTENTSTABLE
  5
13F
102
{ACAD_REACTORS
330
3
102
}
330
3
100
AcDbSortentsTable
330
2
331
10C
  5
10C
331
118
  5
118
331
E0
  5
E0
331
C3
  5
C3
331
F0
  5
F0
331
D6
  5
D6
331
CD
  5
CD
331
D5
  5
D5
331
CF
  5
CF
331
DE
  5
DE
331
129
  5
129
331
106
  5
106
331
12D
  5
12D
331
103
  5
103
331
11D
  5
11D
331
F2
  5
F2
331
134
  5
134
331
F4
  5
F4
331
105
  5
105
331
F9
  5
F9
331
DF
  5
DF
331
133
  5
133
331
11E
  5
11E
331
104
  5
104
331
E7
  5
E7
331
11B
  5
11B
331
128
  5
128
331
F7
  5
F7
331
C8
  5
C8
331
D8
  5
D8
331
13A
  5
13A
331
F5
  5
F5
331
FB
  5
FB
331
127
  5
127
331
119
  5
119
331
12A
  5
12A
331
D3
  5
D3
331
D0
  5
D0
331
123
  5
123
331
135
  5
135
331
122
  5
122
331
10D
  5
10D
331
EE
  5
EE
331
FA
  5
FA
331
E3
  5
E3
331
F6
  5
F6
331
EA
  5
EA
331
C6
  5
C6
331
EB
  5
EB
331
10A
  5
10A
331
E6
  5
E6
331
125
  5
125
331
117
  5
117
331
E4
  5
E4
331
FF
  5
FF
331
108
  5
108
331
FE
  5
FE
331
ED
  5
ED
331
F3
  5
F3
331
E5
  5
E5
331
10B
  5
10B
331
13D
  5
13D
331
C0
  5
C0
331
C7
  5
C7
331
D2
  5
D2
331
F1
  5
F1
331
BE
  5
BE
331
EC
  5
EC
331
138
  5
138
331
D1
  5
D1
331
CA
  5
CA
331
113
  5
113
331
115
  5
115
331
12C
  5
12C
331
C4
  5
C4
331
E9
  5
E9
331
13C
  5
13C
331
CB
  5
CB
331
D7
  5
D7
331
C9
  5
C9
331
12B
  5
12B
331
DD
  5
DD
331
116
  5
116
331
10E
  5
10E
331
C1
  5
C1
331
124
  5
124
331
DA
  5
DA
331
10F
  5
10F
331
FC
  5
FC
331
11F
  5
11F
331
BF
  5
BF
331
13B
  5
13B
331
D4
  5
D4
331
107
  5
107
331
100
  5
100
331
E8
  5
E8
331
114
  5
114
331
120
  5
120
331
126
  5
126
331
CE
  5
CE
331
F8
  5
F8
331
109
  5
109
331
FD
  5
FD
331
11A
  5
11A
331
EF
  5
EF
331
DB
  5
DB
331
102
  5
102
331
C2
  5
C2
331
101
  5
101
331
130
  5
130
331
121
  5
121
331
136
  5
136
331
110
  5
110
331
CC
  5
CC
331
E2
  5
E2
331
C5
  5
C5
331
11C
  5
11C
331
137
  5
137
331
DC
  5
DC
331
E1
  5
E1
331
D9
  5
D9
  0
LAYOUT
  5
13
102
{ACAD_REACTORS
330
D
102
}
102
{ACAD_XDICTIONARY
360
159
102
}
330
D
100
AcDbPlotSettings
  1

  2
HP LaserJet 2100 Series PS
  4

  6

 40
0.0
 41
0.0
 42
0.0
 43
0.0
 44
0.0
 45
0.0
 46
0.0
 47
0.0
 48
0.0
 49
0.0
140
0.0
141
0.0
142
1.0
143
1.0
 70
   688
 72
     0
 73
     0
 74
     5
  7

 75
    16
147
1.0
148
0.0
149
0.0
100
AcDbLayout
  1
Layout1
 70
     0
 71
     1
 10
0.0
 20
0.0
 11
12.0
 21
9.0
 12
0.0
 22
0.0
 32
0.0
 14
1.000000000000000E+20
 24
1.000000000000000E+20
 34
1.000000000000000E+20
 15
-1.000000000000000E+20
 25
-1.000000000000000E+20
 35
-1.000000000000000E+20
146
0.0
 13
0.0
 23
0.0
 33
0.0
 16
1.0
 26
0.0
 36
0.0
 17
0.0
 27
1.0
 37
0.0
 76
     0
330
E
  0
LAYOUT
  5
C
102
{ACAD_REACTORS
330
D
102
}
102
{ACAD_XDICTIONARY
360
15B
102
}
330
D
100
AcDbPlotSettings
  1

  2
HP LaserJet 2100 Series PS
  4
Letter
  6

 40
5.365749835968018
 41
5.408084392547607
 42
5.4080810546875
 43
5.365753173828125
 44
215.8999938964844
 45
279.3999938964844
 46
0.0
 47
0.0
 48
0.0
 49
0.0
140
0.0
141
0.0
142
1.0
143
1.985659204923131
 70
 28336
 72
     0
 73
     0
 74
     2
  7

 75
     0
147
0.5036110917324871
148
0.0
149
0.0
100
AcDbLayout
  1
Model
 70
     1
 71
     0
 10
0.0
 20
0.0
 11
12.0
 21
9.0
 12
0.0
 22
0.0
 32
0.0
 14
0.0
 24
0.0
 34
0.0
 15
0.0
 25
0.0
 35
0.0
146
0.0
 13
0.0
 23
0.0
 33
0.0
 16
1.0
 26
0.0
 36
0.0
 17
0.0
 27
1.0
 37
0.0
 76
     0
330
2
  0
MLINESTYLE
  5
29
102
{ACAD_REACTORS
330
24
102
}
330
24
100
AcDbMlineStyle
  2
STANDARD
 70
     0
  3

 62
   256
 51
90.0
 52
90.0
 71
     2
 49
0.5
 62
   256
  6
BYLAYER
 49
-0.5
 62
   256
  6
BYLAYER
  0
ACDBPLACEHOLDER
  5
7
102
{ACAD_REACTORS
330
8
102
}
330
8
  0
ACAD_PROXY_OBJECT
  5
BA
102
{ACAD_REACTORS
330
B9
102
}
330
B9
100
AcDbProxyObject
 90
      499
 91
      529
 95
   983063
 70
     0
 93
     1841
310
4214DD185B99185C9928B81E85EB51B8AE3F2E07A17AD46E2B8FC02B5E8DC0F42B1CFD028000000C1008070000C3001FDFF8000000C1003FBFF000000182007F7FE00000030400FEFFC00000060801FDFF8000000C1003FBFF00000018200000000000000681FA0B0000001820100E000186003FBFF000000182007F7FE000
310
00030400FEFFC00000060801FDFF8000000C1003FBFF000000182007F7FE000000304000AD7A3703D0AC73F4160000003040201C00030C007F7FE00000030400FEFFC00000060801FDFF8000000C1003FBFF000000182007F7FE00000030400FEFFC000000608000
340
16
340
16
340
16
 94
        0
  0
XRECORD
  5
157
102
{ACAD_REACTORS
330
156
102
}
330
156
100
AcDbXrecord
340
27
  0
XRECORD
  5
158
102
{ACAD_REACTORS
330
156
102
}
330
156
100
AcDbXrecord
340
26
  0
DICTIONARYVAR
  5
148
102
{ACAD_REACTORS
330
147
102
}
330
147
100
DictionaryVariables
280
     0
  1
STANDARD
  0
DICTIONARYVAR
  5
155
102
{ACAD_REACTORS
330
147
102
}
330
147
100
DictionaryVariables
280
     0
  1
0
  0
DICTIONARY
  5
159
330
13
100
AcDbDictionary
280
     1
281
     1
  3
ACAD_XREC_ROUNDTRIP
360
15A
  0
DICTIONARY
  5
15B
330
C
100
AcDbDictionary
280
     1
281
     1
  3
ACAD_XREC_ROUNDTRIP
360
15C
  0
XRECORD
  5
15A
102
{ACAD_REACTORS
330
159
102
}
330
159
100
AcDbXrecord
102
SHADEPLOT
 70
     0
102
SHADEPLOTRESLEVEL
 70
     2
102
SHADEPLOTCUSTOMDPI
 70
   300
  0
XRECORD
  5
15C
102
{ACAD_REACTORS
330
15B
102
}
330
15B
100
AcDbXrecord
102
SHADEPLOT
 70
     0
102
SHADEPLOTRESLEVEL
 70
     2
102
SHADEPLOTCUSTOMDPI
 70
   300
  0
ENDSEC
  0
EOF
