  0
SECTION
  2
HEADER
  9
$ACADVER
  1
AC1015
  9
$ACADMAINTVER
 70
     6
  9
$DWGCODEPAGE
  3
ANSI_1252
  9
$INSBASE
 10
0.0
 20
0.0
 30
0.0
  9
$EXTMIN
 10
-0.0259071282782202
 20
-0.0297968594629126
 30
-0.0015258207003583
  9
$EXTMAX
 10
12.77713095767779
 20
15.55651498236561
 30
0.0000000349246037
  9
$LIMMIN
 10
0.0
 20
0.0
  9
$LIMMAX
 10
20.0
 20
26.25
  9
$ORTHOMODE
 70
     1
  9
$REGENMODE
 70
     1
  9
$FILLMODE
 70
     1
  9
$QTEXTMODE
 70
     0
  9
$MIRRTEXT
 70
     0
  9
$LTSCALE
 40
0.5
  9
$ATTMODE
 70
     1
  9
$TEXTSIZE
 40
0.18
  9
$TRACEWID
 40
0.05
  9
$TEXTSTYLE
  7
STANDARD
  9
$CLAYER
  8
0
  9
$CELTYPE
  6
BYLAYER
  9
$CECOLOR
 62
   256
  9
$CELTSCALE
 40
1.0
  9
$DISPSILH
 70
     0
  9
$DIMSCALE
 40
2.0
  9
$DIMASZ
 40
0.125
  9
$DIMEXO
 40
0.062
  9
$DIMDLI
 40
0.375
  9
$DIMRND
 40
0.0
  9
$DIMDLE
 40
0.0
  9
$DIMEXE
 40
0.08
  9
$DIMTP
 40
0.0
  9
$DIMTM
 40
0.0
  9
$DIMTXT
 40
0.09
  9
$DIMCEN
 40
-0.06
  9
$DIMTSZ
 40
0.0
  9
$DIMTOL
 70
     0
  9
$DIMLIM
 70
     0
  9
$DIMTIH
 70
     1
  9
$DIMTOH
 70
     1
  9
$DIMSE1
 70
     0
  9
$DIMSE2
 70
     0
  9
$DIMTAD
 70
     0
  9
$DIMZIN
 70
     0
  9
$DIMBLK
  1

  9
$DIMASO
 70
     0
  9
$DIMSHO
 70
     0
  9
$DIMPOST
  1

  9
$DIMAPOST
  1

  9
$DIMALT
 70
     0
  9
$DIMALTD
 70
     2
  9
$DIMALTF
 40
25.4
  9
$DIMLFAC
 40
1.0
  9
$DIMTOFL
 70
     0
  9
$DIMTVP
 40
0.0
  9
$DIMTIX
 70
     0
  9
$DIMSOXD
 70
     0
  9
$DIMSAH
 70
     0
  9
$DIMBLK1
  1

  9
$DIMBLK2
  1

  9
$DIMSTYLE
  2
STANDARD
  9
$DIMCLRD
 70
     0
  9
$DIMCLRE
 70
     0
  9
$DIMCLRT
 70
     0
  9
$DIMTFAC
 40
1.0
  9
$DIMGAP
 40
0.09
  9
$DIMJUST
 70
     0
  9
$DIMSD1
 70
     0
  9
$DIMSD2
 70
     0
  9
$DIMTOLJ
 70
     1
  9
$DIMTZIN
 70
     0
  9
$DIMALTZ
 70
     0
  9
$DIMALTTZ
 70
     0
  9
$DIMUPT
 70
     0
  9
$DIMDEC
 70
     5
  9
$DIMTDEC
 70
     5
  9
$DIMALTU
 70
     5
  9
$DIMALTTD
 70
     2
  9
$DIMTXSTY
  7
STANDARD
  9
$DIMAUNIT
 70
     0
  9
$DIMADEC
 70
     0
  9
$DIMALTRND
 40
0.0
  9
$DIMAZIN
 70
     0
  9
$DIMDSEP
 70
    46
  9
$DIMATFIT
 70
     3
  9
$DIMFRAC
 70
     0
  9
$DIMLDRBLK
  1

  9
$DIMLUNIT
 70
     5
  9
$DIMLWD
 70
    -2
  9
$DIMLWE
 70
    -2
  9
$DIMTMOVE
 70
     2
  9
$LUNITS
 70
     5
  9
$LUPREC
 70
     5
  9
$SKETCHINC
 40
0.1
  9
$FILLETRAD
 40
0.07
  9
$AUNITS
 70
     0
  9
$AUPREC
 70
     0
  9
$MENU
  1
qa
  9
$ELEVATION
 40
0.0
  9
$PELEVATION
 40
0.0
  9
$THICKNESS
 40
0.0
  9
$LIMCHECK
 70
     0
  9
$CHAMFERA
 40
0.34375
  9
$CHAMFERB
 40
0.34375
  9
$CHAMFERC
 40
0.0
  9
$CHAMFERD
 40
0.0
  9
$SKPOLY
 70
     0
  9
$TDCREATE
 40
2450476.825654746
  9
$TDUCREATE
 40
2450477.158988079
  9
$TDUPDATE
 40
2454160.7018336
  9
$TDUUPDATE
 40
2454161.035166933
  9
$TDINDWG
 40
0.086365544
  9
$TDUSRTIMER
 40
0.086365544
  9
$USRTIMER
 70
     1
  9
$ANGBASE
 50
0.0
  9
$ANGDIR
 70
     0
  9
$PDMODE
 70
     0
  9
$PDSIZE
 40
0.0
  9
$PLINEWID
 40
0.0
  9
$SPLFRAME
 70
     0
  9
$SPLINETYPE
 70
     6
  9
$SPLINESEGS
 70
     8
  9
$HANDSEED
  5
243
  9
$SURFTAB1
 70
     6
  9
$SURFTAB2
 70
     6
  9
$SURFTYPE
 70
     6
  9
$SURFU
 70
     6
  9
$SURFV
 70
     6
  9
$UCSBASE
  2

  9
$UCSNAME
  2

  9
$UCSORG
 10
0.0
 20
0.0
 30
0.0
  9
$UCSXDIR
 10
1.0
 20
0.0
 30
0.0
  9
$UCSYDIR
 10
0.0
 20
1.0
 30
0.0
  9
$UCSORTHOREF
  2

  9
$UCSORTHOVIEW
 70
     0
  9
$UCSORGTOP
 10
0.0
 20
0.0
 30
0.0
  9
$UCSORGBOTTOM
 10
0.0
 20
0.0
 30
0.0
  9
$UCSORGLEFT
 10
0.0
 20
0.0
 30
0.0
  9
$UCSORGRIGHT
 10
0.0
 20
0.0
 30
0.0
  9
$UCSORGFRONT
 10
0.0
 20
0.0
 30
0.0
  9
$UCSORGBACK
 10
0.0
 20
0.0
 30
0.0
  9
$PUCSBASE
  2

  9
$PUCSNAME
  2

  9
$PUCSORG
 10
0.0
 20
0.0
 30
0.0
  9
$PUCSXDIR
 10
1.0
 20
0.0
 30
0.0
  9
$PUCSYDIR
 10
0.0
 20
1.0
 30
0.0
  9
$PUCSORTHOREF
  2

  9
$PUCSORTHOVIEW
 70
     0
  9
$PUCSORGTOP
 10
0.0
 20
0.0
 30
0.0
  9
$PUCSORGBOTTOM
 10
0.0
 20
0.0
 30
0.0
  9
$PUCSORGLEFT
 10
0.0
 20
0.0
 30
0.0
  9
$PUCSORGRIGHT
 10
0.0
 20
0.0
 30
0.0
  9
$PUCSORGFRONT
 10
0.0
 20
0.0
 30
0.0
  9
$PUCSORGBACK
 10
0.0
 20
0.0
 30
0.0
  9
$USERI1
 70
     0
  9
$USERI2
 70
     0
  9
$USERI3
 70
     0
  9
$USERI4
 70
     0
  9
$USERI5
 70
     0
  9
$USERR1
 40
0.0
  9
$USERR2
 40
0.0
  9
$USERR3
 40
0.0
  9
$USERR4
 40
0.0
  9
$USERR5
 40
0.0
  9
$WORLDVIEW
 70
     1
  9
$SHADEDGE
 70
     3
  9
$SHADEDIF
 70
    70
  9
$TILEMODE
 70
     1
  9
$MAXACTVP
 70
    16
  9
$PINSBASE
 10
0.0
 20
0.0
 30
0.0
  9
$PLIMCHECK
 70
     0
  9
$PEXTMIN
 10
1.000000000000000E+20
 20
1.000000000000000E+20
 30
1.000000000000000E+20
  9
$PEXTMAX
 10
-1.000000000000000E+20
 20
-1.000000000000000E+20
 30
-1.000000000000000E+20
  9
$PLIMMIN
 10
0.0
 20
0.0
  9
$PLIMMAX
 10
12.0
 20
9.0
  9
$UNITMODE
 70
     0
  9
$VISRETAIN
 70
     0
  9
$PLINEGEN
 70
     0
  9
$PSLTSCALE
 70
     0
  9
$TREEDEPTH
 70
  3020
  9
$CMLSTYLE
  2
STANDARD
  9
$CMLJUST
 70
     0
  9
$CMLSCALE
 40
1.0
  9
$PROXYGRAPHICS
 70
     1
  9
$MEASUREMENT
 70
     0
  9
$CELWEIGHT
370
    -1
  9
$ENDCAPS
280
     0
  9
$JOINSTYLE
280
     0
  9
$LWDISPLAY
290
     0
  9
$INSUNITS
 70
     0
  9
$HYPERLINKBASE
  1

  9
$STYLESHEET
  1

  9
$XEDIT
290
     1
  9
$CEPSNTYPE
380
     0
  9
$PSTYLEMODE
290
     1
  9
$FINGERPRINTGUID
  2
{2E7EA74E-DB5A-11D6-BE3F-00508B5FCD51}
  9
$VERSIONGUID
  2
{D62B2EAD-353E-4D2C-ACBD-A0D518A96F75}
  9
$EXTNAMES
290
     1
  9
$PSVPSCALE
 40
0.0
  9
$OLESTARTUP
290
     0
  0
ENDSEC
  0
SECTION
  2
CLASSES
  0
CLASS
  1
DICTIONARYVAR
  2
AcDbDictionaryVar
  3
AutoCAD 2000
 90
        0
280
     0
281
     0
  0
CLASS
  1
LWPOLYLINE
  2
AcDbPolyline
  3
AutoCAD 2000
 90
        0
280
     0
281
     1
  0
CLASS
  1
ACDBDICTIONARYWDFLT
  2
AcDbDictionaryWithDefault
  3
AutoCAD 2000
 90
        0
280
     0
281
     0
  0
CLASS
  1
ACDBPLACEHOLDER
  2
AcDbPlaceHolder
  3
ObjectDBX Classes
 90
        0
280
     0
281
     0
  0
CLASS
  1
LAYOUT
  2
AcDbLayout
  3
ObjectDBX Classes
 90
        0
280
     0
281
     0
  0
CLASS
  1
LONG_TRANSACTION
  2
AcDbLongTransaction
  3
ObjectDBX Classes
 90
   -65536
280
     1
281
     0
  0
CLASS
  1
LWPOLYLINE
  2
AcDbPolyline
  3
AutoCAD 2000
 90
        0
280
     0
281
     1
  0
CLASS
  1
HATCH
  2
AcDbHatch
  3
AutoCAD 2000
 90
        0
280
     0
281
     1
  0
CLASS
  1
XRECORD
  2
AcDbXrecord
  3
AutoCAD 2000
 90
        0
280
     0
281
     0
  0
CLASS
  1
LONG_TRANSACTION
  2
AcDbLongTransaction
  3
ObjectDBX Classes
 90
   -65536
280
     1
281
     0
  0
CLASS
  1
LWPOLYLINE
  2
AcDbPolyline
  3
AutoCAD 2000
 90
        0
280
     0
281
     1
  0
CLASS
  1
HATCH
  2
AcDbHatch
  3
AutoCAD 2000
 90
        0
280
     0
281
     1
  0
CLASS
  1
XRECORD
  2
AcDbXrecord
  3
AutoCAD 2000
 90
        0
280
     0
281
     0
  0
CLASS
  1
LONG_TRANSACTION
  2
AcDbLongTransaction
  3
ObjectDBX Classes
 90
   -65536
280
     1
281
     0
  0
CLASS
  1
LWPOLYLINE
  2
AcDbPolyline
  3
AutoCAD 2000
 90
        0
280
     0
281
     1
  0
CLASS
  1
HATCH
  2
AcDbHatch
  3
AutoCAD 2000
 90
        0
280
     0
281
     1
  0
CLASS
  1
XRECORD
  2
AcDbXrecord
  3
AutoCAD 2000
 90
        0
280
     0
281
     0
  0
CLASS
  1
TABLESTYLE
  2
AcDbTableStyle
  3
ObjectDBX Classes
 90
     2047
280
     1
281
     0
  0
ENDSEC
  0
SECTION
  2
TABLES
  0
TABLE
  2
VPORT
  5
1D
330
0
100
AcDbSymbolTable
 70
     2
  0
VPORT
  5
233
330
1D
100
AcDbSymbolTableRecord
100
AcDbViewportTableRecord
  2
*Active
 70
     0
 10
0.0
 20
0.0
 11
1.0
 21
1.0
 12
9.98704643586089
 22
13.11010157026855
 13
0.0
 23
0.0
 14
0.063
 24
0.063
 15
0.25
 25
0.25
 16
0.0
 26
0.0
 36
1.0
 17
0.0
 27
0.0
 37
0.0
 40
26.60761137330237
 41
1.814583333333333
 42
50.0
 43
0.0
 44
0.0
 50
0.0
 51
0.0
 71
     0
 72
   100
 73
     1
 74
     0
 75
     0
 76
     0
 77
     0
 78
     0
281
     0
 65
     1
110
0.0
120
0.0
130
0.0
111
1.0
121
0.0
131
0.0
112
0.0
122
1.0
132
0.0
 79
     0
146
0.0
  0
ENDTAB
  0
TABLE
  2
LTYPE
  5
18
330
0
100
AcDbSymbolTable
 70
     1
  0
LTYPE
  5
19
330
18
100
AcDbSymbolTableRecord
100
AcDbLinetypeTableRecord
  2
BYBLOCK
 70
     0
  3

 72
    65
 73
     0
 40
0.0
  0
LTYPE
  5
1A
330
18
100
AcDbSymbolTableRecord
100
AcDbLinetypeTableRecord
  2
BYLAYER
 70
     0
  3

 72
    65
 73
     0
 40
0.0
  0
LTYPE
  5
A
330
18
100
AcDbSymbolTableRecord
100
AcDbLinetypeTableRecord
  2
CONTINUOUS
 70
     0
  3
Solid line
 72
    65
 73
     0
 40
0.0
  0
ENDTAB
  0
TABLE
  2
LAYER
  5
14
330
0
100
AcDbSymbolTable
 70
     2
  0
LAYER
  5
6
330
14
100
AcDbSymbolTableRecord
100
AcDbLayerTableRecord
  2
0
 70
     0
 62
     7
  6
CONTINUOUS
370
    -3
390
7
  0
ENDTAB
  0
TABLE
  2
STYLE
  5
15
330
0
100
AcDbSymbolTable
 70
     2
  0
STYLE
  5
16
330
15
100
AcDbSymbolTableRecord
100
AcDbTextStyleTableRecord
  2
STANDARD
 70
     0
 40
0.0
 41
1.0
 50
0.0
 71
     0
 42
0.18
  3
TXT
  4

  0
ENDTAB
  0
TABLE
  2
VIEW
  5
1B
330
0
100
AcDbSymbolTable
 70
     0
  0
ENDTAB
  0
TABLE
  2
UCS
  5
1C
330
0
100
AcDbSymbolTable
 70
     0
  0
ENDTAB
  0
TABLE
  2
APPID
  5
1F
330
0
100
AcDbSymbolTable
 70
     1
  0
APPID
  5
20
330
1F
100
AcDbSymbolTableRecord
100
AcDbRegAppTableRecord
  2
ACAD
 70
     0
  0
ENDTAB
  0
TABLE
  2
DIMSTYLE
  5
21
330
0
100
AcDbSymbolTable
 70
     1
100
AcDbDimStyleTable
  0
DIMSTYLE
105
28
330
21
100
AcDbSymbolTableRecord
100
AcDbDimStyleTableRecord
  2
STANDARD
 70
     0
  3

  4

340
16
  0
ENDTAB
  0
TABLE
  2
BLOCK_RECORD
  5
1
330
0
100
AcDbSymbolTable
 70
     0
  0
BLOCK_RECORD
  5
2
330
1
100
AcDbSymbolTableRecord
100
AcDbBlockTableRecord
  2
*MODEL_SPACE
340
C
  0
BLOCK_RECORD
  5
E
330
1
100
AcDbSymbolTableRecord
100
AcDbBlockTableRecord
  2
*PAPER_SPACE
340
13
  0
ENDTAB
  0
ENDSEC
  0
SECTION
  2
BLOCKS
  0
BLOCK
  5
5
330
2
100
AcDbEntity
  8
0
100
AcDbBlockBegin
  2
*MODEL_SPACE
 70
     0
 10
0.0
 20
0.0
 30
0.0
  3
*MODEL_SPACE
  1

  4

  0
ENDBLK
  5
B
330
2
100
AcDbEntity
  8
0
100
AcDbBlockEnd
  0
BLOCK
  5
11
330
E
100
AcDbEntity
 67
     1
  8
0
100
AcDbBlockBegin
  2
*PAPER_SPACE
 70
     0
 10
0.0
 20
0.0
 30
0.0
  3
*PAPER_SPACE
  1

  4

  0
ENDBLK
  5
12
330
E
100
AcDbEntity
 67
     1
  8
0
100
AcDbBlockEnd
  0
ENDSEC
  0
SECTION
  2
ENTITIES
  0
LINE
  5
13E
330
2
100
AcDbEntity
  8
0
100
AcDbLine
 10
0.1400000000000006
 20
0.9300000000000015
 30
0.0
 11
1.445499999999999
 21
0.9300000000000033
 31
0.0
  0
LINE
  5
13F
330
2
100
AcDbEntity
  8
0
100
AcDbLine
 10
0.3356250006028709
 20
2.843900000602872
 30
0.0
 11
0.1168750000000003
 21
2.625150000000001
 31
0.0
  0
LINE
  5
140
330
2
100
AcDbEntity
  8
0
100
AcDbLine
 10
0.1950000000000003
 20
1.000000000000002
 30
0.0
 11
1.411582653311825
 21
1.000000000000002
 31
0.0
  0
LINE
  5
141
330
2
100
AcDbEntity
  8
0
100
AcDbLine
 10
0.0
 20
0.8438000000000017
 30
0.0
 11
1.311900000000001
 21
0.8438000000000017
 31
0.0
  0
LINE
  5
142
330
2
100
AcDbEntity
  8
0
100
AcDbLine
 10
0.0
 20
0.0
 30
0.0
 11
1.311899999999998
 21
0.0
 31
0.0
  0
LINE
  5
143
330
2
100
AcDbEntity
  8
0
100
AcDbLine
 10
0.1168750000000003
 20
2.62515
 30
0.0
 11
0.1168750000000003
 21
0.9260699203495797
 31
0.0
  0
ARC
  5
144
330
2
100
AcDbEntity
  8
0
100
AcDbCircle
 10
0.1400000000000006
 20
0.860000000000003
 30
0.0
 40
0.14
100
AcDbArc
 50
99.50760819957664
 51
180.0
  0
ARC
  5
145
330
2
100
AcDbEntity
  8
0
100
AcDbCircle
 10
0.1400000000000006
 20
0.8599999999999994
 30
0.0
 40
0.07
100
AcDbArc
 50
90.00000000000003
 51
180.0
  0
LINE
  5
146
330
2
100
AcDbEntity
  8
0
100
AcDbLine
 10
0.0700000000000003
 20
0.8438000000000017
 30
0.0
 11
0.0700000000000003
 21
0.0
 31
0.0
  0
LINE
  5
147
330
2
100
AcDbEntity
  8
0
100
AcDbLine
 10
0.0
 20
0.860000000000003
 30
0.0
 11
0.0
 21
0.0
 31
0.0
  0
LINE
  5
148
330
2
100
AcDbEntity
  8
0
100
AcDbLine
 10
0.0700000000000003
 20
0.8599999999999994
 30
0.0
 11
0.0700000000000003
 21
0.8438000000000017
 31
0.0
  0
ARC
  5
149
330
2
100
AcDbEntity
  8
0
100
AcDbCircle
 10
0.1400000000000006
 20
0.860000000000003
 30
0.0
 40
0.14
100
AcDbArc
 50
90.0
 51
99.50760819957664
  0
LINE
  5
14A
330
2
100
AcDbEntity
  8
0
100
AcDbLine
 10
0.1400000000000006
 20
1.000000000000002
 30
0.0
 11
0.1950000000000003
 21
1.000000000000002
 31
0.0
  0
CIRCLE
  5
14B
330
2
100
AcDbEntity
  8
0
100
AcDbCircle
 10
4.913825000000019
 20
2.093900000602872
 30
0.0
 40
0.0855
  0
LINE
  5
14C
330
2
100
AcDbEntity
  8
0
100
AcDbLine
 10
5.281150000000002
 20
0.9300000000000033
 30
0.0
 11
3.97565
 21
0.9300000000000015
 31
0.0
  0
LINE
  5
14D
330
2
100
AcDbEntity
  8
0
100
AcDbLine
 10
5.281150000000002
 20
1.000000000000002
 30
0.0
 11
4.009567346688121
 21
1.000000000000002
 31
0.0
  0
LINE
  5
14E
330
2
100
AcDbEntity
  8
0
100
AcDbLine
 10
5.085525000000017
 20
2.843900000602872
 30
0.0
 11
0.3356250006028709
 21
2.843900000602872
 31
0.0
  0
LINE
  5
14F
330
2
100
AcDbEntity
  8
0
100
AcDbLine
 10
5.421150000000003
 20
0.8438000000000017
 30
0.0
 11
4.109250000000001
 21
0.8438000000000017
 31
0.0
  0
LINE
  5
150
330
2
100
AcDbEntity
  8
0
100
AcDbLine
 10
5.421150000000003
 20
0.0
 30
0.0
 11
4.109250000000001
 21
0.0
 31
0.0
  0
LINE
  5
151
330
2
100
AcDbEntity
  8
0
100
AcDbLine
 10
3.765650000000003
 20
0.0700000000000003
 30
0.0
 11
1.6555
 21
0.0700000000000003
 31
0.0
  0
LINE
  5
152
330
2
100
AcDbEntity
  8
0
100
AcDbLine
 10
2.398125000000018
 20
1.250150000602872
 30
0.0
 11
2.74187500000002
 21
0.9064000006028721
 31
0.0
  0
LINE
  5
153
330
2
100
AcDbEntity
  8
0
100
AcDbLine
 10
2.616875000000018
 20
2.8439
 30
0.0
 11
2.398125000000018
 21
2.62515
 31
0.0
  0
LINE
  5
154
330
2
100
AcDbEntity
  8
0
100
AcDbLine
 10
3.194975000000001
 20
2.843900000000001
 30
0.0
 11
2.523075000000016
 21
2.8439
 31
0.0
  0
LINE
  5
155
330
2
100
AcDbEntity
  8
0
100
AcDbLine
 10
1.585625
 20
0.9064000006028721
 30
0.0
 11
3.835524999999999
 21
0.9064000006028739
 31
0.0
  0
LINE
  5
156
330
2
100
AcDbEntity
  8
0
100
AcDbLine
 10
3.765650000000003
 20
0.0
 30
0.0
 11
1.6555
 21
0.0
 31
0.0
  0
CIRCLE
  5
157
330
2
100
AcDbEntity
  8
0
100
AcDbCircle
 10
2.694875000000002
 20
2.093900000000001
 30
0.0
 40
0.125
  0
LINE
  5
158
330
2
100
AcDbEntity
  8
0
100
AcDbLine
 10
2.398125000000018
 20
1.250150000602872
 30
0.0
 11
2.39812500000002
 21
2.62515
 31
0.0
  0
LINE
  5
159
330
2
100
AcDbEntity
  8
0
100
AcDbLine
 10
1.411582653311864
 20
1.0
 30
0.0
 11
1.445499999999999
 21
1.000000000000002
 31
0.0
  0
ARC
  5
15A
330
2
100
AcDbEntity
  8
0
100
AcDbCircle
 10
1.491875
 20
0.9516037030000017
 30
0.0
 40
0.09375
100
AcDbArc
 50
0.0
 51
180.0
  0
LINE
  5
15B
330
2
100
AcDbEntity
  8
0
100
AcDbLine
 10
1.311900000000001
 20
0.8438000000000017
 30
0.0
 11
1.311899999999998
 21
0.0
 31
0.0
  0
LINE
  5
15C
330
2
100
AcDbEntity
  8
0
100
AcDbLine
 10
1.241900000000001
 20
0.8438000000000017
 30
0.0
 11
1.241900000000001
 21
0.0
 31
0.0
  0
LINE
  5
15D
330
2
100
AcDbEntity
  8
0
100
AcDbLine
 10
1.398125
 20
0.9300000000000033
 30
0.0
 11
1.398125
 21
0.9516037030000017
 31
0.0
  0
ARC
  5
15E
330
2
100
AcDbEntity
  8
0
100
AcDbCircle
 10
1.445499999999999
 20
0.860000000000003
 30
0.0
 40
0.14
100
AcDbArc
 50
359.9999999999999
 51
90.0
  0
ARC
  5
15F
330
2
100
AcDbEntity
  8
0
100
AcDbCircle
 10
1.445499999999999
 20
0.860000000000003
 30
0.0
 40
0.07
100
AcDbArc
 50
0.0
 51
90.00000000000006
  0
LINE
  5
160
330
2
100
AcDbEntity
  8
0
100
AcDbLine
 10
1.515499999999999
 20
0.1400000000000006
 30
0.0
 11
1.515499999999999
 21
0.860000000000003
 31
0.0
  0
LINE
  5
161
330
2
100
AcDbEntity
  8
0
100
AcDbLine
 10
1.5855
 20
0.1400000000000006
 30
0.0
 11
1.5855
 21
0.860000000000003
 31
0.0
  0
ARC
  5
162
330
2
100
AcDbEntity
  8
0
100
AcDbCircle
 10
1.6555
 20
0.1400000000000006
 30
0.0
 40
0.14
100
AcDbArc
 50
179.9999999999999
 51
270.0
  0
ARC
  5
163
330
2
100
AcDbEntity
  8
0
100
AcDbCircle
 10
1.6555
 20
0.1400000000000006
 30
0.0
 40
0.07
100
AcDbArc
 50
179.9999999999999
 51
270.0
  0
LINE
  5
164
330
2
100
AcDbEntity
  8
0
100
AcDbLine
 10
1.585625
 20
0.9064000006028721
 30
0.0
 11
1.585625
 21
0.9516037030000017
 31
0.0
  0
CIRCLE
  5
165
330
2
100
AcDbEntity
  8
0
100
AcDbCircle
 10
0.5072249999999983
 20
2.093900000000001
 30
0.0
 40
0.0855
  0
CIRCLE
  5
166
330
2
100
AcDbEntity
  8
0
100
AcDbCircle
 10
1.616875
 20
2.468900000000001
 30
0.0
 40
0.0855
  0
LINE
  5
167
330
2
100
AcDbEntity
  8
0
100
AcDbLine
 10
3.36677500000002
 20
2.761420025943064
 30
0.0
 11
3.36677500000002
 21
0.9910398034526491
 31
0.0
  0
LINE
  5
168
330
2
100
AcDbEntity
  8
0
100
AcDbLine
 10
3.457428185272223
 20
2.812700000602872
 30
0.0
 11
3.457428185272223
 21
0.9064000006028721
 31
0.0
  0
LINE
  5
169
330
2
100
AcDbEntity
  8
0
100
AcDbLine
 10
3.007575000000001
 20
2.812700000000001
 30
0.0
 11
3.007575000000001
 21
0.9064000006028721
 31
0.0
  0
ARC
  5
16A
330
2
100
AcDbEntity
  8
0
100
AcDbCircle
 10
3.765650000000003
 20
0.1400000000000006
 30
0.0
 40
0.14
100
AcDbArc
 50
270.0000000000001
 51
0.0000000000000636
  0
ARC
  5
16B
330
2
100
AcDbEntity
  8
0
100
AcDbCircle
 10
3.765650000000003
 20
0.1400000000000006
 30
0.0
 40
0.07
100
AcDbArc
 50
270.0000000000001
 51
0.0000000000000636
  0
ARC
  5
16C
330
2
100
AcDbEntity
  8
0
100
AcDbCircle
 10
3.97565
 20
0.8599999999999994
 30
0.0
 40
0.07
100
AcDbArc
 50
90.0
 51
180.0
  0
ARC
  5
16D
330
2
100
AcDbEntity
  8
0
100
AcDbCircle
 10
3.97565
 20
0.860000000000003
 30
0.0
 40
0.14
100
AcDbArc
 50
90.0
 51
180.0000000000001
  0
LINE
  5
16E
330
2
100
AcDbEntity
  8
0
100
AcDbLine
 10
4.109250000000001
 20
0.8438000000000017
 30
0.0
 11
4.109250000000001
 21
0.0
 31
0.0
  0
LINE
  5
16F
330
2
100
AcDbEntity
  8
0
100
AcDbLine
 10
3.90565
 20
0.8599999999999994
 30
0.0
 11
3.90565
 21
0.1400000000000006
 31
0.0
  0
LINE
  5
170
330
2
100
AcDbEntity
  8
0
100
AcDbLine
 10
4.179250000000002
 20
0.8438000000000017
 30
0.0
 11
4.179250000000002
 21
0.0
 31
0.0
  0
LINE
  5
171
330
2
100
AcDbEntity
  8
0
100
AcDbLine
 10
3.835650000000003
 20
0.860000000000003
 30
0.0
 11
3.835650000000003
 21
0.1400000000000006
 31
0.0
  0
LINE
  5
173
330
2
100
AcDbEntity
  8
0
100
AcDbLine
 10
4.009567346688135
 20
1.0
 30
0.0
 11
3.97565
 21
1.000000000000002
 31
0.0
  0
ARC
  5
174
330
2
100
AcDbEntity
  8
0
100
AcDbCircle
 10
3.929274999999999
 20
0.9516037030000017
 30
0.0
 40
0.09375
100
AcDbArc
 50
0.0
 51
180.0
  0
LINE
  5
175
330
2
100
AcDbEntity
  8
0
100
AcDbLine
 10
3.835524999999999
 20
0.9064000006028721
 30
0.0
 11
3.835524999999999
 21
0.9516037030000017
 31
0.0
  0
LINE
  5
176
330
2
100
AcDbEntity
  8
0
100
AcDbLine
 10
4.023024999999999
 20
0.9300000000000033
 30
0.0
 11
4.023024999999999
 21
0.9516037030000017
 31
0.0
  0
CIRCLE
  5
179
330
2
100
AcDbEntity
  8
0
100
AcDbCircle
 10
2.694875000000002
 20
2.093900000000001
 30
0.0
 40
0.0855
  0
LINE
  5
17A
330
2
100
AcDbEntity
  8
0
100
AcDbLine
 10
5.30427500000002
 20
2.625150000602872
 30
0.0
 11
5.30427500000002
 21
0.9260699203496099
 31
0.0
  0
ARC
  5
17B
330
2
100
AcDbEntity
  8
0
100
AcDbCircle
 10
5.281150000000002
 20
0.860000000000003
 30
0.0
 40
0.07
100
AcDbArc
 50
0.0
 51
90.0
  0
ARC
  5
17C
330
2
100
AcDbEntity
  8
0
100
AcDbCircle
 10
5.281150000000002
 20
0.860000000000003
 30
0.0
 40
0.14
100
AcDbArc
 50
0.0
 51
80.492391800416
  0
LINE
  5
17D
330
2
100
AcDbEntity
  8
0
100
AcDbLine
 10
5.351150000000002
 20
0.8438000000000017
 30
0.0
 11
5.351150000000002
 21
0.0
 31
0.0
  0
LINE
  5
17E
330
2
100
AcDbEntity
  8
0
100
AcDbLine
 10
5.421150000000003
 20
0.860000000000003
 30
0.0
 11
5.421150000000003
 21
0.0
 31
0.0
  0
LINE
  5
17F
330
2
100
AcDbEntity
  8
0
100
AcDbLine
 10
5.351150000000002
 20
0.860000000000003
 30
0.0
 11
5.351150000000002
 21
0.8438000000000017
 31
0.0
  0
ARC
  5
180
330
2
100
AcDbEntity
  8
0
100
AcDbCircle
 10
5.281150000000002
 20
0.860000000000003
 30
0.0
 40
0.14
100
AcDbArc
 50
80.492391800416
 51
90.0
  0
LINE
  5
181
330
2
100
AcDbEntity
  8
0
100
AcDbLine
 10
5.30427500000002
 20
2.625150000602872
 30
0.0
 11
5.08552500000002
 21
2.843900000602872
 31
0.0
  0
LINE
  5
182
330
2
100
AcDbEntity
  8
0
100
AcDbLine
 10
0.1168750000000003
 20
15.47535749616704
 30
0.0
 11
3.331121814727821
 21
15.47535749616704
 31
0.0
  0
LINE
  5
183
330
2
100
AcDbEntity
  8
0
100
AcDbLine
 10
1.1875
 20
15.13168249616704
 30
0.0
 11
0.1950000000000003
 21
15.13168249616703
 31
0.0
  0
LINE
  5
184
330
2
100
AcDbEntity
  8
0
100
AcDbLine
 10
0.1168750000000003
 20
9.273357496167041
 30
0.0
 11
3.007575000000001
 21
9.273357496167041
 31
0.0
  0
LINE
  5
185
330
2
100
AcDbEntity
  8
0
100
AcDbLine
 10
1.1875
 20
9.617032496167042
 30
0.0
 11
0.1950000000000003
 21
9.617032496167042
 31
0.0
  0
LINE
  5
186
330
2
100
AcDbEntity
  8
0
100
AcDbLine
 10
1.1875
 20
15.06168249616703
 30
0.0
 11
0.1400000000000006
 21
15.06168249616703
 31
0.0
  0
LINE
  5
187
330
2
100
AcDbEntity
  8
0
100
AcDbLine
 10
1.1875
 20
9.687032496167042
 30
0.0
 11
0.1400000000000006
 21
9.687032496167042
 31
0.0
  0
LINE
  5
188
330
2
100
AcDbEntity
  8
0
100
AcDbLine
 10
0.1168750000000003
 20
15.40535749616704
 30
0.0
 11
3.007575000000001
 21
15.40535749616704
 31
0.0
  0
LINE
  5
18A
330
2
100
AcDbEntity
  8
0
100
AcDbLine
 10
0.1168750000000003
 20
9.343357496167041
 30
0.0
 11
3.007575000000001
 21
9.343357496167041
 31
0.0
  0
LINE
  5
18B
330
2
100
AcDbEntity
  8
0
100
AcDbLine
 10
0.0
 20
14.99168249616704
 30
0.0
 11
0.0
 21
9.757032496167049
 31
0.0
  0
LINE
  5
18C
330
2
100
AcDbEntity
  8
0
100
AcDbLine
 10
0.0700000000000003
 20
14.99168249616703
 30
0.0
 11
0.0700000000000003
 21
9.757032496167046
 31
0.0
  0
ARC
  5
18D
330
2
100
AcDbEntity
  8
0
100
AcDbCircle
 10
0.1400000000000006
 20
9.757032496167049
 30
0.0
 40
0.14
100
AcDbArc
 50
180.0
 51
260.4923918004236
  0
LINE
  5
18E
330
2
100
AcDbEntity
  8
0
100
AcDbLine
 10
0.1168750000000003
 20
9.687529057512943
 30
0.0
 11
0.1168750000000003
 21
9.273357496167041
 31
0.0
  0
ARC
  5
18F
330
2
100
AcDbEntity
  8
0
100
AcDbCircle
 10
0.1400000000000006
 20
9.757032496167049
 30
0.0
 40
0.14
100
AcDbArc
 50
260.4923918004236
 51
270.0000000000036
  0
LINE
  5
190
330
2
100
AcDbEntity
  8
0
100
AcDbLine
 10
0.1949999999999683
 20
9.617032496167052
 30
0.0
 11
0.1400000000000077
 21
9.617032496167049
 31
0.0
  0
ARC
  5
191
330
2
100
AcDbEntity
  8
0
100
AcDbCircle
 10
0.046875
 20
9.687529057512943
 30
0.0
 40
0.07
100
AcDbArc
 50
0.0
 51
40.29380768636604
  0
ARC
  5
192
330
2
100
AcDbEntity
  8
0
100
AcDbCircle
 10
0.0032406369959546
 20
9.650532533397698
 30
0.0
 40
0.1272075207590416
100
AcDbArc
 50
40.29380768636604
 51
72.42182974630129
  0
ARC
  5
193
330
2
100
AcDbEntity
  8
0
100
AcDbCircle
 10
0.0322355517330379
 20
9.742057059955812
 30
0.0
 40
0.0312
100
AcDbArc
 50
72.42182974630083
 51
187.9114147161292
  0
ARC
  5
194
330
2
100
AcDbEntity
  8
0
100
AcDbCircle
 10
0.1400000000000006
 20
9.757032496167053
 30
0.0
 40
0.07
100
AcDbArc
 50
180.0
 51
250.6351740658717
  0
ARC
  5
195
330
2
100
AcDbEntity
  8
0
100
AcDbCircle
 10
0.1400000000000006
 20
9.757032496167053
 30
0.0
 40
0.07
100
AcDbArc
 50
250.6351740658717
 51
270.0
  0
LINE
  5
198
330
2
100
AcDbEntity
  8
0
100
AcDbLine
 10
0.1168750000000003
 20
15.47535749616704
 30
0.0
 11
0.1168750000000003
 21
15.06118593482114
 31
0.0
  0
ARC
  5
199
330
2
100
AcDbEntity
  8
0
100
AcDbCircle
 10
0.1400000000000006
 20
14.99168249616703
 30
0.0
 40
0.07
100
AcDbArc
 50
109.3648259341283
 51
180.0
  0
ARC
  5
19A
330
2
100
AcDbEntity
  8
0
100
AcDbCircle
 10
0.1400000000000006
 20
14.99168249616704
 30
0.0
 40
0.14
100
AcDbArc
 50
99.50760819957623
 51
180.0
  0
ARC
  5
19B
330
2
100
AcDbEntity
  8
0
100
AcDbCircle
 10
0.1400000000000006
 20
14.99168249616704
 30
0.0
 40
0.14
100
AcDbArc
 50
90.0
 51
99.50760819957623
  0
ARC
  5
19C
330
2
100
AcDbEntity
  8
0
100
AcDbCircle
 10
0.046875
 20
15.06118593482114
 30
0.0
 40
0.07
100
AcDbArc
 50
319.706192313634
 51
0.0
  0
ARC
  5
19D
330
2
100
AcDbEntity
  8
0
100
AcDbCircle
 10
0.0322355517330379
 20
15.00665793237828
 30
0.0
 40
0.0312
100
AcDbArc
 50
172.0885852838708
 51
287.5781702536992
  0
ARC
  5
19E
330
2
100
AcDbEntity
  8
0
100
AcDbCircle
 10
0.1400000000000006
 20
14.99168249616703
 30
0.0
 40
0.07
100
AcDbArc
 50
90.0
 51
109.3648259341283
  0
ARC
  5
19F
330
2
100
AcDbEntity
  8
0
100
AcDbCircle
 10
0.0032406369959546
 20
15.09818245893639
 30
0.0
 40
0.1272075207590416
100
AcDbArc
 50
287.5781702536987
 51
319.706192313634
  0
LINE
  5
1A0
330
2
100
AcDbEntity
  8
0
100
AcDbLine
 10
0.1949999999999683
 20
15.13168249616703
 30
0.0
 11
0.1400000000000006
 21
15.13168249616704
 31
0.0
  0
LINE
  5
1A1
330
2
100
AcDbEntity
  8
0
100
AcDbLine
 10
5.421149999999999
 20
14.99168249616705
 30
0.0
 11
5.421150000000003
 21
9.757032496167042
 31
0.0
  0
LINE
  5
1A2
330
2
100
AcDbEntity
  8
0
100
AcDbLine
 10
3.90565
 20
15.13970749616704
 30
0.0
 11
3.90565
 21
9.609007496167042
 31
0.0
  0
LINE
  5
1A3
330
2
100
AcDbEntity
  8
0
100
AcDbLine
 10
1.515499999999999
 20
9.609007496167045
 30
0.0
 11
1.515499999999999
 21
15.13970749616705
 31
0.0
  0
LINE
  5
1A5
330
2
100
AcDbEntity
  8
0
100
AcDbLine
 10
3.054325
 20
12.78065749616705
 30
0.0
 11
3.054325
 21
11.96805749616704
 31
0.0
  0
LINE
  5
1A6
330
2
100
AcDbEntity
  8
0
100
AcDbLine
 10
2.366824999999999
 20
12.78065749616705
 30
0.0
 11
2.366824999999999
 21
11.96805749616704
 31
0.0
  0
LINE
  5
1A7
330
2
100
AcDbEntity
  8
0
100
AcDbLine
 10
3.835649999999999
 20
15.13970749616704
 30
0.0
 11
3.835649999999999
 21
9.609007496167042
 31
0.0
  0
LINE
  5
1A8
330
2
100
AcDbEntity
  8
0
100
AcDbLine
 10
1.5855
 20
9.609007496167045
 30
0.0
 11
1.5855
 21
15.13970749616705
 31
0.0
  0
LINE
  5
1A9
330
2
100
AcDbEntity
  8
0
100
AcDbLine
 10
5.351149999999999
 20
14.99168249616705
 30
0.0
 11
5.351150000000002
 21
9.757032496167042
 31
0.0
  0
LINE
  5
1AA
330
2
100
AcDbEntity
  8
0
100
AcDbLine
 10
4.233649999999999
 20
9.617032496167042
 30
0.0
 11
5.281149999999999
 21
9.617032496167038
 31
0.0
  0
LINE
  5
1AB
330
2
100
AcDbEntity
  8
0
100
AcDbLine
 10
3.457428185272223
 20
9.273357496167041
 30
0.0
 11
5.30427500000002
 21
9.273357496167044
 31
0.0
  0
LINE
  5
1AC
330
2
100
AcDbEntity
  8
0
100
AcDbLine
 10
4.233650000000003
 20
9.687032496167042
 30
0.0
 11
5.281149999999999
 21
9.687032496167042
 31
0.0
  0
LINE
  5
1AD
330
2
100
AcDbEntity
  8
0
100
AcDbLine
 10
3.42177500000002
 20
9.343357496167045
 30
0.0
 11
5.30427500000002
 21
9.343357496167045
 31
0.0
  0
LINE
  5
1AE
330
2
100
AcDbEntity
  8
0
100
AcDbLine
 10
2.39807500000002
 20
9.20335749616704
 30
0.0
 11
3.36677500000002
 21
9.203357496167048
 31
0.0
  0
ARC
  5
1AF
330
2
100
AcDbEntity
  8
0
100
AcDbCircle
 10
2.710575
 20
11.96805749616704
 30
0.0
 40
0.34375
100
AcDbArc
 50
180.0
 51
0.0
  0
LINE
  5
1B0
330
2
100
AcDbEntity
  8
0
100
AcDbLine
 10
1.468125000000001
 20
9.609007496167042
 30
0.0
 11
3.953024999999999
 21
9.609007496167042
 31
0.0
  0
LINE
  5
1B1
330
2
100
AcDbEntity
  8
0
100
AcDbLine
 10
1.327500000000001
 20
10.12453249616705
 30
0.0
 11
1.327499999999997
 21
9.757032496167042
 31
0.0
  0
LINE
  5
1B2
330
2
100
AcDbEntity
  8
0
100
AcDbLine
 10
1.2575
 20
10.12453249616705
 30
0.0
 11
1.2575
 21
9.757032496167042
 31
0.0
  0
ARC
  5
1B3
330
2
100
AcDbEntity
  8
0
100
AcDbCircle
 10
1.468125000000001
 20
9.539007496167038
 30
0.0
 40
0.07
100
AcDbArc
 50
90.00000000000007
 51
180.0
  0
LINE
  5
1B4
330
2
100
AcDbEntity
  8
0
100
AcDbLine
 10
0.3355749999999986
 20
9.280857496167041
 30
0.0
 11
0.3355749999999986
 21
9.343357496167041
 31
0.0
  0
LINE
  5
1B5
330
2
100
AcDbEntity
  8
0
100
AcDbLine
 10
0.3355749999999986
 20
9.273357496167041
 30
0.0
 11
0.3355749999999986
 21
9.343357496167041
 31
0.0
  0
ARC
  5
1B6
330
2
100
AcDbEntity
  8
0
100
AcDbCircle
 10
1.1875
 20
9.757032496167042
 30
0.0
 40
0.14
100
AcDbArc
 50
270.0
 51
359.9999999999997
  0
LINE
  5
1B7
330
2
100
AcDbEntity
  8
0
100
AcDbLine
 10
1.398125
 20
9.539007496167038
 30
0.0
 11
1.398125
 21
9.343357496167048
 31
0.0
  0
ARC
  5
1B8
330
2
100
AcDbEntity
  8
0
100
AcDbCircle
 10
1.1875
 20
9.757032496167042
 30
0.0
 40
0.07
100
AcDbArc
 50
270.0
 51
359.9999999999997
  0
LINE
  5
1B9
330
2
100
AcDbEntity
  8
0
100
AcDbLine
 10
2.39807500000002
 20
9.218357496167041
 30
0.0
 11
2.39807500000002
 21
9.273357496167041
 31
0.0
  0
LINE
  5
1BA
330
2
100
AcDbEntity
  8
0
100
AcDbLine
 10
2.39807500000002
 20
9.20335749616704
 30
0.0
 11
2.39807500000002
 21
9.273357496167041
 31
0.0
  0
LINE
  5
1BB
330
2
100
AcDbEntity
  8
0
100
AcDbLine
 10
1.327500000000001
 20
10.12453249616705
 30
0.0
 11
1.2575
 21
10.12453249616705
 31
0.0
  0
LINE
  5
1BC
330
2
100
AcDbEntity
  8
0
100
AcDbLine
 10
4.093650000000002
 20
10.12453249616705
 30
0.0
 11
4.093649999999999
 21
9.757032496167046
 31
0.0
  0
LINE
  5
1BD
330
2
100
AcDbEntity
  8
0
100
AcDbLine
 10
4.163650000000002
 20
10.12453249616705
 30
0.0
 11
4.163650000000002
 21
9.757032496167042
 31
0.0
  0
LINE
  5
1C1
330
2
100
AcDbEntity
  8
0
100
AcDbLine
 10
3.007575000000001
 20
9.273357496167044
 30
0.0
 11
3.331121814727821
 21
9.273357496167041
 31
0.0
  0
LINE
  5
1C2
330
2
100
AcDbEntity
  8
0
100
AcDbLine
 10
2.616775000000018
 20
9.273357496167041
 30
0.0
 11
2.616775000000018
 21
9.20335749616704
 31
0.0
  0
LINE
  5
1C3
330
2
100
AcDbEntity
  8
0
100
AcDbLine
 10
3.007575000000001
 20
9.343357496167041
 30
0.0
 11
3.007575000000001
 21
9.273357496167044
 31
0.0
  0
CIRCLE
  5
1C4
330
2
100
AcDbEntity
  8
0
100
AcDbCircle
 10
2.710575
 20
9.858957496167044
 30
0.0
 40
0.0855
  0
ARC
  5
1C5
330
2
100
AcDbEntity
  8
0
100
AcDbCircle
 10
3.457428185272223
 20
9.242157496167042
 30
0.0
 40
0.0312
100
AcDbArc
 50
90.0
 51
165.3487474164916
  0
ARC
  5
1C6
330
2
100
AcDbEntity
  8
0
100
AcDbCircle
 10
3.331121814727821
 20
9.304557496167043
 30
0.0
 40
0.0312
100
AcDbArc
 50
270.0
 51
345.3487474164926
  0
ARC
  5
1C7
330
2
100
AcDbEntity
  8
0
100
AcDbCircle
 10
3.36677500000002
 20
9.265857496167048
 30
0.0
 40
0.0625
100
AcDbArc
 50
270.0000000000003
 51
345.3487474164894
  0
ARC
  5
1C8
330
2
100
AcDbEntity
  8
0
100
AcDbCircle
 10
3.42177500000002
 20
9.280857496167041
 30
0.0
 40
0.0625
100
AcDbArc
 50
90.0
 51
165.3487474164912
  0
ARC
  5
1C9
330
2
100
AcDbEntity
  8
0
100
AcDbCircle
 10
3.953024999999999
 20
9.539007496167045
 30
0.0
 40
0.07
100
AcDbArc
 50
0.0
 51
90.0000000000002
  0
ARC
  5
1CA
330
2
100
AcDbEntity
  8
0
100
AcDbCircle
 10
4.233649999999999
 20
9.757032496167042
 30
0.0
 40
0.14
100
AcDbArc
 50
179.9999999999994
 51
269.9999999999999
  0
LINE
  5
1CB
330
2
100
AcDbEntity
  8
0
100
AcDbLine
 10
4.023024999999999
 20
9.539007496167045
 30
0.0
 11
4.023024999999999
 21
9.343357496167048
 31
0.0
  0
ARC
  5
1CC
330
2
100
AcDbEntity
  8
0
100
AcDbCircle
 10
4.233650000000003
 20
9.757032496167042
 30
0.0
 40
0.07
100
AcDbArc
 50
179.9999999999997
 51
270.0
  0
LINE
  5
1CD
330
2
100
AcDbEntity
  8
0
100
AcDbLine
 10
4.093650000000002
 20
10.12453249616705
 30
0.0
 11
4.163650000000002
 21
10.12453249616705
 31
0.0
  0
ARC
  5
1CE
330
2
100
AcDbEntity
  8
0
100
AcDbCircle
 10
5.281149999999999
 20
9.757032496167049
 30
0.0
 40
0.14
100
AcDbArc
 50
279.5076081995764
 51
0.0
  0
LINE
  5
1CF
330
2
100
AcDbEntity
  8
0
100
AcDbLine
 10
5.30427500000002
 20
9.687529057512943
 30
0.0
 11
5.30427500000002
 21
9.273357496167044
 31
0.0
  0
LINE
  5
1D0
330
2
100
AcDbEntity
  8
0
100
AcDbLine
 10
5.085573487000017
 20
9.280857496167041
 30
0.0
 11
5.085573487000017
 21
9.343357496167041
 31
0.0
  0
LINE
  5
1D1
330
2
100
AcDbEntity
  8
0
100
AcDbLine
 10
5.085573487000017
 20
9.273357496167044
 30
0.0
 11
5.085573487000017
 21
9.343357496167041
 31
0.0
  0
ARC
  5
1D2
330
2
100
AcDbEntity
  8
0
100
AcDbCircle
 10
5.281149999999999
 20
9.757032496167053
 30
0.0
 40
0.07
100
AcDbArc
 50
289.3648259341284
 51
0.0
  0
ARC
  5
1D3
330
2
100
AcDbEntity
  8
0
100
AcDbCircle
 10
5.388914448266961
 20
9.742057059955812
 30
0.0
 40
0.0312
100
AcDbArc
 50
352.0885852838708
 51
107.5781702536991
  0
ARC
  5
1D4
330
2
100
AcDbEntity
  8
0
100
AcDbCircle
 10
5.417909363004045
 20
9.650532533397698
 30
0.0
 40
0.1272075207590416
100
AcDbArc
 50
107.5781702536987
 51
139.706192313634
  0
ARC
  5
1D5
330
2
100
AcDbEntity
  8
0
100
AcDbCircle
 10
5.374274999999999
 20
9.687529057512943
 30
0.0
 40
0.07
100
AcDbArc
 50
139.706192313634
 51
180.0
  0
ARC
  5
1D6
330
2
100
AcDbEntity
  8
0
100
AcDbCircle
 10
5.281149999999999
 20
9.757032496167053
 30
0.0
 40
0.07
100
AcDbArc
 50
270.0
 51
289.3648259341284
  0
ARC
  5
1D7
330
2
100
AcDbEntity
  8
0
100
AcDbCircle
 10
5.281149999999999
 20
9.757032496167049
 30
0.0
 40
0.14
100
AcDbArc
 50
269.9999999999964
 51
279.5076081995764
  0
LINE
  5
1D8
330
2
100
AcDbEntity
  8
0
100
AcDbLine
 10
4.233649999999999
 20
15.13168249616705
 30
0.0
 11
5.281149999999995
 21
15.13168249616705
 31
0.0
  0
LINE
  5
1D9
330
2
100
AcDbEntity
  8
0
100
AcDbLine
 10
3.42177500000002
 20
15.40535749616704
 30
0.0
 11
5.30427500000002
 21
15.40535749616704
 31
0.0
  0
LINE
  5
1DA
330
2
100
AcDbEntity
  8
0
100
AcDbLine
 10
3.457428185272223
 20
15.47535749616704
 30
0.0
 11
5.30427500000002
 21
15.47535749616704
 31
0.0
  0
LINE
  5
1DB
330
2
100
AcDbEntity
  8
0
100
AcDbLine
 10
4.233649999999999
 20
15.06168249616705
 30
0.0
 11
5.281149999999999
 21
15.06168249616705
 31
0.0
  0
LINE
  5
1DC
330
2
100
AcDbEntity
  8
0
100
AcDbLine
 10
2.39807500000002
 20
15.54535749616705
 30
0.0
 11
3.36677500000002
 21
15.54535749616704
 31
0.0
  0
ARC
  5
1DD
330
2
100
AcDbEntity
  8
0
100
AcDbCircle
 10
2.710575
 20
12.78065749616705
 30
0.0
 40
0.34375
100
AcDbArc
 50
0.0
 51
180.0
  0
LINE
  5
1DE
330
2
100
AcDbEntity
  8
0
100
AcDbLine
 10
1.468125000000001
 20
15.13970749616705
 30
0.0
 11
3.953024999999999
 21
15.13970749616704
 31
0.0
  0
ARC
  5
1DF
330
2
100
AcDbEntity
  8
0
100
AcDbCircle
 10
1.468125000000001
 20
15.20970749616705
 30
0.0
 40
0.07
100
AcDbArc
 50
180.0
 51
269.9999999999999
  0
LINE
  5
1E0
330
2
100
AcDbEntity
  8
0
100
AcDbLine
 10
1.398125
 20
15.20970749616705
 30
0.0
 11
1.398125
 21
15.40535749616704
 31
0.0
  0
LINE
  5
1E1
330
2
100
AcDbEntity
  8
0
100
AcDbLine
 10
1.327500000000001
 20
14.62418249616704
 30
0.0
 11
1.327500000000001
 21
14.99168249616704
 31
0.0
  0
LINE
  5
1E2
330
2
100
AcDbEntity
  8
0
100
AcDbLine
 10
1.2575
 20
14.62418249616704
 30
0.0
 11
1.2575
 21
14.99168249616703
 31
0.0
  0
LINE
  5
1E3
330
2
100
AcDbEntity
  8
0
100
AcDbLine
 10
1.327500000000001
 20
14.62418249616704
 30
0.0
 11
1.2575
 21
14.62418249616704
 31
0.0
  0
ARC
  5
1E4
330
2
100
AcDbEntity
  8
0
100
AcDbCircle
 10
1.1875
 20
14.99168249616704
 30
0.0
 40
0.14
100
AcDbArc
 50
0.0
 51
90.0000000000002
  0
ARC
  5
1E5
330
2
100
AcDbEntity
  8
0
100
AcDbCircle
 10
1.1875
 20
14.99168249616703
 30
0.0
 40
0.07
100
AcDbArc
 50
0.0
 51
90.0000000000002
  0
LINE
  5
1E6
330
2
100
AcDbEntity
  8
0
100
AcDbLine
 10
0.3355749999999986
 20
15.40535749616704
 30
0.0
 11
0.3355749999999986
 21
15.47535749616704
 31
0.0
  0
LINE
  5
1E7
330
2
100
AcDbEntity
  8
0
100
AcDbLine
 10
2.39807500000002
 20
15.54535749616705
 30
0.0
 11
2.39807500000002
 21
15.47535749616704
 31
0.0
  0
LINE
  5
1E8
330
2
100
AcDbEntity
  8
0
100
AcDbLine
 10
2.39807500000002
 20
15.53035749616704
 30
0.0
 11
2.39807500000002
 21
15.47535749616704
 31
0.0
  0
CIRCLE
  5
1EA
330
2
100
AcDbEntity
  8
0
100
AcDbCircle
 10
2.710575
 20
14.88975749616704
 30
0.0
 40
0.0855
  0
LINE
  5
1EB
330
2
100
AcDbEntity
  8
0
100
AcDbLine
 10
3.007575000000001
 20
15.47535749616704
 30
0.0
 11
3.331121814727821
 21
15.47535749616704
 31
0.0
  0
LINE
  5
1EC
330
2
100
AcDbEntity
  8
0
100
AcDbLine
 10
2.616775000000018
 20
15.47535749616704
 30
0.0
 11
2.616775000000018
 21
15.54535749616704
 31
0.0
  0
LINE
  5
1ED
330
2
100
AcDbEntity
  8
0
100
AcDbLine
 10
3.007575000000001
 20
15.40535749616704
 30
0.0
 11
3.007575000000001
 21
15.47535749616704
 31
0.0
  0
LINE
  5
1EE
330
2
100
AcDbEntity
  8
0
100
AcDbLine
 10
3.457428185272223
 20
15.47535749616704
 30
0.0
 11
3.554450000000001
 21
15.47535749616704
 31
0.0
  0
ARC
  5
1EF
330
2
100
AcDbEntity
  8
0
100
AcDbCircle
 10
3.42177500000002
 20
15.46785749616704
 30
0.0
 40
0.0625
100
AcDbArc
 50
194.6512525835088
 51
270.0
  0
ARC
  5
1F0
330
2
100
AcDbEntity
  8
0
100
AcDbCircle
 10
3.457428185272223
 20
15.50655749616704
 30
0.0
 40
0.0312
100
AcDbArc
 50
194.6512525835084
 51
270.0
  0
ARC
  5
1F1
330
2
100
AcDbEntity
  8
0
100
AcDbCircle
 10
3.36677500000002
 20
15.48285749616704
 30
0.0
 40
0.0625
100
AcDbArc
 50
14.65125258351059
 51
89.99999999999969
  0
ARC
  5
1F2
330
2
100
AcDbEntity
  8
0
100
AcDbCircle
 10
3.331121814727821
 20
15.44415749616704
 30
0.0
 40
0.0312
100
AcDbArc
 50
14.65125258350733
 51
90.0
  0
LINE
  5
1F3
330
2
100
AcDbEntity
  8
0
100
AcDbLine
 10
4.023024999999999
 20
15.20970749616704
 30
0.0
 11
4.023024999999999
 21
15.40535749616704
 31
0.0
  0
LINE
  5
1F4
330
2
100
AcDbEntity
  8
0
100
AcDbLine
 10
4.093650000000002
 20
14.62418249616704
 30
0.0
 11
4.093650000000002
 21
14.99168249616704
 31
0.0
  0
LINE
  5
1F5
330
2
100
AcDbEntity
  8
0
100
AcDbLine
 10
4.163649999999999
 20
14.62418249616704
 30
0.0
 11
4.163649999999999
 21
14.99168249616705
 31
0.0
  0
LINE
  5
1F6
330
2
100
AcDbEntity
  8
0
100
AcDbLine
 10
4.093650000000002
 20
14.62418249616704
 30
0.0
 11
4.163649999999999
 21
14.62418249616704
 31
0.0
  0
ARC
  5
1F7
330
2
100
AcDbEntity
  8
0
100
AcDbCircle
 10
4.233649999999999
 20
14.99168249616704
 30
0.0
 40
0.14
100
AcDbArc
 50
90.0000000000002
 51
180.0000000000002
  0
ARC
  5
1F8
330
2
100
AcDbEntity
  8
0
100
AcDbCircle
 10
3.953024999999999
 20
15.20970749616704
 30
0.0
 40
0.07
100
AcDbArc
 50
269.9999999999998
 51
0.0
  0
ARC
  5
1F9
330
2
100
AcDbEntity
  8
0
100
AcDbCircle
 10
4.233649999999999
 20
14.99168249616705
 30
0.0
 40
0.07
100
AcDbArc
 50
90.0000000000002
 51
180.0
  0
LINE
  5
1FA
330
2
100
AcDbEntity
  8
0
100
AcDbLine
 10
5.30427500000002
 20
15.47535749616704
 30
0.0
 11
5.30427500000002
 21
15.06118593482114
 31
0.0
  0
ARC
  5
1FB
330
2
100
AcDbEntity
  8
0
100
AcDbCircle
 10
5.281149999999999
 20
14.99168249616703
 30
0.0
 40
0.07
100
AcDbArc
 50
70.63517406587167
 51
90.0
  0
ARC
  5
1FC
330
2
100
AcDbEntity
  8
0
100
AcDbCircle
 10
5.374274999999999
 20
15.06118593482114
 30
0.0
 40
0.07
100
AcDbArc
 50
180.0
 51
220.2938076863661
  0
ARC
  5
1FD
330
2
100
AcDbEntity
  8
0
100
AcDbCircle
 10
5.417909363004045
 20
15.09818245893639
 30
0.0
 40
0.1272075207590416
100
AcDbArc
 50
220.2938076863661
 51
252.4218297463013
  0
ARC
  5
1FE
330
2
100
AcDbEntity
  8
0
100
AcDbCircle
 10
5.388914448266961
 20
15.00665793237828
 30
0.0
 40
0.0312
100
AcDbArc
 50
252.4218297463008
 51
7.911414716129224
  0
ARC
  5
1FF
330
2
100
AcDbEntity
  8
0
100
AcDbCircle
 10
5.281149999999999
 20
14.99168249616703
 30
0.0
 40
0.07
100
AcDbArc
 50
0.0
 51
70.63517406587167
  0
ARC
  5
200
330
2
100
AcDbEntity
  8
0
100
AcDbCircle
 10
5.281149999999999
 20
14.99168249616704
 30
0.0
 40
0.14
100
AcDbArc
 50
80.49239180042363
 51
90.00000000000364
  0
ARC
  5
201
330
2
100
AcDbEntity
  8
0
100
AcDbCircle
 10
5.281149999999999
 20
14.99168249616704
 30
0.0
 40
0.14
100
AcDbArc
 50
0.0
 51
80.49239180042363
  0
LINE
  5
202
330
2
100
AcDbEntity
  8
0
100
AcDbLine
 10
5.085573487000017
 20
15.40535749616704
 30
0.0
 11
5.085573487000017
 21
15.47535749616704
 31
0.0
  0
LINE
  5
203
330
2
100
AcDbEntity
  8
0
100
AcDbLine
 10
11.83896485413534
 20
14.96818249616704
 30
0.0
 11
11.83896485413534
 21
9.782635779395807
 31
0.0
  0
LINE
  5
204
330
2
100
AcDbEntity
  8
0
100
AcDbLine
 10
12.77646485413534
 20
9.624532496167038
 30
0.0
 11
12.77646485413533
 21
15.12418249616704
 31
0.0
  0
LINE
  5
205
330
2
100
AcDbEntity
  8
0
100
AcDbLine
 10
11.77646485413534
 20
15.28035749616704
 30
0.0
 11
11.77646485413534
 21
9.468357496167041
 31
0.0
  0
LINE
  5
206
330
2
100
AcDbEntity
  8
0
100
AcDbLine
 10
12.77646485413534
 20
10.12453249616705
 30
0.0
 11
11.93289548755698
 21
10.12453249616705
 31
0.0
  0
LINE
  5
207
330
2
100
AcDbEntity
  8
0
100
AcDbLine
 10
11.93288217409218
 20
9.624532496167042
 30
0.0
 11
12.77646485413534
 21
9.624532496167038
 31
0.0
  0
LINE
  5
208
330
2
100
AcDbEntity
  8
0
100
AcDbLine
 10
11.93288217409218
 20
9.624532496167038
 30
0.0
 11
12.77646485413534
 21
9.624532496167038
 31
0.0
  0
LINE
  5
209
330
2
100
AcDbEntity
  8
0
100
AcDbLine
 10
11.93288383827528
 20
9.687032496167038
 30
0.0
 11
12.77646485413534
 21
9.687032496167038
 31
0.0
  0
LINE
  5
20A
330
2
100
AcDbEntity
  8
0
100
AcDbLine
 10
11.93289548755698
 20
10.12453249616705
 30
0.0
 11
11.93288383827528
 21
9.687032496166751
 31
0.0
  0
LINE
  5
20B
330
2
100
AcDbEntity
  8
0
100
AcDbLine
 10
9.932764854135334
 20
9.218357496167041
 30
0.0
 11
11.87026485413534
 21
9.218357496167041
 31
0.0
  0
LINE
  5
20C
330
2
100
AcDbEntity
  8
0
100
AcDbLine
 10
9.932764854135334
 20
9.280857496167041
 30
0.0
 11
11.87026485413534
 21
9.280857496167041
 31
0.0
  0
LINE
  5
20D
330
2
100
AcDbEntity
  8
0
100
AcDbLine
 10
9.932764854135334
 20
9.343357496167041
 30
0.0
 11
11.65146485413534
 21
9.343357496167041
 31
0.0
  0
LINE
  5
20E
330
2
100
AcDbEntity
  8
0
100
AcDbLine
 10
9.932764854135334
 20
9.343357496167041
 30
0.0
 11
9.932764854135334
 21
9.218357496167041
 31
0.0
  0
LINE
  5
20F
330
2
100
AcDbEntity
  8
0
100
AcDbLine
 10
11.83896485413534
 20
9.782635779395807
 30
0.0
 11
11.83896485413534
 21
9.468357496167041
 31
0.0
  0
ARC
  5
210
330
2
100
AcDbEntity
  8
0
100
AcDbCircle
 10
11.65146485413534
 20
9.468357496167041
 30
0.0
 40
0.1875
100
AcDbArc
 50
270.0
 51
0.0
  0
ARC
  5
211
330
2
100
AcDbEntity
  8
0
100
AcDbCircle
 10
11.65146485413534
 20
9.468357496167041
 30
0.0
 40
0.125
100
AcDbArc
 50
270.0
 51
0.0
  0
LINE
  5
212
330
2
100
AcDbEntity
  8
0
100
AcDbLine
 10
11.87026485413534
 20
9.280857496167041
 30
0.0
 11
11.87026485413534
 21
9.218357496167041
 31
0.0
  0
LINE
  5
213
330
2
100
AcDbEntity
  8
0
100
AcDbLine
 10
11.93288383827528
 20
9.687032496166751
 30
0.0
 11
11.93288217409218
 21
9.624532496167046
 31
0.0
  0
ARC
  5
214
330
2
100
AcDbEntity
  8
0
100
AcDbCircle
 10
11.83768132137595
 20
9.687441038603335
 30
0.0
 40
0.0952033934841107
100
AcDbArc
 50
359.7541282055419
 51
130.0164259019329
  0
LINE
  5
215
330
2
100
AcDbEntity
  8
0
100
AcDbLine
 10
12.77646485413534
 20
14.62418249616704
 30
0.0
 11
11.93266485413534
 21
14.62418249616704
 31
0.0
  0
LINE
  5
216
330
2
100
AcDbEntity
  8
0
100
AcDbLine
 10
11.93266485413534
 20
15.12418249616704
 30
0.0
 11
12.77646485413534
 21
15.12418249616704
 31
0.0
  0
LINE
  5
217
330
2
100
AcDbEntity
  8
0
100
AcDbLine
 10
11.93266485413534
 20
15.06168249616704
 30
0.0
 11
12.77646485413534
 21
15.06168249616704
 31
0.0
  0
LINE
  5
218
330
2
100
AcDbEntity
  8
0
100
AcDbLine
 10
11.93266485413534
 20
15.12418249616704
 30
0.0
 11
12.77646485413534
 21
15.12418249616704
 31
0.0
  0
LINE
  5
219
330
2
100
AcDbEntity
  8
0
100
AcDbLine
 10
11.93266485413534
 20
15.06168249616704
 30
0.0
 11
12.77646485413534
 21
15.06168249616704
 31
0.0
  0
LINE
  5
21A
330
2
100
AcDbEntity
  8
0
100
AcDbLine
 10
9.932764854135337
 20
15.53035749616704
 30
0.0
 11
11.87026485413534
 21
15.53035749616704
 31
0.0
  0
LINE
  5
21B
330
2
100
AcDbEntity
  8
0
100
AcDbLine
 10
9.932764854135337
 20
15.46785749616704
 30
0.0
 11
11.87026485413534
 21
15.46785749616704
 31
0.0
  0
LINE
  5
21C
330
2
100
AcDbEntity
  8
0
100
AcDbLine
 10
9.932764854135337
 20
15.40535749616704
 30
0.0
 11
11.65146485413534
 21
15.40535749616704
 31
0.0
  0
LINE
  5
21D
330
2
100
AcDbEntity
  8
0
100
AcDbLine
 10
11.87026485413534
 20
15.53035749616704
 30
0.0
 11
9.932764854135337
 21
15.53035749616704
 31
0.0
  0
LINE
  5
21E
330
2
100
AcDbEntity
  8
0
100
AcDbLine
 10
9.932764854135337
 20
15.53035749616704
 30
0.0
 11
9.932764854135337
 21
15.40535749616704
 31
0.0
  0
LINE
  5
21F
330
2
100
AcDbEntity
  8
0
100
AcDbLine
 10
11.83896485413534
 20
15.28035749616704
 30
0.0
 11
11.83896485413534
 21
14.96818249616704
 31
0.0
  0
LINE
  5
220
330
2
100
AcDbEntity
  8
0
100
AcDbLine
 10
11.93266485413534
 20
15.06168249616704
 30
0.0
 11
11.93266485413534
 21
14.62418249616704
 31
0.0
  0
ARC
  5
221
330
2
100
AcDbEntity
  8
0
100
AcDbCircle
 10
11.83896485413534
 20
15.06168249616704
 30
0.0
 40
0.0935
100
AcDbArc
 50
228.0525143040154
 51
0.0
  0
LINE
  5
222
330
2
100
AcDbEntity
  8
0
100
AcDbLine
 10
11.93266485413534
 20
15.12418249616704
 30
0.0
 11
11.93266485413534
 21
15.06168249616704
 31
0.0
  0
ARC
  5
223
330
2
100
AcDbEntity
  8
0
100
AcDbCircle
 10
11.65146485413534
 20
15.28035749616704
 30
0.0
 40
0.1875
100
AcDbArc
 50
0.0
 51
90.0
  0
ARC
  5
224
330
2
100
AcDbEntity
  8
0
100
AcDbCircle
 10
11.65146485413534
 20
15.28035749616704
 30
0.0
 40
0.125
100
AcDbArc
 50
0.0
 51
90.0
  0
LINE
  5
225
330
2
100
AcDbEntity
  8
0
100
AcDbLine
 10
11.87026485413534
 20
15.53035749616704
 30
0.0
 11
11.83896485413534
 21
15.53035749616704
 31
0.0
  0
LINE
  5
226
330
2
100
AcDbEntity
  8
0
100
AcDbLine
 10
11.87026485413534
 20
15.53035749616704
 30
0.0
 11
11.87026485413534
 21
15.46785749616704
 31
0.0
  0
ENDSEC
  0
SECTION
  2
OBJECTS
  0
DICTIONARY
  5
9
330
0
100
AcDbDictionary
281
     1
  3
ACAD_COLOR
350
22E
  3
ACAD_GROUP
350
23
  3
ACAD_LAYOUT
350
D
  3
ACAD_MATERIAL
350
22D
  3
ACAD_MLINESTYLE
350
24
  3
ACAD_PLOTSETTINGS
350
25
  3
ACAD_PLOTSTYLENAME
350
8
  3
ACAD_TABLESTYLE
350
22F
  3
ACDBHEADERROUNDTRIPXREC
350
23C
  3
AcDbVariableDictionary
350
134
  0
DICTIONARY
  5
22E
102
{ACAD_REACTORS
330
9
102
}
330
9
100
AcDbDictionary
281
     1
  0
DICTIONARY
  5
23
102
{ACAD_REACTORS
330
9
102
}
330
9
100
AcDbDictionary
281
     1
  0
DICTIONARY
  5
D
102
{ACAD_REACTORS
330
9
102
}
330
9
100
AcDbDictionary
281
     1
  3
Layout1
350
13
  3
Model
350
C
  0
DICTIONARY
  5
22D
102
{ACAD_REACTORS
330
9
102
}
330
9
100
AcDbDictionary
281
     1
  0
DICTIONARY
  5
24
102
{ACAD_REACTORS
330
9
102
}
330
9
100
AcDbDictionary
281
     1
  3
STANDARD
350
27
  0
DICTIONARY
  5
25
102
{ACAD_REACTORS
330
9
102
}
330
9
100
AcDbDictionary
281
     1
  0
ACDBDICTIONARYWDFLT
  5
8
102
{ACAD_REACTORS
330
9
102
}
330
9
100
AcDbDictionary
281
     1
  3
Normal
350
7
100
AcDbDictionaryWithDefault
340
7
  0
DICTIONARY
  5
22F
102
{ACAD_REACTORS
330
9
102
}
330
9
100
AcDbDictionary
281
     1
  3
Standard
350
230
  0
DICTIONARY
  5
23C
102
{ACAD_REACTORS
330
9
102
}
330
9
100
AcDbDictionary
281
     1
  3
COLORDICT
350
23D
  3
MATERIALDICT
350
23E
  0
DICTIONARY
  5
134
102
{ACAD_REACTORS
330
9
102
}
330
9
100
AcDbDictionary
281
     1
  3
CTABLESTYLE
350
239
  3
HIDETEXT
350
23B
  0
LAYOUT
  5
13
102
{ACAD_REACTORS
330
D
102
}
102
{ACAD_XDICTIONARY
360
23F
102
}
330
D
100
AcDbPlotSettings
  1

  2
HP LaserJet 2100 Series PS
  4

  6

 40
0.0
 41
0.0
 42
0.0
 43
0.0
 44
0.0
 45
0.0
 46
0.0
 47
0.0
 48
0.0
 49
0.0
140
0.0
141
0.0
142
1.0
143
1.0
 70
   688
 72
     0
 73
     0
 74
     5
  7

 75
    16
147
1.0
148
0.0
149
0.0
100
AcDbLayout
  1
Layout1
 70
     0
 71
     1
 10
0.0
 20
0.0
 11
12.0
 21
9.0
 12
0.0
 22
0.0
 32
0.0
 14
1.000000000000000E+20
 24
1.000000000000000E+20
 34
1.000000000000000E+20
 15
-1.000000000000000E+20
 25
-1.000000000000000E+20
 35
-1.000000000000000E+20
146
0.0
 13
0.0
 23
0.0
 33
0.0
 16
1.0
 26
0.0
 36
0.0
 17
0.0
 27
1.0
 37
0.0
 76
     0
330
E
  0
LAYOUT
  5
C
102
{ACAD_REACTORS
330
D
102
}
102
{ACAD_XDICTIONARY
360
241
102
}
330
D
100
AcDbPlotSettings
  1

  2
HP LaserJet 2100 Series PS
  4
Letter
  6

 40
5.365749835968018
 41
5.408084392547607
 42
5.4080810546875
 43
5.365753173828125
 44
215.8999938964844
 45
279.3999938964844
 46
0.0
 47
0.0
 48
0.0
 49
0.0
140
0.0
141
0.0
142
1.0
143
2.482074006153913
 70
 28336
 72
     0
 73
     0
 74
     2
  7

 75
     0
147
0.4028888733859896
148
0.0
149
0.0
100
AcDbLayout
  1
Model
 70
     1
 71
     0
 10
0.0
 20
0.0
 11
12.0
 21
9.0
 12
0.0
 22
0.0
 32
0.0
 14
0.0
 24
0.0
 34
0.0
 15
0.0
 25
0.0
 35
0.0
146
0.0
 13
0.0
 23
0.0
 33
0.0
 16
1.0
 26
0.0
 36
0.0
 17
0.0
 27
1.0
 37
0.0
 76
     0
330
2
  0
MLINESTYLE
  5
27
102
{ACAD_REACTORS
330
24
102
}
330
24
100
AcDbMlineStyle
  2
STANDARD
 70
     0
  3

 62
   256
 51
90.0
 52
90.0
 71
     2
 49
0.5
 62
   256
  6
BYLAYER
 49
-0.5
 62
   256
  6
BYLAYER
  0
ACDBPLACEHOLDER
  5
7
102
{ACAD_REACTORS
330
8
102
}
330
8
  0
ACAD_PROXY_OBJECT
  5
230
102
{ACAD_REACTORS
330
22F
102
}
330
22F
100
AcDbProxyObject
 90
      499
 91
      517
 95
   983063
 70
     0
 93
     1841
310
4214DD185B99185C9928B81E85EB51B8AE3F2E07A17AD46E2B8FC02B5E8DC0F42B1CFD028000000C1008070000C3001FDFF8000000C1003FBFF000000182007F7FE00000030400FEFFC00000060801FDFF8000000C1003FBFF00000018200000000000000681FA0B0000001820100E000186003FBFF000000182007F7FE000
310
00030400FEFFC00000060801FDFF8000000C1003FBFF000000182007F7FE000000304000AD7A3703D0AC73F4160000003040201C00030C007F7FE00000030400FEFFC00000060801FDFF8000000C1003FBFF000000182007F7FE00000030400FEFFC000000608000
340
16
340
16
340
16
 94
        0
  0
XRECORD
  5
23D
102
{ACAD_REACTORS
330
23C
102
}
330
23C
100
AcDbXrecord
340
22E
  0
XRECORD
  5
23E
102
{ACAD_REACTORS
330
23C
102
}
330
23C
100
AcDbXrecord
340
22D
  0
DICTIONARYVAR
  5
239
102
{ACAD_REACTORS
330
134
102
}
330
134
100
DictionaryVariables
280
     0
  1
STANDARD
  0
DICTIONARYVAR
  5
23B
102
{ACAD_REACTORS
330
134
102
}
330
134
100
DictionaryVariables
280
     0
  1
0
  0
DICTIONARY
  5
23F
330
13
100
AcDbDictionary
280
     1
281
     1
  3
ACAD_XREC_ROUNDTRIP
360
240
  0
DICTIONARY
  5
241
330
C
100
AcDbDictionary
280
     1
281
     1
  3
ACAD_XREC_ROUNDTRIP
360
242
  0
XRECORD
  5
240
102
{ACAD_REACTORS
330
23F
102
}
330
23F
100
AcDbXrecord
102
SHADEPLOT
 70
     0
102
SHADEPLOTRESLEVEL
 70
     2
102
SHADEPLOTCUSTOMDPI
 70
   300
  0
XRECORD
  5
242
102
{ACAD_REACTORS
330
241
102
}
330
241
100
AcDbXrecord
102
SHADEPLOT
 70
     0
102
SHADEPLOTRESLEVEL
 70
     2
102
SHADEPLOTCUSTOMDPI
 70
   300
  0
ENDSEC
  0
EOF
