  0
SECTION
  2
HEADER
  9
$ACADVER
  1
AC1015
  9
$ACADMAINTVER
 70
    20
  9
$DWGCODEPAGE
  3
ANSI_1252
  9
$INSBASE
 10
0.0
 20
0.0
 30
0.0
  9
$EXTMIN
 10
0.4999999999999984
 20
0.4999999999999984
 30
0.0
  9
$EXTMAX
 10
21.5
 20
16.49999999999999
 30
0.0
  9
$LIMMIN
 10
0.0
 20
0.0
  9
$LIMMAX
 10
22.0
 20
17.0
  9
$ORTHOMODE
 70
     0
  9
$REGENMODE
 70
     1
  9
$FILLMODE
 70
     1
  9
$QTEXTMODE
 70
     0
  9
$MIRRTEXT
 70
     0
  9
$LTSCALE
 40
1.0
  9
$ATTMODE
 70
     1
  9
$TEXTSIZE
 40
0.2
  9
$TRACEWID
 40
0.05
  9
$TEXTSTYLE
  7
Standard
  9
$CLAYER
  8
0
  9
$CELTYPE
  6
ByLayer
  9
$CECOLOR
 62
   256
  9
$CELTSCALE
 40
1.0
  9
$DISPSILH
 70
     0
  9
$DIMSCALE
 40
1.0
  9
$DIMASZ
 40
0.0708661417322835
  9
$DIMEXO
 40
0.0625
  9
$DIMDLI
 40
0.38
  9
$DIMRND
 40
0.0
  9
$DIMDLE
 40
0.0
  9
$DIMEXE
 40
0.18
  9
$DIMTP
 40
0.0
  9
$DIMTM
 40
0.0
  9
$DIMTXT
 40
0.0708661417322835
  9
$DIMCEN
 40
0.09
  9
$DIMTSZ
 40
0.0
  9
$DIMTOL
 70
     0
  9
$DIMLIM
 70
     0
  9
$DIMTIH
 70
     1
  9
$DIMTOH
 70
     1
  9
$DIMSE1
 70
     0
  9
$DIMSE2
 70
     0
  9
$DIMTAD
 70
     0
  9
$DIMZIN
 70
     0
  9
$DIMBLK
  1

  9
$DIMASO
 70
     1
  9
$DIMSHO
 70
     1
  9
$DIMPOST
  1

  9
$DIMAPOST
  1

  9
$DIMALT
 70
     0
  9
$DIMALTD
 70
     2
  9
$DIMALTF
 40
25.4
  9
$DIMLFAC
 40
1.0
  9
$DIMTOFL
 70
     0
  9
$DIMTVP
 40
0.0
  9
$DIMTIX
 70
     0
  9
$DIMSOXD
 70
     0
  9
$DIMSAH
 70
     0
  9
$DIMBLK1
  1

  9
$DIMBLK2
  1

  9
$DIMSTYLE
  2
Standard
  9
$DIMCLRD
 70
     0
  9
$DIMCLRE
 70
     0
  9
$DIMCLRT
 70
     0
  9
$DIMTFAC
 40
1.0
  9
$DIMGAP
 40
0.09
  9
$DIMJUST
 70
     0
  9
$DIMSD1
 70
     0
  9
$DIMSD2
 70
     0
  9
$DIMTOLJ
 70
     1
  9
$DIMTZIN
 70
     0
  9
$DIMALTZ
 70
     0
  9
$DIMALTTZ
 70
     0
  9
$DIMUPT
 70
     0
  9
$DIMDEC
 70
     4
  9
$DIMTDEC
 70
     4
  9
$DIMALTU
 70
     2
  9
$DIMALTTD
 70
     2
  9
$DIMTXSTY
  7
Standard
  9
$DIMAUNIT
 70
     0
  9
$DIMADEC
 70
     0
  9
$DIMALTRND
 40
0.0
  9
$DIMAZIN
 70
     0
  9
$DIMDSEP
 70
    46
  9
$DIMATFIT
 70
     3
  9
$DIMFRAC
 70
     0
  9
$DIMLDRBLK
  1

  9
$DIMLUNIT
 70
     2
  9
$DIMLWD
 70
    -2
  9
$DIMLWE
 70
    -2
  9
$DIMTMOVE
 70
     0
  9
$LUNITS
 70
     2
  9
$LUPREC
 70
     4
  9
$SKETCHINC
 40
0.1
  9
$FILLETRAD
 40
0.0
  9
$AUNITS
 70
     0
  9
$AUPREC
 70
     0
  9
$MENU
  1
.
  9
$ELEVATION
 40
0.0
  9
$PELEVATION
 40
0.0
  9
$THICKNESS
 40
0.0
  9
$LIMCHECK
 70
     0
  9
$CHAMFERA
 40
0.0
  9
$CHAMFERB
 40
0.0
  9
$CHAMFERC
 40
0.0
  9
$CHAMFERD
 40
0.0
  9
$SKPOLY
 70
     0
  9
$TDCREATE
 40
2456240.497128183
  9
$TDUCREATE
 40
2456240.830461516
  9
$TDUPDATE
 40
2456240.522565197
  9
$TDUUPDATE
 40
2456240.855898530
  9
$TDINDWG
 40
0.0011163079
  9
$TDUSRTIMER
 40
0.0011163079
  9
$USRTIMER
 70
     1
  9
$ANGBASE
 50
0.0
  9
$ANGDIR
 70
     0
  9
$PDMODE
 70
     0
  9
$PDSIZE
 40
0.0
  9
$PLINEWID
 40
0.0
  9
$SPLFRAME
 70
     0
  9
$SPLINETYPE
 70
     6
  9
$SPLINESEGS
 70
     8
  9
$HANDSEED
  5
275
  9
$SURFTAB1
 70
     6
  9
$SURFTAB2
 70
     6
  9
$SURFTYPE
 70
     6
  9
$SURFU
 70
     6
  9
$SURFV
 70
     6
  9
$UCSBASE
  2

  9
$UCSNAME
  2

  9
$UCSORG
 10
0.0
 20
0.0
 30
0.0
  9
$UCSXDIR
 10
1.0
 20
0.0
 30
0.0
  9
$UCSYDIR
 10
0.0
 20
1.0
 30
0.0
  9
$UCSORTHOREF
  2

  9
$UCSORTHOVIEW
 70
     0
  9
$UCSORGTOP
 10
0.0
 20
0.0
 30
0.0
  9
$UCSORGBOTTOM
 10
0.0
 20
0.0
 30
0.0
  9
$UCSORGLEFT
 10
0.0
 20
0.0
 30
0.0
  9
$UCSORGRIGHT
 10
0.0
 20
0.0
 30
0.0
  9
$UCSORGFRONT
 10
0.0
 20
0.0
 30
0.0
  9
$UCSORGBACK
 10
0.0
 20
0.0
 30
0.0
  9
$PUCSBASE
  2

  9
$PUCSNAME
  2

  9
$PUCSORG
 10
0.0
 20
0.0
 30
0.0
  9
$PUCSXDIR
 10
1.0
 20
0.0
 30
0.0
  9
$PUCSYDIR
 10
0.0
 20
1.0
 30
0.0
  9
$PUCSORTHOREF
  2

  9
$PUCSORTHOVIEW
 70
     0
  9
$PUCSORGTOP
 10
0.0
 20
0.0
 30
0.0
  9
$PUCSORGBOTTOM
 10
0.0
 20
0.0
 30
0.0
  9
$PUCSORGLEFT
 10
0.0
 20
0.0
 30
0.0
  9
$PUCSORGRIGHT
 10
0.0
 20
0.0
 30
0.0
  9
$PUCSORGFRONT
 10
0.0
 20
0.0
 30
0.0
  9
$PUCSORGBACK
 10
0.0
 20
0.0
 30
0.0
  9
$USERI1
 70
     0
  9
$USERI2
 70
     0
  9
$USERI3
 70
     0
  9
$USERI4
 70
     0
  9
$USERI5
 70
     0
  9
$USERR1
 40
0.0
  9
$USERR2
 40
0.0
  9
$USERR3
 40
0.0
  9
$USERR4
 40
0.0
  9
$USERR5
 40
0.0
  9
$WORLDVIEW
 70
     1
  9
$SHADEDGE
 70
     3
  9
$SHADEDIF
 70
    70
  9
$TILEMODE
 70
     1
  9
$MAXACTVP
 70
    64
  9
$PINSBASE
 10
0.0
 20
0.0
 30
0.0
  9
$PLIMCHECK
 70
     0
  9
$PEXTMIN
 10
0.0
 20
0.0
 30
0.0
  9
$PEXTMAX
 10
22.0
 20
17.0
 30
0.0
  9
$PLIMMIN
 10
0.0
 20
0.0
  9
$PLIMMAX
 10
22.0
 20
17.0
  9
$UNITMODE
 70
     0
  9
$VISRETAIN
 70
     1
  9
$PLINEGEN
 70
     0
  9
$PSLTSCALE
 70
     1
  9
$TREEDEPTH
 70
  3020
  9
$CMLSTYLE
  2
Standard
  9
$CMLJUST
 70
     0
  9
$CMLSCALE
 40
1.0
  9
$PROXYGRAPHICS
 70
     1
  9
$MEASUREMENT
 70
     0
  9
$CELWEIGHT
370
    -1
  9
$ENDCAPS
280
     0
  9
$JOINSTYLE
280
     0
  9
$LWDISPLAY
290
     0
  9
$INSUNITS
 70
     1
  9
$HYPERLINKBASE
  1

  9
$STYLESHEET
  1

  9
$XEDIT
290
     1
  9
$CEPSNTYPE
380
     0
  9
$PSTYLEMODE
290
     1
  9
$FINGERPRINTGUID
  2
{355D776D-813E-4885-B09A-A2B5DE4EDF4A}
  9
$VERSIONGUID
  2
{1070C1D5-8B1F-4B03-90A2-2B61C8154D98}
  9
$EXTNAMES
290
     1
  9
$PSVPSCALE
 40
0.0
  9
$OLESTARTUP
290
     0
  0
ENDSEC
  0
SECTION
  2
CLASSES
  0
CLASS
  1
ACDBDICTIONARYWDFLT
  2
AcDbDictionaryWithDefault
  3
ObjectDBX Classes
 90
        0
280
     0
281
     0
  0
CLASS
  1
MATERIAL
  2
AcDbMaterial
  3
ObjectDBX Classes
 90
     1153
280
     0
281
     0
  0
CLASS
  1
VISUALSTYLE
  2
AcDbVisualStyle
  3
ObjectDBX Classes
 90
     4095
280
     0
281
     0
  0
CLASS
  1
SCALE
  2
AcDbScale
  3
ObjectDBX Classes
 90
     1153
280
     0
281
     0
  0
CLASS
  1
TABLESTYLE
  2
AcDbTableStyle
  3
ObjectDBX Classes
 90
     4095
280
     0
281
     0
  0
CLASS
  1
MLEADERSTYLE
  2
AcDbMLeaderStyle
  3
ACDB_MLEADERSTYLE_CLASS
 90
     4095
280
     0
281
     0
  0
CLASS
  1
DICTIONARYVAR
  2
AcDbDictionaryVar
  3
ObjectDBX Classes
 90
        0
280
     0
281
     0
  0
CLASS
  1
CELLSTYLEMAP
  2
AcDbCellStyleMap
  3
ObjectDBX Classes
 90
     1152
280
     0
281
     0
  0
CLASS
  1
ACDBPLACEHOLDER
  2
AcDbPlaceHolder
  3
ObjectDBX Classes
 90
        0
280
     0
281
     0
  0
CLASS
  1
LAYOUT
  2
AcDbLayout
  3
ObjectDBX Classes
 90
        0
280
     0
281
     0
  0
ENDSEC
  0
SECTION
  2
TABLES
  0
TABLE
  2
VPORT
  5
8
102
{ACAD_XDICTIONARY
360
1E7
102
}
330
0
100
AcDbSymbolTable
 70
     1
  0
VPORT
  5
57
330
8
100
AcDbSymbolTableRecord
100
AcDbViewportTableRecord
  2
*Active
 70
     0
 10
0.0
 20
0.0
 11
1.0
 21
1.0
 12
18.14834437086092
 22
8.5
 13
0.0
 23
0.0
 14
1.0
 24
1.0
 15
0.0
 25
0.0
 16
0.0
 26
0.0
 36
1.0
 17
0.0
 27
0.0
 37
0.0
 40
17.01219993540789
 41
2.135099337748344
 42
50.0
 43
0.0
 44
0.0
 50
0.0
 51
0.0
 71
     0
 72
   100
 73
     1
 74
     1
 75
     0
 76
     0
 77
     0
 78
     0
281
     0
 65
     1
110
0.0
120
0.0
130
0.0
111
1.0
121
0.0
131
0.0
112
0.0
122
1.0
132
0.0
 79
     0
146
0.0
1001
ACAD_NAV_VCDISPLAY
1070
     3
  0
ENDTAB
  0
TABLE
  2
LTYPE
  5
5
330
0
100
AcDbSymbolTable
 70
    59
  0
LTYPE
  5
5B
330
5
100
AcDbSymbolTableRecord
100
AcDbLinetypeTableRecord
  2
ByBlock
 70
     0
  3

 72
    65
 73
     0
 40
0.0
  0
LTYPE
  5
5C
330
5
100
AcDbSymbolTableRecord
100
AcDbLinetypeTableRecord
  2
ByLayer
 70
     0
  3

 72
    65
 73
     0
 40
0.0
  0
LTYPE
  5
5D
330
5
100
AcDbSymbolTableRecord
100
AcDbLinetypeTableRecord
  2
Continuous
 70
     0
  3
Solid line
 72
    65
 73
     0
 40
0.0
  0
LTYPE
  5
7C
330
5
100
AcDbSymbolTableRecord
100
AcDbLinetypeTableRecord
  2
BY_STANDARD
 70
     0
  3
By Standard ____________    ____    ____   _
 72
    65
 73
     6
 40
1.240299999999999
 49
0.6614
 74
     0
 49
-0.0827
 74
     0
 49
0.1654
 74
     0
 49
-0.0827
 74
     0
 49
0.1654
 74
     0
 49
-0.0827
 74
     0
  0
LTYPE
  5
7D
330
5
100
AcDbSymbolTableRecord
100
AcDbLinetypeTableRecord
  2
CHAIN
 70
     0
  3
Chain ____ _ ____ _ ____ _ ____ _ ____ _ ____
 72
    65
 73
     4
 40
0.7087
 49
0.4724000000000001
 74
     0
 49
-0.0591
 74
     0
 49
0.1181
 74
     0
 49
-0.0591
 74
     0
  0
LTYPE
  5
7E
330
5
100
AcDbSymbolTableRecord
100
AcDbLinetypeTableRecord
  2
DASH_DOT
 70
     0
  3
Dash dot __ . __ . __ . __ . __ . __ . __ . __
 72
    65
 73
     4
 40
0.37
 49
0.24
 74
     0
 49
-0.06
 74
     0
 49
0.01
 74
     0
 49
-0.06
 74
     0
  0
LTYPE
  5
7F
330
5
100
AcDbSymbolTableRecord
100
AcDbLinetypeTableRecord
  2
DOUBLE_DASH_DOT
 70
     0
  3
Double-Dash Dot __ __ . __ __ . __ __ . __ _
 72
    65
 73
     6
 40
0.4398
 49
0.24
 74
     0
 49
-0.06
 74
     0
 49
0.0098
 74
     0
 49
-0.06
 74
     0
 49
0.01
 74
     0
 49
-0.06
 74
     0
  0
LTYPE
  5
80
330
5
100
AcDbSymbolTableRecord
100
AcDbLinetypeTableRecord
  2
DASH_TRIPLE_DOT
 70
     0
  3
Dash Triple-Dot _ . . . _ . . . _ . . . _
 72
    65
 73
     8
 40
0.51
 49
0.24
 74
     0
 49
-0.06
 74
     0
 49
0.01
 74
     0
 49
-0.06
 74
     0
 49
0.01
 74
     0
 49
-0.06
 74
     0
 49
0.01
 74
     0
 49
-0.06
 74
     0
  0
LTYPE
  5
81
330
5
100
AcDbSymbolTableRecord
100
AcDbLinetypeTableRecord
  2
DASHED
 70
     0
  3
Dashed __ __ __ __ __ __ __ __ __ __ __ __ __ _
 72
    65
 73
     2
 40
0.2067
 49
0.1654
 74
     0
 49
-0.0413
 74
     0
  0
LTYPE
  5
82
330
5
100
AcDbSymbolTableRecord
100
AcDbLinetypeTableRecord
  2
DASH_DOUBLE_DOT
 70
     0
  3
Dash Double-Dot __ . . __ . . __ . . __ . .
 72
    65
 73
     6
 40
0.4398
 49
0.24
 74
     0
 49
-0.06
 74
     0
 49
0.0098
 74
     0
 49
-0.06
 74
     0
 49
0.01
 74
     0
 49
-0.06
 74
     0
  0
LTYPE
  5
83
330
5
100
AcDbSymbolTableRecord
100
AcDbLinetypeTableRecord
  2
DASHED_SPACE
 70
     0
  3
Dashed Space __ __ __ __ __ __ __ __ __ __ __ _
 72
    65
 73
     2
 40
0.2067
 49
0.1654
 74
     0
 49
-0.0413
 74
     0
  0
LTYPE
  5
84
330
5
100
AcDbSymbolTableRecord
100
AcDbLinetypeTableRecord
  2
DOTTED
 70
     0
  3
Dotted . . . . . . . . . . . . . . . . . . . . 
 72
    65
 73
     2
 40
0.0482
 49
0.0069
 74
     0
 49
-0.0413
 74
     0
  0
LTYPE
  5
85
330
5
100
AcDbSymbolTableRecord
100
AcDbLinetypeTableRecord
  2
DOUBLE_DASH_CHAIN
 70
     0
  3
Double-Dash Chain ______  __  __  ______  __  _
 72
    65
 73
     6
 40
1.240299999999999
 49
0.6614
 74
     0
 49
-0.0827
 74
     0
 49
0.1654
 74
     0
 49
-0.0827
 74
     0
 49
0.1654
 74
     0
 49
-0.0827
 74
     0
  0
LTYPE
  5
87
330
5
100
AcDbSymbolTableRecord
100
AcDbLinetypeTableRecord
  2
DOUBLE_DASH_DOUBLE_DOT
 70
     0
  3
Double-Dash Double-dot _ _ . . _ _ . . _
 72
    65
 73
     8
 40
0.7400000000000001
 49
0.24
 74
     0
 49
-0.06
 74
     0
 49
0.24
 74
     0
 49
-0.06
 74
     0
 49
0.01
 74
     0
 49
-0.06
 74
     0
 49
0.01
 74
     0
 49
-0.06
 74
     0
  0
LTYPE
  5
88
330
5
100
AcDbSymbolTableRecord
100
AcDbLinetypeTableRecord
  2
DOUBLE_DASH_TRIPLE_DOT
 70
     0
  3
Double Dash Triple Dot __ __ . . . __ __ . .
 72
    65
 73
    10
 40
0.8100000000000001
 49
0.24
 74
     0
 49
-0.06
 74
     0
 49
0.24
 74
     0
 49
-0.06
 74
     0
 49
0.01
 74
     0
 49
-0.06
 74
     0
 49
0.01
 74
     0
 49
-0.06
 74
     0
 49
0.01
 74
     0
 49
-0.06
 74
     0
  0
LTYPE
  5
89
330
5
100
AcDbSymbolTableRecord
100
AcDbLinetypeTableRecord
  2
LONG_DASH_DOTTED
 70
     0
  3
Long Dash Dotted ____ . ____ . ____ . ____ . _
 72
    65
 73
     4
 40
0.3543
 49
0.2362
 74
     0
 49
-0.0295
 74
     0
 49
0.0591
 74
     0
 49
-0.0295
 74
     0
  0
LTYPE
  5
8A
330
5
100
AcDbSymbolTableRecord
100
AcDbLinetypeTableRecord
  2
LONG_DASH_DOUBLE_DOT
 70
     0
  3
Long Dash Double Dot ________  .  .  ________  
 72
    65
 73
     6
 40
0.6799999999999999
 49
0.48
 74
     0
 49
-0.06
 74
     0
 49
0.01
 74
     0
 49
-0.06
 74
     0
 49
0.01
 74
     0
 49
-0.06
 74
     0
  0
LTYPE
  5
8B
330
5
100
AcDbSymbolTableRecord
100
AcDbLinetypeTableRecord
  2
LONG_DASH_TRIPLE_DOT
 70
     0
  3
Long Dash Triple Dot ____ ... ____ ... ____
 72
    65
 73
     8
 40
0.3689
 49
0.2362
 74
     0
 49
-0.0295
 74
     0
 49
0.0049
 74
     0
 49
-0.0295
 74
     0
 49
0.0049
 74
     0
 49
-0.0295
 74
     0
 49
0.0049
 74
     0
 49
-0.0295
 74
     0
  0
LTYPE
  5
8C
330
5
100
AcDbSymbolTableRecord
100
AcDbLinetypeTableRecord
  2
BORDER
 70
     0
  3
Border __ __ . __ __ . __ __ . __ __ . __ __ .
 72
    65
 73
     6
 40
1.75
 49
0.5
 74
     0
 49
-0.25
 74
     0
 49
0.5
 74
     0
 49
-0.25
 74
     0
 49
0.0
 74
     0
 49
-0.25
 74
     0
  0
LTYPE
  5
8D
330
5
100
AcDbSymbolTableRecord
100
AcDbLinetypeTableRecord
  2
BORDER2
 70
     0
  3
Border (.5x) __.__.__.__.__.__.__.__.__.__.__.
 72
    65
 73
     6
 40
0.875
 49
0.25
 74
     0
 49
-0.125
 74
     0
 49
0.25
 74
     0
 49
-0.125
 74
     0
 49
0.0
 74
     0
 49
-0.125
 74
     0
  0
LTYPE
  5
8E
330
5
100
AcDbSymbolTableRecord
100
AcDbLinetypeTableRecord
  2
BORDERX2
 70
     0
  3
Border (2x) ____  ____  .  ____  ____  .  ___
 72
    65
 73
     6
 40
3.5
 49
1.0
 74
     0
 49
-0.5
 74
     0
 49
1.0
 74
     0
 49
-0.5
 74
     0
 49
0.0
 74
     0
 49
-0.5
 74
     0
  0
LTYPE
  5
8F
330
5
100
AcDbSymbolTableRecord
100
AcDbLinetypeTableRecord
  2
CENTER
 70
     0
  3
Center ____ _ ____ _ ____ _ ____ _ ____ _ ____
 72
    65
 73
     4
 40
2.0
 49
1.25
 74
     0
 49
-0.25
 74
     0
 49
0.25
 74
     0
 49
-0.25
 74
     0
  0
LTYPE
  5
90
330
5
100
AcDbSymbolTableRecord
100
AcDbLinetypeTableRecord
  2
CENTER2
 70
     0
  3
Center (.5x) ___ _ ___ _ ___ _ ___ _ ___ _ ___
 72
    65
 73
     4
 40
1.125
 49
0.75
 74
     0
 49
-0.125
 74
     0
 49
0.125
 74
     0
 49
-0.125
 74
     0
  0
LTYPE
  5
91
330
5
100
AcDbSymbolTableRecord
100
AcDbLinetypeTableRecord
  2
CENTERX2
 70
     0
  3
Center (2x) ________  __  ________  __  _____
 72
    65
 73
     4
 40
4.0
 49
2.5
 74
     0
 49
-0.5
 74
     0
 49
0.5
 74
     0
 49
-0.5
 74
     0
  0
LTYPE
  5
92
330
5
100
AcDbSymbolTableRecord
100
AcDbLinetypeTableRecord
  2
DASHDOT2
 70
     0
  3
Dash dot (.5x) _._._._._._._._._._._._._._._.
 72
    65
 73
     4
 40
0.5
 49
0.25
 74
     0
 49
-0.125
 74
     0
 49
0.0
 74
     0
 49
-0.125
 74
     0
  0
LTYPE
  5
93
330
5
100
AcDbSymbolTableRecord
100
AcDbLinetypeTableRecord
  2
DASHDOTX2
 70
     0
  3
Dash dot (2x) ____  .  ____  .  ____  .  ___
 72
    65
 73
     4
 40
2.0
 49
1.0
 74
     0
 49
-0.5
 74
     0
 49
0.0
 74
     0
 49
-0.5
 74
     0
  0
LTYPE
  5
95
330
5
100
AcDbSymbolTableRecord
100
AcDbLinetypeTableRecord
  2
DASHED2
 70
     0
  3
Dashed (.5x) _ _ _ _ _ _ _ _ _ _ _ _ _ _ _ _ _
 72
    65
 73
     2
 40
0.375
 49
0.25
 74
     0
 49
-0.125
 74
     0
  0
LTYPE
  5
96
330
5
100
AcDbSymbolTableRecord
100
AcDbLinetypeTableRecord
  2
DASHEDX2
 70
     0
  3
Dashed (2x) ____  ____  ____  ____  ____  ___
 72
    65
 73
     2
 40
1.5
 49
1.0
 74
     0
 49
-0.5
 74
     0
  0
LTYPE
  5
97
330
5
100
AcDbSymbolTableRecord
100
AcDbLinetypeTableRecord
  2
DIVIDE
 70
     0
  3
Divide ____ . . ____ . . ____ . . ____ . . ____
 72
    65
 73
     6
 40
1.25
 49
0.5
 74
     0
 49
-0.25
 74
     0
 49
0.0
 74
     0
 49
-0.25
 74
     0
 49
0.0
 74
     0
 49
-0.25
 74
     0
  0
LTYPE
  5
98
330
5
100
AcDbSymbolTableRecord
100
AcDbLinetypeTableRecord
  2
DIVIDE2
 70
     0
  3
Divide (.5x) __..__..__..__..__..__..__..__.._
 72
    65
 73
     6
 40
0.625
 49
0.25
 74
     0
 49
-0.125
 74
     0
 49
0.0
 74
     0
 49
-0.125
 74
     0
 49
0.0
 74
     0
 49
-0.125
 74
     0
  0
LTYPE
  5
99
330
5
100
AcDbSymbolTableRecord
100
AcDbLinetypeTableRecord
  2
DIVIDEX2
 70
     0
  3
Divide (2x) ________  .  .  ________  .  .  _
 72
    65
 73
     6
 40
2.5
 49
1.0
 74
     0
 49
-0.5
 74
     0
 49
0.0
 74
     0
 49
-0.5
 74
     0
 49
0.0
 74
     0
 49
-0.5
 74
     0
  0
LTYPE
  5
9A
330
5
100
AcDbSymbolTableRecord
100
AcDbLinetypeTableRecord
  2
DOT
 70
     0
  3
Dot . . . . . . . . . . . . . . . . . . . . . .
 72
    65
 73
     2
 40
0.25
 49
0.0
 74
     0
 49
-0.25
 74
     0
  0
LTYPE
  5
9B
330
5
100
AcDbSymbolTableRecord
100
AcDbLinetypeTableRecord
  2
DOT2
 70
     0
  3
Dot (.5x) .....................................
 72
    65
 73
     2
 40
0.125
 49
0.0
 74
     0
 49
-0.125
 74
     0
  0
LTYPE
  5
9C
330
5
100
AcDbSymbolTableRecord
100
AcDbLinetypeTableRecord
  2
DOTX2
 70
     0
  3
Dot (2x) .  .  .  .  .  .  .  .  .  .  .  .  . 
 72
    65
 73
     2
 40
0.5
 49
0.0
 74
     0
 49
-0.5
 74
     0
  0
LTYPE
  5
9D
330
5
100
AcDbSymbolTableRecord
100
AcDbLinetypeTableRecord
  2
HIDDEN
 70
     0
  3
Hidden __ __ __ __ __ __ __ __ __ __ __ __ __ _
 72
    65
 73
     2
 40
0.375
 49
0.25
 74
     0
 49
-0.125
 74
     0
  0
LTYPE
  5
9E
330
5
100
AcDbSymbolTableRecord
100
AcDbLinetypeTableRecord
  2
HIDDEN2
 70
     0
  3
Hidden (.5x) _ _ _ _ _ _ _ _ _ _ _ _ _ _ _ _ _
 72
    65
 73
     2
 40
0.1875
 49
0.125
 74
     0
 49
-0.0625
 74
     0
  0
LTYPE
  5
9F
330
5
100
AcDbSymbolTableRecord
100
AcDbLinetypeTableRecord
  2
HIDDENX2
 70
     0
  3
Hidden (2x) ____ ____ ____ ____ ____ ____ ____
 72
    65
 73
     2
 40
0.75
 49
0.5
 74
     0
 49
-0.25
 74
     0
  0
LTYPE
  5
A0
330
5
100
AcDbSymbolTableRecord
100
AcDbLinetypeTableRecord
  2
PHANTOM
 70
     0
  3
Phantom ______  __  __  ______  __  __  ______
 72
    65
 73
     6
 40
2.5
 49
1.25
 74
     0
 49
-0.25
 74
     0
 49
0.25
 74
     0
 49
-0.25
 74
     0
 49
0.25
 74
     0
 49
-0.25
 74
     0
  0
LTYPE
  5
A1
330
5
100
AcDbSymbolTableRecord
100
AcDbLinetypeTableRecord
  2
PHANTOM2
 70
     0
  3
Phantom (.5x) ___ _ _ ___ _ _ ___ _ _ ___ _ _
 72
    65
 73
     6
 40
1.25
 49
0.625
 74
     0
 49
-0.125
 74
     0
 49
0.125
 74
     0
 49
-0.125
 74
     0
 49
0.125
 74
     0
 49
-0.125
 74
     0
  0
LTYPE
  5
A2
330
5
100
AcDbSymbolTableRecord
100
AcDbLinetypeTableRecord
  2
PHANTOMX2
 70
     0
  3
Phantom (2x) ____________    ____    ____   _
 72
    65
 73
     6
 40
5.0
 49
2.5
 74
     0
 49
-0.5
 74
     0
 49
0.5
 74
     0
 49
-0.5
 74
     0
 49
0.5
 74
     0
 49
-0.5
 74
     0
  0
LTYPE
  5
A3
330
5
100
AcDbSymbolTableRecord
100
AcDbLinetypeTableRecord
  2
ACAD_ISO02W100
 70
     0
  3
ISO dash __ __ __ __ __ __ __ __ __ __ __ __ __
 72
    65
 73
     2
 40
0.59
 49
0.47
 74
     0
 49
-0.12
 74
     0
  0
LTYPE
  5
A4
330
5
100
AcDbSymbolTableRecord
100
AcDbLinetypeTableRecord
  2
ACAD_ISO03W100
 70
     0
  3
ISO dash space __    __    __    __    __    __
 72
    65
 73
     2
 40
1.179999999999999
 49
0.47
 74
     0
 49
-0.71
 74
     0
  0
LTYPE
  5
A5
330
5
100
AcDbSymbolTableRecord
100
AcDbLinetypeTableRecord
  2
ACAD_ISO04W100
 70
     0
  3
ISO long-dash dot ____ . ____ . ____ . ____ . _
 72
    65
 73
     4
 40
1.179999999999999
 49
0.9399999999999998
 74
     0
 49
-0.12
 74
     0
 49
0.0
 74
     0
 49
-0.12
 74
     0
  0
LTYPE
  5
A6
330
5
100
AcDbSymbolTableRecord
100
AcDbLinetypeTableRecord
  2
ACAD_ISO05W100
 70
     0
  3
ISO long-dash double-dot ____ .. ____ .. ____ .
 72
    65
 73
     6
 40
1.299999999999999
 49
0.9399999999999998
 74
     0
 49
-0.12
 74
     0
 49
0.0
 74
     0
 49
-0.12
 74
     0
 49
0.0
 74
     0
 49
-0.12
 74
     0
  0
LTYPE
  5
A7
330
5
100
AcDbSymbolTableRecord
100
AcDbLinetypeTableRecord
  2
ACAD_ISO06W100
 70
     0
  3
ISO long-dash triple-dot ____ ... ____ ... ____
 72
    65
 73
     8
 40
1.419999999999999
 49
0.9399999999999998
 74
     0
 49
-0.12
 74
     0
 49
0.0
 74
     0
 49
-0.12
 74
     0
 49
0.0
 74
     0
 49
-0.12
 74
     0
 49
0.0
 74
     0
 49
-0.12
 74
     0
  0
LTYPE
  5
A8
330
5
100
AcDbSymbolTableRecord
100
AcDbLinetypeTableRecord
  2
ACAD_ISO07W100
 70
     0
  3
ISO dot . . . . . . . . . . . . . . . . . . . .
 72
    65
 73
     2
 40
0.12
 49
0.0
 74
     0
 49
-0.12
 74
     0
  0
LTYPE
  5
A9
330
5
100
AcDbSymbolTableRecord
100
AcDbLinetypeTableRecord
  2
ACAD_ISO08W100
 70
     0
  3
ISO long-dash short-dash ____ __ ____ __ ____ _
 72
    65
 73
     4
 40
0.95
 49
0.47
 74
     0
 49
-0.12
 74
     0
 49
0.24
 74
     0
 49
-0.12
 74
     0
  0
LTYPE
  5
AA
330
5
100
AcDbSymbolTableRecord
100
AcDbLinetypeTableRecord
  2
ACAD_ISO09W100
 70
     0
  3
ISO long-dash double-short-dash ____ __ __ ____
 72
    65
 73
     6
 40
1.31
 49
0.47
 74
     0
 49
-0.12
 74
     0
 49
0.24
 74
     0
 49
-0.12
 74
     0
 49
0.24
 74
     0
 49
-0.12
 74
     0
  0
LTYPE
  5
AB
330
5
100
AcDbSymbolTableRecord
100
AcDbLinetypeTableRecord
  2
ACAD_ISO10W100
 70
     0
  3
ISO dash dot __ . __ . __ . __ . __ . __ . __ .
 72
    65
 73
     4
 40
0.71
 49
0.47
 74
     0
 49
-0.12
 74
     0
 49
0.0
 74
     0
 49
-0.12
 74
     0
  0
LTYPE
  5
AC
330
5
100
AcDbSymbolTableRecord
100
AcDbLinetypeTableRecord
  2
ACAD_ISO11W100
 70
     0
  3
ISO double-dash dot __ __ . __ __ . __ __ . __ 
 72
    65
 73
     6
 40
1.299999999999999
 49
0.47
 74
     0
 49
-0.12
 74
     0
 49
0.47
 74
     0
 49
-0.12
 74
     0
 49
0.0
 74
     0
 49
-0.12
 74
     0
  0
LTYPE
  5
AD
330
5
100
AcDbSymbolTableRecord
100
AcDbLinetypeTableRecord
  2
ACAD_ISO12W100
 70
     0
  3
ISO dash double-dot __ . . __ . . __ . . __ . .
 72
    65
 73
     6
 40
0.8299999999999998
 49
0.47
 74
     0
 49
-0.12
 74
     0
 49
0.0
 74
     0
 49
-0.12
 74
     0
 49
0.0
 74
     0
 49
-0.12
 74
     0
  0
LTYPE
  5
AE
330
5
100
AcDbSymbolTableRecord
100
AcDbLinetypeTableRecord
  2
ACAD_ISO13W100
 70
     0
  3
ISO double-dash double-dot __ __ . . __ __ . . 
 72
    65
 73
     8
 40
1.419999999999999
 49
0.47
 74
     0
 49
-0.12
 74
     0
 49
0.47
 74
     0
 49
-0.12
 74
     0
 49
0.0
 74
     0
 49
-0.12
 74
     0
 49
0.0
 74
     0
 49
-0.12
 74
     0
  0
LTYPE
  5
AF
330
5
100
AcDbSymbolTableRecord
100
AcDbLinetypeTableRecord
  2
ACAD_ISO14W100
 70
     0
  3
ISO dash triple-dot __ . . . __ . . . __ . . . 
 72
    65
 73
     8
 40
0.95
 49
0.47
 74
     0
 49
-0.12
 74
     0
 49
0.0
 74
     0
 49
-0.12
 74
     0
 49
0.0
 74
     0
 49
-0.12
 74
     0
 49
0.0
 74
     0
 49
-0.12
 74
     0
  0
LTYPE
  5
B0
330
5
100
AcDbSymbolTableRecord
100
AcDbLinetypeTableRecord
  2
ACAD_ISO15W100
 70
     0
  3
ISO double-dash triple-dot __ __ . . . __ __ . 
 72
    65
 73
    10
 40
1.539999999999999
 49
0.47
 74
     0
 49
-0.12
 74
     0
 49
0.47
 74
     0
 49
-0.12
 74
     0
 49
0.0
 74
     0
 49
-0.12
 74
     0
 49
0.0
 74
     0
 49
-0.12
 74
     0
 49
0.0
 74
     0
 49
-0.12
 74
     0
  0
LTYPE
  5
B3
330
5
100
AcDbSymbolTableRecord
100
AcDbLinetypeTableRecord
  2
FENCELINE1
 70
     0
  3
Fenceline circle ----0-----0----0-----0----0---
 72
    65
 73
     4
 40
1.45
 49
0.25
 74
     0
 49
-0.1
 74
     4
 75
   133
340
B2
 46
0.1
 50
0.0
 44
-0.1
 45
0.0
 49
-0.1
 74
     0
 49
1.0
 74
     0
  0
LTYPE
  5
B4
330
5
100
AcDbSymbolTableRecord
100
AcDbLinetypeTableRecord
  2
FENCELINE2
 70
     0
  3
Fenceline square ----[]-----[]----[]-----[]----
 72
    65
 73
     4
 40
1.45
 49
0.25
 74
     0
 49
-0.1
 74
     4
 75
   132
340
B2
 46
0.1
 50
0.0
 44
-0.1
 45
0.0
 49
-0.1
 74
     0
 49
1.0
 74
     0
  0
LTYPE
  5
B5
330
5
100
AcDbSymbolTableRecord
100
AcDbLinetypeTableRecord
  2
TRACKS
 70
     0
  3
Tracks -|-|-|-|-|-|-|-|-|-|-|-|-|-|-|-|-|-|-|-|
 72
    65
 73
     2
 40
0.3
 49
0.15
 74
     4
 75
   130
340
B2
 46
0.25
 50
0.0
 44
0.0
 45
0.0
 49
0.15
 74
     0
  0
LTYPE
  5
B6
330
5
100
AcDbSymbolTableRecord
100
AcDbLinetypeTableRecord
  2
BATTING
 70
     0
  3
Batting SSSSSSSSSSSSSSSSSSSSSSSSSSSSSSSSSSSSSSS
 72
    65
 73
     4
 40
0.4001000000000001
 49
0.0001
 74
     0
 49
-0.1
 74
     4
 75
   134
340
B2
 46
0.1
 50
0.0
 44
-0.1
 45
0.0
 49
-0.2
 74
     4
 75
   134
340
B2
 46
0.1
 50
180.0
 44
0.1
 45
0.0
 49
-0.1
 74
     0
  0
LTYPE
  5
B7
330
5
100
AcDbSymbolTableRecord
100
AcDbLinetypeTableRecord
  2
HOT_WATER_SUPPLY
 70
     0
  3
Hot water supply ---- HW ---- HW ---- HW ----
 72
    65
 73
     3
 40
0.9
 49
0.5
 74
     0
 49
-0.2
 74
     2
 75
     0
340
55
 46
0.1
 50
0.0
 44
-0.1
 45
-0.05
  9
HW
 49
-0.2
 74
     0
  0
LTYPE
  5
B8
330
5
100
AcDbSymbolTableRecord
100
AcDbLinetypeTableRecord
  2
GAS_LINE
 70
     0
  3
Gas line ----GAS----GAS----GAS----GAS----GAS---
 72
    65
 73
     3
 40
0.95
 49
0.5
 74
     0
 49
-0.2
 74
     2
 75
     0
340
55
 46
0.1
 50
0.0
 44
-0.1
 45
-0.05
  9
GAS
 49
-0.25
 74
     0
  0
LTYPE
  5
B9
330
5
100
AcDbSymbolTableRecord
100
AcDbLinetypeTableRecord
  2
ZIGZAG
 70
     0
  3
Zig zag /\/\/\/\/\/\/\/\/\/\/\/\/\/\/\/\/\/\/\/
 72
    65
 73
     4
 40
0.8001000000000001
 49
0.0001
 74
     0
 49
-0.2
 74
     4
 75
   131
340
B2
 46
0.2
 50
0.0
 44
-0.2
 45
0.0
 49
-0.4
 74
     4
 75
   131
340
B2
 46
0.2
 50
180.0
 44
0.2
 45
0.0
 49
-0.2
 74
     0
  0
ENDTAB
  0
TABLE
  2
LAYER
  5
2
330
0
100
AcDbSymbolTable
 70
     3
  0
LAYER
  5
54
330
2
100
AcDbSymbolTableRecord
100
AcDbLayerTableRecord
  2
0
 70
     0
 62
     7
  6
Continuous
370
    -3
390
F
  0
LAYER
  5
BE
330
2
100
AcDbSymbolTableRecord
100
AcDbLayerTableRecord
  2
Border (ANSI)
 70
     0
 62
     7
  6
Continuous
370
    25
390
F
  0
LAYER
  5
D0
330
2
100
AcDbSymbolTableRecord
100
AcDbLayerTableRecord
  2
Visible (ANSI)
 70
     0
 62
     7
  6
Continuous
370
    18
390
F
  0
ENDTAB
  0
TABLE
  2
STYLE
  5
3
330
0
100
AcDbSymbolTable
 70
     5
  0
STYLE
  5
55
330
3
100
AcDbSymbolTableRecord
100
AcDbTextStyleTableRecord
  2
Standard
 70
     0
 40
0.0
 41
0.899999976158142
 50
0.0
 71
     0
 42
0.2
  3
txt
  4

  0
STYLE
  5
5A
330
3
100
AcDbSymbolTableRecord
100
AcDbTextStyleTableRecord
  2
Annotative
 70
     0
 40
0.0
 41
1.0
 50
0.0
 71
     0
 42
0.2
  3
txt
  4

1001
AcadAnnotative
1000
AnnotativeData
1002
{
1070
     1
1070
     1
1002
}
  0
STYLE
  5
B2
330
3
100
AcDbSymbolTableRecord
100
AcDbTextStyleTableRecord
  2

 70
     1
 40
0.0
 41
1.0
 50
0.0
 71
     0
 42
0.2
  3
ltypeshp.shx
  4

  0
STYLE
  5
D5
330
3
100
AcDbSymbolTableRecord
100
AcDbTextStyleTableRecord
  2
Label Text (ANSI)
 70
     0
 40
0.0
 41
0.899999976158142
 50
0.0
 71
     0
 42
0.2
  3
txt_IV25.ttf
  4

1001
ACAD
1000
Txt_IV25
1071
      256
  0
STYLE
  5
D6
330
3
100
AcDbSymbolTableRecord
100
AcDbTextStyleTableRecord
  2
Note Text (ANSI)
 70
     0
 40
0.0
 41
0.899999976158142
 50
0.0
 71
     0
 42
0.2
  3
txt_IV25.ttf
  4

1001
ACAD
1000
Txt_IV25
1071
      256
  0
ENDTAB
  0
TABLE
  2
VIEW
  5
6
330
0
100
AcDbSymbolTable
 70
     0
  0
ENDTAB
  0
TABLE
  2
UCS
  5
7
330
0
100
AcDbSymbolTable
 70
     0
  0
ENDTAB
  0
TABLE
  2
APPID
  5
9
330
0
100
AcDbSymbolTable
 70
     4
  0
APPID
  5
56
330
9
100
AcDbSymbolTableRecord
100
AcDbRegAppTableRecord
  2
ACAD
 70
     0
  0
APPID
  5
5E
330
9
100
AcDbSymbolTableRecord
100
AcDbRegAppTableRecord
  2
AcadAnnotative
 70
     0
  0
APPID
  5
21D
330
9
100
AcDbSymbolTableRecord
100
AcDbRegAppTableRecord
  2
ACAD_MLEADERVER
 70
     0
  0
APPID
  5
235
330
9
100
AcDbSymbolTableRecord
100
AcDbRegAppTableRecord
  2
ACAD_NAV_VCDISPLAY
 70
     0
  0
ENDTAB
  0
TABLE
  2
DIMSTYLE
  5
A
330
0
100
AcDbSymbolTable
 70
    17
100
AcDbDimStyleTable
 71
     0
  0
DIMSTYLE
105
58
330
A
100
AcDbSymbolTableRecord
100
AcDbDimStyleTableRecord
  2
Standard
 70
     0
340
55
  0
DIMSTYLE
105
59
330
A
100
AcDbSymbolTableRecord
100
AcDbDimStyleTableRecord
  2
Annotative
 70
     0
340
55
1001
AcadAnnotative
1000
AnnotativeData
1002
{
1070
     1
1070
     1
1002
}
  0
DIMSTYLE
105
D7
330
A
100
AcDbSymbolTableRecord
100
AcDbDimStyleTableRecord
  2
Architectural (ANSI)
 70
     0
 41
0.0984251946210861
 43
0.2362204724409449
 44
0.125
 45
0.00000001
 46
0.3937007874015748
 78
     3
 79
     3
140
0.0899999961256981
146
1.333333492279052
147
0.031496062992126
171
     1
176
   256
177
   256
178
     5
272
     2
274
     1
276
     2
277
     4
284
    12
285
     4
286
    12
340
D6
371
    -1
372
    -1
  0
DIMSTYLE
105
D8
330
A
100
AcDbSymbolTableRecord
100
AcDbDimStyleTableRecord
  2
Architectural (ANSI)$7
 70
     0
 41
0.0984251946210861
 43
0.2362204724409449
 44
0.125
 45
0.00000001
 46
0.3937007874015748
 78
     3
 79
     3
140
0.0899999961256981
146
1.333333492279052
147
0.031496062992126
171
     1
176
     5
177
   256
178
     5
272
     2
274
     1
276
     2
277
     4
284
    12
285
     4
286
    12
340
D6
371
    -1
372
    -1
  0
DIMSTYLE
105
D9
330
A
100
AcDbSymbolTableRecord
100
AcDbDimStyleTableRecord
  2
Default - Fraction (ANSI)
 70
     0
 41
0.0984251946210861
 43
0.2362204724409449
 44
0.125
 45
0.00000001
 46
0.3937007874015748
 79
     3
140
0.0899999961256981
146
1.333333492279052
147
0.031496062992126
171
     1
176
   256
177
   256
178
     5
272
     2
274
     1
276
     2
277
     5
284
    12
285
     4
286
    12
340
D6
371
    -1
372
    -1
  0
DIMSTYLE
105
DA
330
A
100
AcDbSymbolTableRecord
100
AcDbDimStyleTableRecord
  2
Default - Fraction (ANSI)$7
 70
     0
 41
0.0984251946210861
 43
0.2362204724409449
 44
0.125
 45
0.00000001
 46
0.3937007874015748
 79
     3
140
0.0899999961256981
146
1.333333492279052
147
0.031496062992126
171
     1
176
     5
177
   256
178
     5
272
     2
274
     1
276
     2
277
     5
284
    12
285
     4
286
    12
340
D6
371
    -1
372
    -1
  0
DIMSTYLE
105
DB
330
A
100
AcDbSymbolTableRecord
100
AcDbDimStyleTableRecord
  2
Default - mm (ANSI)
 70
     0
 41
0.0984251946210861
 42
0.063
 43
0.2362204724409449
 44
0.125
 45
0.00000001
 46
0.3937007874015748
 73
     0
 78
     4
 79
     1
140
0.0899999961256981
143
1.0
144
25.4
146
1.333333492279052
147
0.031496062992126
171
     1
176
   256
177
   256
178
     5
179
     1
271
     2
272
     2
274
     1
284
     4
285
     4
340
D6
371
    -1
372
    -1
  0
DIMSTYLE
105
DC
330
A
100
AcDbSymbolTableRecord
100
AcDbDimStyleTableRecord
  2
Default - mm (ANSI)$7
 70
     0
 41
0.0984251946210861
 42
0.063
 43
0.2362204724409449
 44
0.125
 45
0.00000001
 46
0.3937007874015748
 73
     0
 78
     4
 79
     1
140
0.0899999961256981
143
1.0
144
25.4
146
1.333333492279052
147
0.031496062992126
171
     1
176
     5
177
   256
178
     5
179
     1
271
     2
272
     2
274
     1
284
     4
285
     4
340
D6
371
    -1
372
    -1
  0
DIMSTYLE
105
DD
330
A
100
AcDbSymbolTableRecord
100
AcDbDimStyleTableRecord
  2
Default - mm [in] (ANSI)
 70
     0
  4
 in
 41
0.0984251946210861
 42
0.063
 43
0.25
 44
0.125
 45
0.00000001
 46
0.3937007874015748
 73
     0
 78
     4
 79
     1
140
0.0899999961256981
143
0.03937
144
25.4
146
1.333333492279052
147
0.031496062992126
170
     1
171
     3
176
   256
177
   256
178
     5
179
     1
271
     2
272
     2
274
     3
284
     4
285
     4
286
     4
340
D6
371
    -1
372
    -1
  0
DIMSTYLE
105
DE
330
A
100
AcDbSymbolTableRecord
100
AcDbDimStyleTableRecord
  2
Default - mm [in] (ANSI)$7
 70
     0
  4
 in
 41
0.0984251946210861
 42
0.063
 43
0.25
 44
0.125
 45
0.00000001
 46
0.3937007874015748
 73
     0
 78
     4
 79
     1
140
0.0899999961256981
143
0.03937
144
25.4
146
1.333333492279052
147
0.031496062992126
170
     1
171
     3
176
     5
177
   256
178
     5
179
     1
271
     2
272
     2
274
     3
284
     4
285
     4
286
     4
340
D6
371
    -1
372
    -1
  0
DIMSTYLE
105
DF
330
A
100
AcDbSymbolTableRecord
100
AcDbDimStyleTableRecord
  2
Default (ANSI)
 70
     0
 41
0.0984251946210861
 43
0.2362204724409449
 44
0.125
 45
0.00000001
 46
0.3937007874015748
 78
     4
 79
     1
140
0.0899999961256981
146
1.333333492279052
147
0.031496062992126
171
     1
176
   256
177
   256
178
     5
271
     2
272
     2
274
     1
284
     4
285
     4
340
D6
371
    -1
372
    -1
  0
DIMSTYLE
105
E0
330
A
100
AcDbSymbolTableRecord
100
AcDbDimStyleTableRecord
  2
Default (ANSI)$7
 70
     0
 41
0.0984251946210861
 43
0.2362204724409449
 44
0.125
 45
0.00000001
 46
0.3937007874015748
 78
     4
 79
     1
140
0.0899999961256981
146
1.333333492279052
147
0.031496062992126
171
     1
176
     5
177
   256
178
     5
271
     2
272
     2
274
     1
284
     4
285
     4
340
D6
371
    -1
372
    -1
  0
DIMSTYLE
105
E1
330
A
100
AcDbSymbolTableRecord
100
AcDbDimStyleTableRecord
  2
SST-STANDARD DIMENSIONS - DECIMAL
 70
     0
 41
0.0984251946210861
 43
0.2362204724409449
 44
0.062
 45
0.00000001
 46
0.3937007874015748
140
0.0899999961256981
147
0.031496062992126
171
     1
176
     5
177
     5
178
     5
179
     1
271
     3
272
     3
274
     1
286
    12
340
D6
371
     9
372
     9
  0
DIMSTYLE
105
E2
330
A
100
AcDbSymbolTableRecord
100
AcDbDimStyleTableRecord
  2
SST-STANDARD DIMENSIONS - DECIMAL$7
 70
     0
 41
0.0984251946210861
 43
0.2362204724409449
 44
0.062
 45
0.00000001
 46
0.3937007874015748
140
0.0899999961256981
147
0.031496062992126
171
     1
176
     5
177
     5
178
     5
179
     1
271
     3
272
     3
274
     1
286
    12
340
D6
371
    -1
372
     9
  0
DIMSTYLE
105
E3
330
A
100
AcDbSymbolTableRecord
100
AcDbDimStyleTableRecord
  2
Alternate (ANSI)
 70
     0
 41
0.0979999974370003
340
55
342
E4
  0
DIMSTYLE
105
F6
330
A
100
AcDbSymbolTableRecord
100
AcDbDimStyleTableRecord
  2
Datum (ANSI)
 70
     0
 41
0.0979999974370003
340
55
342
E4
  0
DIMSTYLE
105
105
330
A
100
AcDbSymbolTableRecord
100
AcDbDimStyleTableRecord
  2
Large (ANSI)
 70
     0
 41
0.1959999948740005
340
55
342
E4
  0
ENDTAB
  0
TABLE
  2
BLOCK_RECORD
  5
1
330
0
100
AcDbSymbolTable
 70
     5
  0
BLOCK_RECORD
  5
6C
330
1
100
AcDbSymbolTableRecord
100
AcDbBlockTableRecord
  2
*Model_Space
340
6F
  0
BLOCK_RECORD
  5
68
330
1
100
AcDbSymbolTableRecord
100
AcDbBlockTableRecord
  2
*Paper_Space
340
6B
  0
BLOCK_RECORD
  5
70
330
1
100
AcDbSymbolTableRecord
100
AcDbBlockTableRecord
  2
*Paper_Space0
340
73
  0
BLOCK_RECORD
  5
E4
330
1
100
AcDbSymbolTableRecord
100
AcDbBlockTableRecord
  2
_Closed
340
0
  0
BLOCK_RECORD
  5
EB
330
1
100
AcDbSymbolTableRecord
100
AcDbBlockTableRecord
  2
DatumFilled45
340
0
  0
BLOCK_RECORD
  5
F7
330
1
100
AcDbSymbolTableRecord
100
AcDbBlockTableRecord
  2
Filled-1
340
0
  0
BLOCK_RECORD
  5
106
330
1
100
AcDbSymbolTableRecord
100
AcDbBlockTableRecord
  2
Borders SST-LAND
340
0
102
{BLKREFS
331
10D
102
}
  0
ENDTAB
  0
ENDSEC
  0
SECTION
  2
BLOCKS
  0
BLOCK
  5
6D
330
6C
100
AcDbEntity
  8
0
100
AcDbBlockBegin
  2
*Model_Space
 70
     0
 10
0.0
 20
0.0
 30
0.0
  3
*Model_Space
  1

  0
ENDBLK
  5
6E
330
6C
100
AcDbEntity
  8
0
100
AcDbBlockEnd
  0
BLOCK
  5
69
330
68
100
AcDbEntity
 67
     1
  8
0
100
AcDbBlockBegin
  2
*Paper_Space
 70
     0
 10
0.0
 20
0.0
 30
0.0
  3
*Paper_Space
  1

  0
ENDBLK
  5
6A
330
68
100
AcDbEntity
 67
     1
  8
0
100
AcDbBlockEnd
  0
BLOCK
  5
71
330
70
100
AcDbEntity
 67
     1
  8
0
100
AcDbBlockBegin
  2
*Paper_Space0
 70
     0
 10
0.0
 20
0.0
 30
0.0
  3
*Paper_Space0
  1

  0
ENDBLK
  5
72
330
70
100
AcDbEntity
 67
     1
  8
0
100
AcDbBlockEnd
  0
BLOCK
  5
E9
330
E4
100
AcDbEntity
  8
0
100
AcDbBlockBegin
  2
_Closed
 70
     0
 10
0.0
 20
0.0
 30
0.0
  3
_Closed
  1

  0
LINE
  5
E5
330
E4
100
AcDbEntity
  8
0
  6
ByBlock
 62
     0
370
    -2
100
AcDbLine
 10
-1.0
 20
0.1666666666666666
 30
0.0
 11
0.0
 21
0.0
 31
0.0
  0
LINE
  5
E6
330
E4
100
AcDbEntity
  8
0
  6
ByBlock
 62
     0
370
    -2
100
AcDbLine
 10
0.0
 20
0.0
 30
0.0
 11
-1.0
 21
-0.1666666666666666
 31
0.0
  0
LINE
  5
E7
330
E4
100
AcDbEntity
  8
0
  6
ByBlock
 62
     0
370
    -2
100
AcDbLine
 10
-1.0
 20
0.1666666666666666
 30
0.0
 11
-1.0
 21
-0.1666666666666666
 31
0.0
  0
LINE
  5
E8
330
E4
100
AcDbEntity
  8
0
  6
ByBlock
 62
     0
370
    -2
100
AcDbLine
 10
0.0
 20
0.0
 30
0.0
 11
-1.0
 21
0.0
 31
0.0
  0
ENDBLK
  5
EA
330
E4
100
AcDbEntity
  8
0
100
AcDbBlockEnd
  0
BLOCK
  5
EC
330
EB
100
AcDbEntity
  8
0
100
AcDbBlockBegin
  2
DatumFilled45
 70
     0
 10
0.0
 20
0.0
 30
0.0
  3
DatumFilled45
  1

  0
POLYLINE
  5
EE
330
EB
100
AcDbEntity
  8
0
 62
     0
100
AcDb2dPolyline
 66
     1
 10
0.0
 20
0.0
 30
0.0
 70
   128
  0
VERTEX
  5
EF
330
EE
100
AcDbEntity
  8
0
 62
     0
100
AcDbVertex
100
AcDb2dVertex
 10
0.0
 20
0.9999999999999998
 30
0.0
  0
VERTEX
  5
F0
330
EE
100
AcDbEntity
  8
0
 62
     0
100
AcDbVertex
100
AcDb2dVertex
 10
0.0
 20
-0.9999999999999998
 30
0.0
  0
VERTEX
  5
F2
330
EE
100
AcDbEntity
  8
0
 62
     0
100
AcDbVertex
100
AcDb2dVertex
 10
-0.9999999999999998
 20
0.0
 30
0.0
  0
VERTEX
  5
F3
330
EE
100
AcDbEntity
  8
0
 62
     0
100
AcDbVertex
100
AcDb2dVertex
 10
0.0
 20
0.9999999999999998
 30
0.0
  0
SEQEND
  5
F1
330
EE
100
AcDbEntity
  8
0
 62
     0
  0
SOLID
  5
F5
330
EB
100
AcDbEntity
  8
0
 62
     0
100
AcDbTrace
 10
0.0
 20
0.9999999999999998
 30
0.0
 11
0.0
 21
-0.9999999999999998
 31
0.0
 12
-0.9999999999999998
 22
0.0
 32
0.0
 13
0.0
 23
0.9999999999999998
 33
0.0
  0
ENDBLK
  5
ED
330
EB
100
AcDbEntity
  8
0
100
AcDbBlockEnd
  0
BLOCK
  5
F8
330
F7
100
AcDbEntity
  8
0
100
AcDbBlockBegin
  2
Filled-1
 70
     0
 10
0.0
 20
0.0
 30
0.0
  3
Filled-1
  1

  0
LINE
  5
FA
330
F7
100
AcDbEntity
  8
0
 62
     0
100
AcDbLine
 10
-0.9999999999999998
 20
0.0
 30
0.0
 11
0.0
 21
0.0
 31
0.0
  0
POLYLINE
  5
FB
330
F7
100
AcDbEntity
  8
0
 62
     0
100
AcDb2dPolyline
 66
     1
 10
0.0
 20
0.0
 30
0.0
 70
   128
  0
VERTEX
  5
FC
330
FB
100
AcDbEntity
  8
0
 62
     0
100
AcDbVertex
100
AcDb2dVertex
 10
-0.9999999999999998
 20
-0.0994897959183674
 30
0.0
  0
VERTEX
  5
FD
330
FB
100
AcDbEntity
  8
0
 62
     0
100
AcDbVertex
100
AcDb2dVertex
 10
0.0
 20
0.0
 30
0.0
  0
VERTEX
  5
FF
330
FB
100
AcDbEntity
  8
0
 62
     0
100
AcDbVertex
100
AcDb2dVertex
 10
-0.9999999999999998
 20
0.0994897959183674
 30
0.0
  0
VERTEX
  5
100
330
FB
100
AcDbEntity
  8
0
 62
     0
100
AcDbVertex
100
AcDb2dVertex
 10
-0.9999999999999998
 20
-0.0994897959183674
 30
0.0
  0
SEQEND
  5
FE
330
FB
100
AcDbEntity
  8
0
 62
     0
  0
SOLID
  5
101
330
F7
100
AcDbEntity
  8
0
 62
     0
100
AcDbTrace
 10
-0.9999999999999998
 20
-0.0994897959183674
 30
0.0
 11
0.0
 21
0.0
 31
0.0
 12
-0.9999999999999998
 22
0.0994897959183674
 32
0.0
 13
-0.9999999999999998
 23
-0.0994897959183674
 33
0.0
  0
LINE
  5
102
330
F7
100
AcDbEntity
  8
0
 62
     0
100
AcDbLine
 10
-0.9999999999999998
 20
-0.0994897959183674
 30
0.0
 11
0.0
 21
0.0
 31
0.0
  0
LINE
  5
103
330
F7
100
AcDbEntity
  8
0
 62
     0
100
AcDbLine
 10
0.0
 20
0.0
 30
0.0
 11
-0.9999999999999998
 21
0.0994897959183674
 31
0.0
  0
LINE
  5
104
330
F7
100
AcDbEntity
  8
0
 62
     0
100
AcDbLine
 10
-0.9999999999999998
 20
0.0994897959183674
 30
0.0
 11
-0.9999999999999998
 21
-0.0994897959183674
 31
0.0
  0
ENDBLK
  5
F9
330
F7
100
AcDbEntity
  8
0
100
AcDbBlockEnd
  0
BLOCK
  5
107
330
106
100
AcDbEntity
  8
0
100
AcDbBlockBegin
  2
Borders SST-LAND
 70
     0
 10
0.0
 20
0.0
 30
0.0
  3
Borders SST-LAND
  1

  0
LINE
  5
109
330
106
100
AcDbEntity
  8
Border (ANSI)
 62
     7
370
    50
100
AcDbLine
 10
0.4999999999999999
 20
16.49999999999999
 30
0.0
 11
0.500000000000005
 21
0.4999999999999984
 31
0.0
  0
LINE
  5
10A
330
106
100
AcDbEntity
  8
Border (ANSI)
 62
     7
370
    50
100
AcDbLine
 10
21.5
 20
16.49999999999999
 30
0.0
 11
0.4999999999999984
 21
16.49999999999999
 31
0.0
  0
LINE
  5
10B
330
106
100
AcDbEntity
  8
Border (ANSI)
 62
     7
370
    50
100
AcDbLine
 10
21.5
 20
0.4999999999999999
 30
0.0
 11
21.5
 21
16.49999999999999
 31
0.0
  0
LINE
  5
10C
330
106
100
AcDbEntity
  8
Border (ANSI)
 62
     7
370
    50
100
AcDbLine
 10
0.500000000000005
 20
0.4999999999999999
 30
0.0
 11
21.5
 21
0.4999999999999999
 31
0.0
  0
ENDBLK
  5
108
330
106
100
AcDbEntity
  8
0
100
AcDbBlockEnd
  0
ENDSEC
  0
SECTION
  2
ENTITIES
  0
INSERT
  5
10D
330
6C
100
AcDbEntity
  8
0
100
AcDbBlockReference
  2
Borders SST-LAND
 10
0.0
 20
0.0
 30
0.0
  0
LINE
  5
10E
330
6C
100
AcDbEntity
  8
Visible (ANSI)
100
AcDbLine
 10
15.56235852287259
 20
4.000000000000016
 30
0.0
 11
15.71860852287259
 21
4.000000000000016
 31
0.0
  0
LINE
  5
10F
330
6C
100
AcDbEntity
  8
Visible (ANSI)
100
AcDbLine
 10
15.71860852287259
 20
12.99999999999999
 30
0.0
 11
15.56235852287259
 21
13.0
 31
0.0
  0
LINE
  5
110
330
6C
100
AcDbEntity
  8
Visible (ANSI)
100
AcDbLine
 10
15.08799998913205
 20
13.0
 30
0.0
 11
15.56235852287259
 21
13.0
 31
0.0
  0
LINE
  5
111
330
6C
100
AcDbEntity
  8
Visible (ANSI)
100
AcDbLine
 10
5.862641455391496
 20
13.0
 30
0.0
 11
6.336999989132037
 21
13.0
 31
0.0
  0
LINE
  5
112
330
6C
100
AcDbEntity
  8
Visible (ANSI)
100
AcDbLine
 10
6.336999989132037
 20
4.0
 30
0.0
 11
5.862641455391497
 21
4.0
 31
0.0
  0
LINE
  5
113
330
6C
100
AcDbEntity
  8
Visible (ANSI)
100
AcDbLine
 10
15.56235852287259
 20
4.000000000000017
 30
0.0
 11
15.08799998913205
 21
4.0
 31
0.0
  0
LINE
  5
114
330
6C
100
AcDbEntity
  8
Visible (ANSI)
100
AcDbLine
 10
6.337499989132037
 20
12.99299999999999
 30
0.0
 11
15.08749998913204
 21
12.993
 31
0.0
  0
LINE
  5
115
330
6C
100
AcDbEntity
  8
Visible (ANSI)
100
AcDbLine
 10
15.08749998913204
 20
13.0955
 30
0.0
 11
15.08749998913204
 21
12.993
 31
0.0
  0
LINE
  5
116
330
6C
100
AcDbEntity
  8
Visible (ANSI)
100
AcDbLine
 10
15.08749998913204
 20
13.0955
 30
0.0
 11
6.337499989132037
 21
13.09549999999999
 31
0.0
  0
LINE
  5
117
330
6C
100
AcDbEntity
  8
Visible (ANSI)
100
AcDbLine
 10
6.337499989132037
 20
13.09549999999999
 30
0.0
 11
6.337499989132037
 21
12.99299999999999
 31
0.0
  0
LINE
  5
118
330
6C
100
AcDbEntity
  8
Visible (ANSI)
100
AcDbLine
 10
15.08749998913204
 20
4.006999999999998
 30
0.0
 11
6.337499989132044
 21
4.007
 31
0.0
  0
LINE
  5
119
330
6C
100
AcDbEntity
  8
Visible (ANSI)
100
AcDbLine
 10
6.337499989132044
 20
3.9045
 30
0.0
 11
6.337499989132044
 21
4.007
 31
0.0
  0
LINE
  5
11A
330
6C
100
AcDbEntity
  8
Visible (ANSI)
100
AcDbLine
 10
6.337499989132044
 20
3.9045
 30
0.0
 11
15.08749998913204
 21
3.904499999999998
 31
0.0
  0
LINE
  5
11B
330
6C
100
AcDbEntity
  8
Visible (ANSI)
100
AcDbLine
 10
15.08749998913204
 20
3.904499999999998
 30
0.0
 11
15.08749998913204
 21
4.006999999999998
 31
0.0
  0
LINE
  5
11C
330
6C
100
AcDbEntity
  8
Visible (ANSI)
100
AcDbLine
 10
5.603891455391496
 20
4.000000000000015
 30
0.0
 11
5.706391455391496
 21
4.000000000000015
 31
0.0
  0
LINE
  5
11D
330
6C
100
AcDbEntity
  8
Visible (ANSI)
100
AcDbLine
 10
5.706391455391493
 20
12.813
 30
0.0
 11
5.706391455391494
 21
13.0
 31
0.0
  0
LINE
  5
11E
330
6C
100
AcDbEntity
  8
Visible (ANSI)
100
AcDbLine
 10
5.603891455391493
 20
13.0
 30
0.0
 11
5.706391455391494
 21
13.0
 31
0.0
  0
LINE
  5
11F
330
6C
100
AcDbEntity
  8
Visible (ANSI)
100
AcDbLine
 10
5.603891455391493
 20
13.0
 30
0.0
 11
5.603891455391493
 21
12.813
 31
0.0
  0
LINE
  5
120
330
6C
100
AcDbEntity
  8
Visible (ANSI)
100
AcDbLine
 10
5.603891455391493
 20
12.813
 30
0.0
 11
5.706391455391493
 21
12.813
 31
0.0
  0
LINE
  5
121
330
6C
100
AcDbEntity
  8
Visible (ANSI)
100
AcDbLine
 10
5.706391455391495
 20
4.187000000000014
 30
0.0
 11
5.706391455391493
 21
12.813
 31
0.0
  0
LINE
  5
122
330
6C
100
AcDbEntity
  8
Visible (ANSI)
100
AcDbLine
 10
5.603891455391493
 20
12.813
 30
0.0
 11
5.603891455391496
 21
4.187000000000016
 31
0.0
  0
LINE
  5
123
330
6C
100
AcDbEntity
  8
Visible (ANSI)
100
AcDbLine
 10
5.603891455391496
 20
4.187000000000014
 30
0.0
 11
5.706391455391495
 21
4.187000000000014
 31
0.0
  0
LINE
  5
124
330
6C
100
AcDbEntity
  8
Visible (ANSI)
100
AcDbLine
 10
5.706391455391496
 20
4.000000000000015
 30
0.0
 11
5.706391455391495
 21
4.187000000000014
 31
0.0
  0
LINE
  5
125
330
6C
100
AcDbEntity
  8
Visible (ANSI)
100
AcDbLine
 10
5.603891455391496
 20
4.187000000000014
 30
0.0
 11
5.603891455391496
 21
4.000000000000015
 31
0.0
  0
LINE
  5
126
330
6C
100
AcDbEntity
  8
Visible (ANSI)
100
AcDbLine
 10
15.71860852287259
 20
4.187000000000018
 30
0.0
 11
15.71860852287259
 21
4.000000000000018
 31
0.0
  0
LINE
  5
127
330
6C
100
AcDbEntity
  8
Visible (ANSI)
100
AcDbLine
 10
15.82110852287259
 20
4.000000000000018
 30
0.0
 11
15.71860852287259
 21
4.000000000000018
 31
0.0
  0
LINE
  5
128
330
6C
100
AcDbEntity
  8
Visible (ANSI)
100
AcDbLine
 10
15.82110852287259
 20
4.000000000000018
 30
0.0
 11
15.82110852287259
 21
4.187000000000018
 31
0.0
  0
LINE
  5
129
330
6C
100
AcDbEntity
  8
Visible (ANSI)
100
AcDbLine
 10
15.82110852287259
 20
4.187000000000018
 30
0.0
 11
15.71860852287259
 21
4.187000000000018
 31
0.0
  0
LINE
  5
12A
330
6C
100
AcDbEntity
  8
Visible (ANSI)
100
AcDbLine
 10
15.71860852287259
 20
12.813
 30
0.0
 11
15.71860852287259
 21
4.187000000000018
 31
0.0
  0
LINE
  5
12B
330
6C
100
AcDbEntity
  8
Visible (ANSI)
100
AcDbLine
 10
15.82110852287259
 20
4.187000000000018
 30
0.0
 11
15.82110852287259
 21
12.813
 31
0.0
  0
LINE
  5
12C
330
6C
100
AcDbEntity
  8
Visible (ANSI)
100
AcDbLine
 10
15.82110852287259
 20
12.813
 30
0.0
 11
15.71860852287259
 21
12.813
 31
0.0
  0
LINE
  5
12D
330
6C
100
AcDbEntity
  8
Visible (ANSI)
100
AcDbLine
 10
15.71860852287259
 20
13.0
 30
0.0
 11
15.71860852287259
 21
12.813
 31
0.0
  0
LINE
  5
12E
330
6C
100
AcDbEntity
  8
Visible (ANSI)
100
AcDbLine
 10
15.82110852287259
 20
12.813
 30
0.0
 11
15.82110852287259
 21
13.0
 31
0.0
  0
LINE
  5
12F
330
6C
100
AcDbEntity
  8
Visible (ANSI)
100
AcDbLine
 10
15.82110852287259
 20
13.0
 30
0.0
 11
15.71860852287259
 21
13.0
 31
0.0
  0
LINE
  5
130
330
6C
100
AcDbEntity
  8
Visible (ANSI)
100
AcDbLine
 10
5.8626414553915
 20
13.0
 30
0.0
 11
5.706391455391496
 21
13.0
 31
0.0
  0
LINE
  5
131
330
6C
100
AcDbEntity
  8
Visible (ANSI)
100
AcDbLine
 10
5.706391455391499
 20
3.999999999999991
 30
0.0
 11
5.862641455391498
 21
3.999999999999999
 31
0.0
  0
SPLINE
  5
132
330
6C
100
AcDbEntity
  8
Visible (ANSI)
100
AcDbSpline
210
0.0
220
0.0
230
1.0
 70
     8
 71
     3
 72
    10
 73
     6
 74
     0
 42
0.0000000001
 43
0.0000000001
 40
0.0
 40
0.0
 40
0.0
 40
0.0
 40
0.0941668376053523
 40
0.0941668376053523
 40
0.1883314096296751
 40
0.1883314096296751
 40
0.1883314096296751
 40
0.1883314096296751
 10
8.239639367422212
 20
4.164884949563298
 30
0.0
 10
8.227394555525723
 20
4.164884949563298
 30
0.0
 10
8.215252471461271
 20
4.166480462582224
 30
0.0
 10
8.191551448891042
 20
4.172831674103688
 30
0.0
 10
8.180242468860214
 20
4.177519689564001
 30
0.0
 10
8.169639367422211
 20
4.183641393033477
 30
0.0
  0
LINE
  5
133
330
6C
100
AcDbEntity
  8
Visible (ANSI)
100
AcDbLine
 10
8.239639367422212
 20
4.204084949563297
 30
0.0
 11
8.239639367422212
 21
4.164884949563298
 31
0.0
  0
LINE
  5
134
330
6C
100
AcDbEntity
  8
Visible (ANSI)
100
AcDbLine
 10
8.239639367422212
 20
4.234884949563298
 30
0.0
 11
8.239639367422212
 21
4.204084949563297
 31
0.0
  0
SPLINE
  5
135
330
6C
100
AcDbEntity
  8
Visible (ANSI)
100
AcDbSpline
210
0.0
220
0.0
230
1.0
 70
     8
 71
     3
 72
    12
 73
     8
 74
     0
 42
0.0000000001
 43
0.0000000001
 40
0.0
 40
0.0
 40
0.0
 40
0.0
 40
0.0240013933946242
 40
0.0240013933946242
 40
0.0595864904019255
 40
0.0595864904019255
 40
0.0871237424083781
 40
0.0871237424083781
 40
0.0871237424083781
 40
0.0871237424083781
 10
8.204639367422212
 20
4.244263171298387
 30
0.0
 10
8.207267619688121
 20
4.242745749145165
 30
0.0
 10
8.209982296396423
 20
4.24140285388407
 30
0.0
 10
8.217057738693007
 20
4.238469642128819
 30
0.0
 10
8.221474431041173
 20
4.237126064312252
 30
0.0
 10
8.229491068161003
 20
4.235532760794128
 30
0.0
 10
8.234084994661616
 20
4.234884949563298
 30
0.0
 10
8.239639367422212
 20
4.234884949563298
 30
0.0
  0
LINE
  5
136
330
6C
100
AcDbEntity
  8
Visible (ANSI)
100
AcDbLine
 10
8.189292487621562
 20
4.217681595746006
 30
0.0
 11
8.204639367422212
 21
4.244263171298387
 31
0.0
  0
LINE
  5
137
330
6C
100
AcDbEntity
  8
Visible (ANSI)
100
AcDbLine
 10
8.169639367422213
 20
4.183641393033477
 30
0.0
 11
8.189292487621562
 21
4.217681595746006
 31
0.0
  0
LINE
  5
138
330
6C
100
AcDbEntity
  8
Visible (ANSI)
100
AcDbLine
 10
8.315251862578888
 20
4.234884949563298
 30
0.0
 11
8.239639367422213
 21
4.234884949563298
 31
0.0
  0
LINE
  5
139
330
6C
100
AcDbEntity
  8
Visible (ANSI)
100
AcDbLine
 10
13.18536061084188
 20
4.234884949563298
 30
0.0
 11
13.1097471156852
 21
4.234884949563298
 31
0.0
  0
LINE
  5
13A
330
6C
100
AcDbEntity
  8
Visible (ANSI)
100
AcDbLine
 10
8.315251862578888
 20
4.164884949563298
 30
0.0
 11
8.239639367422213
 21
4.164884949563298
 31
0.0
  0
LINE
  5
13B
330
6C
100
AcDbEntity
  8
Visible (ANSI)
100
AcDbLine
 10
13.18536061084188
 20
4.164884949563298
 30
0.0
 11
13.1097471156852
 21
4.164884949563298
 31
0.0
  0
ARC
  5
13C
330
6C
100
AcDbEntity
  8
Visible (ANSI)
100
AcDbCircle
 10
13.21149954341113
 20
4.24800000000001
 30
0.0
 40
0.1404999999999997
100
AcDbArc
 50
31.30361043758594
 51
159.6389019071425
  0
ARC
  5
13D
330
6C
100
AcDbEntity
  8
Visible (ANSI)
100
AcDbCircle
 10
8.213499434852961
 20
4.248000000000012
 30
0.0
 40
0.1404999999999991
100
AcDbArc
 50
20.36109809285594
 51
148.6963895624145
  0
LINE
  5
13E
330
6C
100
AcDbEntity
  8
Visible (ANSI)
100
AcDbLine
 10
13.33154640925943
 20
4.321000000000013
 30
0.0
 11
14.44687498913204
 21
4.321000000000013
 31
0.0
  0
LINE
  5
13F
330
6C
100
AcDbEntity
  8
Visible (ANSI)
100
AcDbLine
 10
14.44687498913204
 20
4.321000000000013
 30
0.0
 11
15.07187498913203
 21
4.946000000000011
 31
0.0
  0
LINE
  5
140
330
6C
100
AcDbEntity
  8
Visible (ANSI)
100
AcDbLine
 10
15.07187498913203
 20
4.946000000000011
 30
0.0
 11
15.07187498913203
 21
5.876744247933402
 31
0.0
  0
ARC
  5
141
330
6C
100
AcDbEntity
  8
Visible (ANSI)
100
AcDbCircle
 10
15.13649998913203
 20
6.001499445720907
 30
0.0
 40
0.1404999999999997
100
AcDbArc
 50
92.40057967077978
 51
242.6151888495341
  0
ARC
  5
142
330
6C
100
AcDbEntity
  8
Visible (ANSI)
100
AcDbCircle
 10
15.13649998913203
 20
10.99850055427909
 30
0.0
 40
0.1404999999999994
100
AcDbArc
 50
117.3848111504647
 51
267.5994203292213
  0
LINE
  5
143
330
6C
100
AcDbEntity
  8
Visible (ANSI)
100
AcDbLine
 10
15.07187498913203
 20
11.12325575206659
 30
0.0
 11
15.07187498913203
 21
12.05399999999998
 31
0.0
  0
LINE
  5
144
330
6C
100
AcDbEntity
  8
Visible (ANSI)
100
AcDbLine
 10
15.07187498913203
 20
12.05399999999998
 30
0.0
 11
14.44687498913204
 21
12.67899999999998
 31
0.0
  0
LINE
  5
145
330
6C
100
AcDbEntity
  8
Visible (ANSI)
100
AcDbLine
 10
14.44687498913204
 20
12.67899999999998
 30
0.0
 11
13.33154640925943
 21
12.67899999999998
 31
0.0
  0
ARC
  5
146
330
6C
100
AcDbEntity
  8
Visible (ANSI)
100
AcDbCircle
 10
13.21149954341113
 20
12.75199999999999
 30
0.0
 40
0.1404999999999995
100
AcDbArc
 50
200.361098092857
 51
328.6963895624134
  0
ARC
  5
147
330
6C
100
AcDbEntity
  8
Visible (ANSI)
100
AcDbCircle
 10
8.213499434852961
 20
12.75199999999999
 30
0.0
 40
0.1404999999999993
100
AcDbArc
 50
211.3036104375843
 51
339.6389019071443
  0
LINE
  5
148
330
6C
100
AcDbEntity
  8
Visible (ANSI)
100
AcDbLine
 10
8.093452569004663
 20
12.67899999999998
 30
0.0
 11
6.97812498913206
 21
12.67899999999998
 31
0.0
  0
LINE
  5
149
330
6C
100
AcDbEntity
  8
Visible (ANSI)
100
AcDbLine
 10
6.97812498913206
 20
12.67899999999998
 30
0.0
 11
6.353124989132061
 21
12.05399999999998
 31
0.0
  0
LINE
  5
14A
330
6C
100
AcDbEntity
  8
Visible (ANSI)
100
AcDbLine
 10
6.353124989132061
 20
12.05399999999998
 30
0.0
 11
6.353124989132061
 21
11.12325575206659
 31
0.0
  0
ARC
  5
14B
330
6C
100
AcDbEntity
  8
Visible (ANSI)
100
AcDbCircle
 10
6.288499989132063
 20
10.99850055427909
 30
0.0
 40
0.1404999999999993
100
AcDbArc
 50
272.4005796707786
 51
62.6151888495355
  0
ARC
  5
14C
330
6C
100
AcDbEntity
  8
Visible (ANSI)
100
AcDbCircle
 10
6.288499989132062
 20
6.00149944572091
 30
0.0
 40
0.1404999999999992
100
AcDbArc
 50
297.3848111504647
 51
87.5994203292225
  0
LINE
  5
14D
330
6C
100
AcDbEntity
  8
Visible (ANSI)
100
AcDbLine
 10
6.353124989132061
 20
5.876744247933403
 30
0.0
 11
6.353124989132061
 21
4.946000000000013
 31
0.0
  0
LINE
  5
14E
330
6C
100
AcDbEntity
  8
Visible (ANSI)
100
AcDbLine
 10
6.353124989132061
 20
4.946000000000013
 30
0.0
 11
6.97812498913206
 21
4.321000000000013
 31
0.0
  0
LINE
  5
14F
330
6C
100
AcDbEntity
  8
Visible (ANSI)
100
AcDbLine
 10
6.97812498913206
 20
4.321000000000013
 30
0.0
 11
8.093452569004661
 21
4.321000000000013
 31
0.0
  0
LINE
  5
150
330
6C
100
AcDbEntity
  8
Visible (ANSI)
100
AcDbLine
 10
8.237544972319819
 20
12.7651150504367
 30
0.0
 11
8.315251862578888
 21
12.7651150504367
 31
0.0
  0
LINE
  5
151
330
6C
100
AcDbEntity
  8
Visible (ANSI)
100
AcDbLine
 10
8.237544972319819
 20
12.8351150504367
 30
0.0
 11
8.315251862578888
 21
12.8351150504367
 31
0.0
  0
LINE
  5
152
330
6C
100
AcDbEntity
  8
Visible (ANSI)
100
AcDbLine
 10
13.1097471156852
 20
12.7651150504367
 30
0.0
 11
13.18745500594427
 21
12.7651150504367
 31
0.0
  0
LINE
  5
153
330
6C
100
AcDbEntity
  8
Visible (ANSI)
100
AcDbLine
 10
13.1097471156852
 20
12.8351150504367
 30
0.0
 11
13.18745500594427
 21
12.8351150504367
 31
0.0
  0
LINE
  5
154
330
6C
100
AcDbEntity
  8
Visible (ANSI)
100
AcDbLine
 10
15.14655644960154
 20
5.997296178276253
 30
0.0
 11
15.13131974270081
 21
5.991750470496148
 31
0.0
  0
LINE
  5
155
330
6C
100
AcDbEntity
  8
Visible (ANSI)
100
AcDbLine
 10
15.15526115273361
 20
5.925971987041135
 30
0.0
 11
15.13131974270081
 21
5.991750470496148
 31
0.0
  0
LINE
  5
156
330
6C
100
AcDbEntity
  8
Visible (ANSI)
100
AcDbLine
 10
15.17049785963434
 20
5.93151769482124
 30
0.0
 11
15.15526115273361
 21
5.925971987041135
 31
0.0
  0
LINE
  5
157
330
6C
100
AcDbEntity
  8
Visible (ANSI)
100
AcDbLine
 10
15.13131974270081
 20
5.991750470496148
 30
0.0
 11
15.00718318227754
 21
5.946568457517892
 31
0.0
  0
LINE
  5
158
330
6C
100
AcDbEntity
  8
Visible (ANSI)
100
AcDbLine
 10
15.15526115273361
 20
5.925971987041135
 30
0.0
 11
15.05277536068445
 21
5.888670209300046
 31
0.0
  0
LINE
  5
159
330
6C
100
AcDbEntity
  8
Visible (ANSI)
100
AcDbLine
 10
15.00718318227755
 20
11.05343154248211
 30
0.0
 11
15.13131974270081
 21
11.00824952950385
 31
0.0
  0
LINE
  5
15A
330
6C
100
AcDbEntity
  8
Visible (ANSI)
100
AcDbLine
 10
15.15526115273361
 20
11.07402801295886
 30
0.0
 11
15.13131974270081
 21
11.00824952950385
 31
0.0
  0
LINE
  5
15B
330
6C
100
AcDbEntity
  8
Visible (ANSI)
100
AcDbLine
 10
15.05277536068445
 20
11.11132979069995
 30
0.0
 11
15.15526115273361
 21
11.07402801295886
 31
0.0
  0
LINE
  5
15C
330
6C
100
AcDbEntity
  8
Visible (ANSI)
100
AcDbLine
 10
15.15526115273361
 20
11.07402801295886
 30
0.0
 11
15.17049785963434
 21
11.06848230517876
 31
0.0
  0
LINE
  5
15D
330
6C
100
AcDbEntity
  8
Visible (ANSI)
100
AcDbLine
 10
15.13131974270081
 20
11.00824952950385
 30
0.0
 11
15.14655644960154
 21
11.00270382172374
 31
0.0
  0
LINE
  5
15E
330
6C
100
AcDbEntity
  8
Visible (ANSI)
100
AcDbLine
 10
6.249238279776358
 20
11.06585168611805
 30
0.0
 11
6.269067191130123
 21
11.07306881962872
 31
0.0
  0
LINE
  5
15F
330
6C
100
AcDbEntity
  8
Visible (ANSI)
100
AcDbLine
 10
6.269067191130123
 20
11.07306881962872
 30
0.0
 11
6.37286825976209
 21
11.11084931889578
 31
0.0
  0
LINE
  5
160
330
6C
100
AcDbEntity
  8
Visible (ANSI)
100
AcDbLine
 10
6.293008601162918
 20
11.00729033617371
 30
0.0
 11
6.418078232975966
 21
11.05281195936429
 31
0.0
  0
LINE
  5
161
330
6C
100
AcDbEntity
  8
Visible (ANSI)
100
AcDbLine
 10
6.269067191130123
 20
11.07306881962872
 30
0.0
 11
6.293008601162918
 21
11.00729033617371
 31
0.0
  0
LINE
  5
162
330
6C
100
AcDbEntity
  8
Visible (ANSI)
100
AcDbLine
 10
6.273179689809155
 20
11.00007320266304
 30
0.0
 11
6.29300860116292
 21
11.00729033617371
 31
0.0
  0
LINE
  5
163
330
6C
100
AcDbEntity
  8
Visible (ANSI)
100
AcDbLine
 10
6.418078232975964
 20
5.947188040635702
 30
0.0
 11
6.293008601162914
 21
5.992709663826285
 31
0.0
  0
LINE
  5
164
330
6C
100
AcDbEntity
  8
Visible (ANSI)
100
AcDbLine
 10
6.269067191130118
 20
5.926931180371272
 30
0.0
 11
6.293008601162914
 21
5.992709663826285
 31
0.0
  0
LINE
  5
165
330
6C
100
AcDbEntity
  8
Visible (ANSI)
100
AcDbLine
 10
6.372868259762087
 20
5.889150681104212
 30
0.0
 11
6.269067191130118
 21
5.926931180371272
 31
0.0
  0
LINE
  5
166
330
6C
100
AcDbEntity
  8
Visible (ANSI)
100
AcDbLine
 10
6.269067191130118
 20
5.926931180371273
 30
0.0
 11
6.249238279776355
 21
5.934148313881945
 31
0.0
  0
LINE
  5
167
330
6C
100
AcDbEntity
  8
Visible (ANSI)
100
AcDbLine
 10
6.293008601162915
 20
5.992709663826285
 30
0.0
 11
6.273179689809151
 21
5.999926797336957
 31
0.0
  0
LINE
  5
168
330
6C
100
AcDbEntity
  8
Visible (ANSI)
100
AcDbLine
 10
13.21845500594427
 20
12.75680862547133
 30
0.0
 11
13.30063008386999
 21
12.70936482211024
 31
0.0
  0
LINE
  5
169
330
6C
100
AcDbEntity
  8
Visible (ANSI)
100
AcDbLine
 10
13.33563008386999
 20
12.76998660037515
 30
0.0
 11
13.30063008386999
 21
12.70936482211024
 31
0.0
  0
LINE
  5
16A
330
6C
100
AcDbEntity
  8
Visible (ANSI)
100
AcDbLine
 10
13.25345500594427
 20
12.81743040373624
 30
0.0
 11
13.33563008387
 21
12.76998660037515
 31
0.0
  0
LINE
  5
16B
330
6C
100
AcDbEntity
  8
Visible (ANSI)
100
AcDbLine
 10
13.33563008386999
 20
12.76998660037515
 30
0.0
 11
13.49322349852774
 21
12.67899999999998
 31
0.0
  0
LINE
  5
16C
330
6C
100
AcDbEntity
  8
Visible (ANSI)
100
AcDbLine
 10
13.30063008386999
 20
12.70936482211024
 30
0.0
 11
13.35322349852775
 21
12.67899999999998
 31
0.0
  0
LINE
  5
16D
330
6C
100
AcDbEntity
  8
Visible (ANSI)
100
AcDbLine
 10
8.071776479736335
 20
12.67899999999998
 30
0.0
 11
8.124369028368695
 21
12.70936432211025
 31
0.0
  0
LINE
  5
16E
330
6C
100
AcDbEntity
  8
Visible (ANSI)
100
AcDbLine
 10
8.089369028368695
 20
12.76998610037515
 30
0.0
 11
8.124369028368695
 21
12.70936432211025
 31
0.0
  0
LINE
  5
16F
330
6C
100
AcDbEntity
  8
Visible (ANSI)
100
AcDbLine
 10
7.931776479736337
 20
12.67899999999998
 30
0.0
 11
8.089369028368695
 21
12.76998610037515
 31
0.0
  0
LINE
  5
170
330
6C
100
AcDbEntity
  8
Visible (ANSI)
100
AcDbLine
 10
8.124369028368695
 20
12.70936432211025
 30
0.0
 11
8.20654497231982
 21
12.75680862547134
 31
0.0
  0
LINE
  5
171
330
6C
100
AcDbEntity
  8
Visible (ANSI)
100
AcDbLine
 10
8.089369028368695
 20
12.76998610037515
 30
0.0
 11
8.171544972319818
 21
12.81743040373625
 31
0.0
  0
LINE
  5
172
330
6C
100
AcDbEntity
  8
Visible (ANSI)
100
AcDbLine
 10
13.30072188940337
 20
4.290659777108286
 30
0.0
 11
13.22036061084188
 21
4.244263171298387
 31
0.0
  0
LINE
  5
173
330
6C
100
AcDbEntity
  8
Visible (ANSI)
100
AcDbLine
 10
13.3532726969648
 20
4.321000000000013
 30
0.0
 11
13.30072188940337
 21
4.290659777108285
 31
0.0
  0
LINE
  5
174
330
6C
100
AcDbEntity
  8
Visible (ANSI)
100
AcDbLine
 10
13.33572188940336
 20
4.230037998843376
 30
0.0
 11
13.30072188940337
 21
4.290659777108285
 31
0.0
  0
LINE
  5
175
330
6C
100
AcDbEntity
  8
Visible (ANSI)
100
AcDbLine
 10
13.4932726969648
 20
4.321000000000013
 30
0.0
 11
13.33572188940336
 21
4.230037998843376
 31
0.0
  0
LINE
  5
176
330
6C
100
AcDbEntity
  8
Visible (ANSI)
100
AcDbLine
 10
13.33572188940336
 20
4.230037998843377
 30
0.0
 11
13.25536061084188
 21
4.183641393033477
 31
0.0
  0
LINE
  5
177
330
6C
100
AcDbEntity
  8
Visible (ANSI)
100
AcDbLine
 10
8.124277222835321
 20
4.290660277108285
 30
0.0
 11
8.071727281299288
 21
4.321000000000013
 31
0.0
  0
LINE
  5
178
330
6C
100
AcDbEntity
  8
Visible (ANSI)
100
AcDbLine
 10
8.089277222835322
 20
4.230038498843375
 30
0.0
 11
7.931727281299288
 21
4.321000000000013
 31
0.0
  0
LINE
  5
179
330
6C
100
AcDbEntity
  8
Visible (ANSI)
100
AcDbLine
 10
8.089277222835322
 20
4.230038498843375
 30
0.0
 11
8.124277222835321
 21
4.290660277108285
 31
0.0
  0
LINE
  5
17A
330
6C
100
AcDbEntity
  8
Visible (ANSI)
100
AcDbLine
 10
8.204639367422213
 20
4.244263171298388
 30
0.0
 11
8.124277222835321
 21
4.290660277108284
 31
0.0
  0
LINE
  5
17B
330
6C
100
AcDbEntity
  8
Visible (ANSI)
100
AcDbLine
 10
8.169639367422213
 20
4.183641393033477
 30
0.0
 11
8.089277222835322
 21
4.230038498843375
 31
0.0
  0
LINE
  5
17C
330
6C
100
AcDbEntity
  8
Visible (ANSI)
100
AcDbLine
 10
8.31525186257889
 20
4.164884949563298
 30
0.0
 11
8.31525186257889
 21
4.204774365890658
 31
0.0
  0
LINE
  5
17D
330
6C
100
AcDbEntity
  8
Visible (ANSI)
100
AcDbLine
 10
8.31525186257889
 20
4.204774365890658
 30
0.0
 11
8.31525186257889
 21
4.234884949563298
 31
0.0
  0
LINE
  5
17E
330
6C
100
AcDbEntity
  8
Visible (ANSI)
100
AcDbLine
 10
13.1097471156852
 20
4.164884949563298
 30
0.0
 11
8.31525186257889
 21
4.164884949563298
 31
0.0
  0
LINE
  5
17F
330
6C
100
AcDbEntity
  8
Visible (ANSI)
100
AcDbLine
 10
13.1097471156852
 20
4.234884949563298
 30
0.0
 11
13.1097471156852
 21
4.204774365890667
 31
0.0
  0
LINE
  5
180
330
6C
100
AcDbEntity
  8
Visible (ANSI)
100
AcDbLine
 10
13.1097471156852
 20
4.204774365890667
 30
0.0
 11
13.1097471156852
 21
4.164884949563298
 31
0.0
  0
SPLINE
  5
181
330
6C
100
AcDbEntity
  8
Visible (ANSI)
100
AcDbSpline
210
0.0
220
0.0
230
1.0
 70
     8
 71
     3
 72
    18
 73
    14
 74
     0
 42
0.0000000001
 43
0.0000000001
 40
0.0
 40
0.0
 40
0.0
 40
0.0
 40
0.0463207571304404
 40
0.0463207571304404
 40
0.1157911957626123
 40
0.1157911957626123
 40
0.1821423663504913
 40
0.1821423663504913
 40
0.2467684427687855
 40
0.2467684427687855
 40
0.2771222946568108
 40
0.2771222946568108
 40
0.3075316189092152
 40
0.3075316189092152
 40
0.3075316189092152
 40
0.3075316189092152
 10
13.1097471156852
 20
4.164884949563298
 30
0.0
 10
13.10638362029673
 20
4.164884949563298
 30
0.0
 10
13.10153313141965
 20
4.165127700287597
 30
0.0
 10
13.08911189281414
 20
4.169459509350843
 30
0.0
 10
13.08349055475182
 20
4.174741815014066
 30
0.0
 10
13.07539848602969
 20
4.190850093913879
 30
0.0
 10
13.07290924630154
 20
4.20119701870097
 30
0.0
 10
13.07061047061626
 20
4.225735157822357
 30
0.0
 10
13.0707619486324
 20
4.239528413664384
 30
0.0
 10
13.07288560995096
 20
4.261195722413335
 30
0.0
 10
13.07384851192278
 20
4.268274086231486
 30
0.0
 10
13.07636815611812
 20
4.282572754341625
 30
0.0
 10
13.07791080079462
 20
4.28968962033651
 30
0.0
 10
13.07977820229211
 20
4.296884949563296
 30
0.0
  0
SPLINE
  5
182
330
6C
100
AcDbEntity
  8
Visible (ANSI)
100
AcDbSpline
210
0.0
220
0.0
230
1.0
 70
     8
 71
     3
 72
    14
 73
    10
 74
     0
 42
0.0000000001
 43
0.0000000001
 40
0.1214005681298871
 40
0.1214005681298871
 40
0.1214005681298871
 40
0.1214005681298871
 40
0.165322417512308
 40
0.165322417512308
 40
0.2184850279651738
 40
0.2184850279651738
 40
0.2463872432247554
 40
0.2463872432247554
 40
0.2837815477723094
 40
0.2837815477723094
 40
0.2837815477723094
 40
0.2837815477723094
 10
13.07231698074555
 20
4.255371596234641
 30
0.0
 10
13.07346740268585
 20
4.251230347357485
 30
0.0
 10
13.07533290996359
 20
4.247761905721543
 30
0.0
 10
13.08084250940644
 20
4.24154914087053
 30
0.0
 10
13.08486234414568
 20
4.239004323903844
 30
0.0
 10
13.09282956297888
 20
4.236459889237394
 30
0.0
 10
13.09577911721578
 20
4.235864839509061
 30
0.0
 10
13.1030507168307
 20
4.234964759584529
 30
0.0
 10
13.10692833353285
 20
4.234884949563298
 30
0.0
 10
13.1097471156852
 20
4.234884949563298
 30
0.0
  0
SPLINE
  5
183
330
6C
100
AcDbEntity
  8
Visible (ANSI)
100
AcDbSpline
210
0.0
220
0.0
230
1.0
 70
     8
 71
     3
 72
    18
 73
    14
 74
     0
 42
0.0000000001
 43
0.0000000001
 40
0.0
 40
0.0
 40
0.0
 40
0.0
 40
0.0620230107299532
 40
0.0620230107299532
 40
0.1837535745295689
 40
0.1837535745295689
 40
0.3039232809933684
 40
0.3039232809933684
 40
0.4264916256442615
 40
0.4264916256442615
 40
0.4899131265969898
 40
0.4899131265969898
 40
0.5722117100995145
 40
0.5722117100995145
 40
0.5722117100995145
 40
0.5722117100995145
 10
8.345220775971986
 20
4.296884949563297
 30
0.0
 10
8.347265479411385
 20
4.28900645399743
 30
0.0
 10
8.348920436270425
 20
4.281219332070807
 30
0.0
 10
8.352827373311423
 20
4.258061222260463
 30
0.0
 10
8.354058643608823
 20
4.24316681895068
 30
0.0
 10
8.353936731379013
 20
4.216148378340721
 30
0.0
 10
8.35261762234195
 20
4.20430443436191
 30
0.0
 10
8.347271950824561
 20
4.184671449874524
 30
0.0
 10
8.343261273366261
 20
4.177217248494947
 30
0.0
 10
8.33484562367809
 20
4.169738947402678
 30
0.0
 10
8.331587824672173
 20
4.167888797154501
 30
0.0
 10
8.323112896146351
 20
4.165110158815577
 30
0.0
 10
8.318482046081072
 20
4.164884949563298
 30
0.0
 10
8.31525186257889
 20
4.164884949563298
 30
0.0
  0
SPLINE
  5
184
330
6C
100
AcDbEntity
  8
Visible (ANSI)
100
AcDbSpline
210
0.0
220
0.0
230
1.0
 70
     8
 71
     3
 72
    14
 73
    10
 74
     0
 42
0.0000000001
 43
0.0000000001
 40
0.0
 40
0.0
 40
0.0
 40
0.0
 40
0.0308681539787327
 40
0.0308681539787327
 40
0.0737298502182389
 40
0.0737298502182389
 40
0.1087580748777137
 40
0.1087580748777137
 40
0.1122969189762518
 40
0.1122969189762518
 40
0.1122969189762518
 40
0.1122969189762518
 10
8.31525186257889
 20
4.234884949563298
 30
0.0
 10
8.31856278487052
 20
4.234884949563298
 30
0.0
 10
8.323350325027078
 20
4.234984887697727
 30
0.0
 10
8.335371995281395
 20
4.236942568438914
 30
0.0
 10
8.340780178131412
 20
4.239199493873893
 30
0.0
 10
8.348166526317118
 20
4.24550202633628
 30
0.0
 10
8.350683585107539
 20
4.249224837956122
 30
0.0
 10
8.352398717861424
 20
4.254398280466706
 30
0.0
 10
8.352545659665873
 20
4.254881063037659
 30
0.0
 10
8.352682114137627
 20
4.255371690982761
 30
0.0
  0
SPLINE
  5
185
330
6C
100
AcDbEntity
  8
Visible (ANSI)
100
AcDbSpline
210
0.0
220
0.0
230
1.0
 70
     8
 71
     3
 72
    10
 73
     6
 74
     0
 42
0.0000000001
 43
0.0000000001
 40
0.0
 40
0.0
 40
0.0
 40
0.0
 40
0.0941903114288604
 40
0.0941903114288604
 40
0.1883828983551291
 40
0.1883828983551291
 40
0.1883828983551291
 40
0.1883828983551291
 10
13.25536061084188
 20
4.18364139303348
 30
0.0
 10
13.24475751182088
 20
4.17751969095946
 30
0.0
 10
13.23344854011242
 20
4.172831678071028
 30
0.0
 10
13.20974751809289
 20
4.166480464518135
 30
0.0
 10
13.19760542560777
 20
4.164884949563298
 30
0.0
 10
13.18536061084188
 20
4.164884949563298
 30
0.0
  0
LINE
  5
186
330
6C
100
AcDbEntity
  8
Visible (ANSI)
100
AcDbLine
 10
13.23570748881388
 20
4.217681598913312
 30
0.0
 11
13.25536061084188
 21
4.183641393033477
 31
0.0
  0
LINE
  5
187
330
6C
100
AcDbEntity
  8
Visible (ANSI)
100
AcDbLine
 10
13.22036061084188
 20
4.244263171298387
 30
0.0
 11
13.23570748881388
 21
4.217681598913312
 31
0.0
  0
SPLINE
  5
188
330
6C
100
AcDbEntity
  8
Visible (ANSI)
100
AcDbSpline
210
0.0
220
0.0
230
1.0
 70
     8
 71
     3
 72
    12
 73
     8
 74
     0
 42
0.0000000001
 43
0.0000000001
 40
0.0
 40
0.0
 40
0.0
 40
0.0
 40
0.0239739502168358
 40
0.0239739502168358
 40
0.0595399672300437
 40
0.0595399672300437
 40
0.0871668035964014
 40
0.0871668035964014
 40
0.0871668035964014
 40
0.0871668035964014
 10
13.18536061084188
 20
4.234884949563298
 30
0.0
 10
13.18839617352307
 20
4.234884949563298
 30
0.0
 10
13.19142025948503
 20
4.235079519665025
 30
0.0
 10
13.19901672474699
 20
4.236077559485471
 30
0.0
 10
13.20351355020654
 20
4.237122998763005
 30
0.0
 10
13.21126180929771
 20
4.239754877014229
 30
0.0
 10
13.21555905806582
 20
4.241490993510601
 30
0.0
 10
13.22036061084188
 20
4.24426317129839
 30
0.0
  0
LINE
  5
189
330
6C
100
AcDbEntity
  8
Visible (ANSI)
100
AcDbLine
 10
13.18536061084188
 20
4.204084949563299
 30
0.0
 11
13.18536061084188
 21
4.234884949563298
 31
0.0
  0
LINE
  5
18A
330
6C
100
AcDbEntity
  8
Visible (ANSI)
100
AcDbLine
 10
13.18536061084188
 20
4.164884949563298
 30
0.0
 11
13.18536061084188
 21
4.204084949563299
 31
0.0
  0
SPLINE
  5
18B
330
6C
100
AcDbEntity
  8
Visible (ANSI)
100
AcDbSpline
210
0.0
220
0.0
230
1.0
 70
     8
 71
     3
 72
    10
 73
     6
 74
     0
 42
0.0000000001
 43
0.0000000001
 40
0.0
 40
0.0
 40
0.0
 40
0.0
 40
0.0886138656315985
 40
0.0886138656315985
 40
0.1772298498127189
 40
0.1772298498127189
 40
0.1772298498127189
 40
0.1772298498127189
 10
8.17154497231982
 20
12.81743040373625
 30
0.0
 10
8.181538788763086
 20
12.82320033635
 30
0.0
 10
8.192210411432942
 20
12.82762391793034
 30
0.0
 10
8.21454668699466
 20
12.83360936356761
 30
0.0
 10
8.226003810682653
 20
12.8351150504367
 30
0.0
 10
8.237544972319817
 20
12.8351150504367
 30
0.0
  0
LINE
  5
18C
330
6C
100
AcDbEntity
  8
Visible (ANSI)
100
AcDbLine
 10
8.191189719659419
 20
12.78340470324221
 30
0.0
 11
8.171544972319818
 21
12.81743040373625
 31
0.0
  0
LINE
  5
18D
330
6C
100
AcDbEntity
  8
Visible (ANSI)
100
AcDbLine
 10
8.206544972319818
 20
12.75680862547134
 30
0.0
 11
8.191189719659419
 21
12.78340470324221
 31
0.0
  0
SPLINE
  5
18E
330
6C
100
AcDbEntity
  8
Visible (ANSI)
100
AcDbSpline
210
0.0
220
0.0
230
1.0
 70
     8
 71
     3
 72
    12
 73
     8
 74
     0
 42
0.0000000001
 43
0.0000000001
 40
0.0
 40
0.0
 40
0.0
 40
0.0
 40
0.0211807967753299
 40
0.0211807967753299
 40
0.0526235523624816
 40
0.0526235523624816
 40
0.0770927150420214
 40
0.0770927150420214
 40
0.0770927150420214
 40
0.0770927150420214
 10
8.237544972319817
 20
12.7651150504367
 30
0.0
 10
8.234854640659335
 20
12.7651150504367
 30
0.0
 10
8.232173269419043
 20
12.76494224324853
 30
0.0
 10
8.225446602243506
 20
12.76405815921582
 30
0.0
 10
8.221466478379481
 20
12.7631325785596
 30
0.0
 10
8.214601888613341
 20
12.76080110801864
 30
0.0
 10
8.210795011751718
 20
12.75926238688141
 30
0.0
 10
8.206544972319802
 20
12.75680862547132
 30
0.0
  0
LINE
  5
18F
330
6C
100
AcDbEntity
  8
Visible (ANSI)
100
AcDbLine
 10
8.237544972319819
 20
12.7959150504367
 30
0.0
 11
8.237544972319817
 21
12.7651150504367
 31
0.0
  0
LINE
  5
190
330
6C
100
AcDbEntity
  8
Visible (ANSI)
100
AcDbLine
 10
8.237544972319817
 20
12.8351150504367
 30
0.0
 11
8.237544972319819
 21
12.7959150504367
 31
0.0
  0
LINE
  5
191
330
6C
100
AcDbEntity
  8
Visible (ANSI)
100
AcDbLine
 10
8.315251862578888
 20
12.7651150504367
 30
0.0
 11
8.315251862578888
 21
12.79522563410933
 31
0.0
  0
LINE
  5
192
330
6C
100
AcDbEntity
  8
Visible (ANSI)
100
AcDbLine
 10
8.315251862578888
 20
12.79522563410933
 30
0.0
 11
8.315251862578888
 21
12.8351150504367
 31
0.0
  0
LINE
  5
193
330
6C
100
AcDbEntity
  8
Visible (ANSI)
100
AcDbLine
 10
8.315251862578888
 20
12.8351150504367
 30
0.0
 11
13.1097471156852
 21
12.8351150504367
 31
0.0
  0
LINE
  5
194
330
6C
100
AcDbEntity
  8
Visible (ANSI)
100
AcDbLine
 10
13.1097471156852
 20
12.8351150504367
 30
0.0
 11
13.1097471156852
 21
12.79522563410929
 31
0.0
  0
LINE
  5
195
330
6C
100
AcDbEntity
  8
Visible (ANSI)
100
AcDbLine
 10
13.1097471156852
 20
12.79522563410929
 30
0.0
 11
13.1097471156852
 21
12.7651150504367
 31
0.0
  0
SPLINE
  5
196
330
6C
100
AcDbEntity
  8
Visible (ANSI)
100
AcDbSpline
210
0.0
220
0.0
230
1.0
 70
     8
 71
     3
 72
    18
 73
    14
 74
     0
 42
0.0000000001
 43
0.0000000001
 40
0.0
 40
0.0
 40
0.0
 40
0.0
 40
0.0463207571309485
 40
0.0463207571309485
 40
0.1157911957642307
 40
0.1157911957642307
 40
0.1821423663529776
 40
0.1821423663529776
 40
0.2467684427721877
 40
0.2467684427721877
 40
0.2771222946606678
 40
0.2771222946606678
 40
0.3075316189135009
 40
0.3075316189135009
 40
0.3075316189135009
 40
0.3075316189135009
 10
8.315251862578888
 20
12.8351150504367
 30
0.0
 10
8.318615357967388
 20
12.8351150504367
 30
0.0
 10
8.32346584684446
 20
12.8348722997124
 30
0.0
 10
8.335887085449959
 20
12.83054049064916
 30
0.0
 10
8.341508423512282
 20
12.82525818498593
 30
0.0
 10
8.34960049223439
 20
12.80914990608613
 30
0.0
 10
8.352089731962538
 20
12.79880298129906
 30
0.0
 10
8.354388507647829
 20
12.77426484217773
 30
0.0
 10
8.354237029631699
 20
12.76047158633574
 30
0.0
 10
8.352113368313142
 20
12.73880427758675
 30
0.0
 10
8.351150466341325
 20
12.7317259137686
 30
0.0
 10
8.348630822145979
 20
12.71742724565841
 30
0.0
 10
8.347088177469478
 20
12.7103103796635
 30
0.0
 10
8.34522077597199
 20
12.7031150504367
 30
0.0
  0
SPLINE
  5
197
330
6C
100
AcDbEntity
  8
Visible (ANSI)
100
AcDbSpline
210
0.0
220
0.0
230
1.0
 70
     8
 71
     3
 72
    14
 73
    10
 74
     0
 42
0.0000000001
 43
0.0000000001
 40
0.1214005681295256
 40
0.1214005681295256
 40
0.1214005681295256
 40
0.1214005681295256
 40
0.1653224175117744
 40
0.1653224175117744
 40
0.218485027965362
 40
0.218485027965362
 40
0.2463872432255664
 40
0.2463872432255664
 40
0.2837815477740185
 40
0.2837815477740185
 40
0.2837815477740185
 40
0.2837815477740185
 10
8.352681997518546
 20
12.74462840376535
 30
0.0
 10
8.351531575578238
 20
12.74876965264252
 30
0.0
 10
8.349666068300496
 20
12.75223809427847
 30
0.0
 10
8.344156468857562
 20
12.75845085912956
 30
0.0
 10
8.340136634118268
 20
12.76099567609621
 30
0.0
 10
8.332169415285143
 20
12.76354011076262
 30
0.0
 10
8.329219861048255
 20
12.76413516049095
 30
0.0
 10
8.321948261433339
 20
12.76503524041547
 30
0.0
 10
8.318070644731198
 20
12.7651150504367
 30
0.0
 10
8.315251862578888
 20
12.7651150504367
 30
0.0
  0
SPLINE
  5
198
330
6C
100
AcDbEntity
  8
Visible (ANSI)
100
AcDbSpline
210
0.0
220
0.0
230
1.0
 70
     8
 71
     3
 72
    18
 73
    14
 74
     0
 42
0.0000000001
 43
0.0000000001
 40
0.0
 40
0.0
 40
0.0
 40
0.0
 40
0.0620230107299972
 40
0.0620230107299972
 40
0.183753574529261
 40
0.183753574529261
 40
0.3039232809927504
 40
0.3039232809927504
 40
0.4264916256435943
 40
0.4264916256435943
 40
0.4899131265964823
 40
0.4899131265964823
 40
0.5722117100991825
 40
0.5722117100991825
 40
0.5722117100991825
 40
0.5722117100991825
 10
13.07977820229211
 20
12.70311505043669
 30
0.0
 10
13.07773349885271
 20
12.71099354600257
 30
0.0
 10
13.07607854199366
 20
12.71878066792919
 30
0.0
 10
13.07217160495268
 20
12.74193877773948
 30
0.0
 10
13.07094033465527
 20
12.75683318104925
 30
0.0
 10
13.07106224688507
 20
12.78385162165915
 30
0.0
 10
13.07238135592212
 20
12.79569556563795
 30
0.0
 10
13.07772702743948
 20
12.81532855012537
 30
0.0
 10
13.08173770489778
 20
12.82278275150497
 30
0.0
 10
13.09015335458594
 20
12.83026105259727
 30
0.0
 10
13.09341115359186
 20
12.83211120284547
 30
0.0
 10
13.10188608211771
 20
12.83488984118442
 30
0.0
 10
13.10651693218302
 20
12.8351150504367
 30
0.0
 10
13.1097471156852
 20
12.8351150504367
 30
0.0
  0
SPLINE
  5
199
330
6C
100
AcDbEntity
  8
Visible (ANSI)
100
AcDbSpline
210
0.0
220
0.0
230
1.0
 70
     8
 71
     3
 72
    14
 73
    10
 74
     0
 42
0.0000000001
 43
0.0000000001
 40
0.0
 40
0.0
 40
0.0
 40
0.0
 40
0.030868153974032
 40
0.030868153974032
 40
0.0737298502023902
 40
0.0737298502023902
 40
0.1087580748509656
 40
0.1087580748509656
 40
0.1122969189483808
 40
0.1122969189483808
 40
0.1122969189483808
 40
0.1122969189483808
 10
13.1097471156852
 20
12.7651150504367
 30
0.0
 10
13.10643619339407
 20
12.7651150504367
 30
0.0
 10
13.10164865323731
 20
12.76501511230231
 30
0.0
 10
13.08962698298305
 20
12.76305743156114
 30
0.0
 10
13.08421880013287
 20
12.76080050612627
 30
0.0
 10
13.07683245194697
 20
12.75449797366371
 30
0.0
 10
13.07431539315655
 20
12.75077516204386
 30
0.0
 10
13.07260026040267
 20
12.74560171953328
 30
0.0
 10
13.07245331859822
 20
12.74511893696233
 30
0.0
 10
13.07231686412646
 20
12.74462830901723
 30
0.0
  0
SPLINE
  5
19A
330
6C
100
AcDbEntity
  8
Visible (ANSI)
100
AcDbSpline
210
0.0
220
0.0
230
1.0
 70
     8
 71
     3
 72
    10
 73
     6
 74
     0
 42
0.0000000001
 43
0.0000000001
 40
0.0
 40
0.0
 40
0.0
 40
0.0
 40
0.088595717599463
 40
0.088595717599463
 40
0.177189308790083
 40
0.177189308790083
 40
0.177189308790083
 40
0.177189308790083
 10
13.18745500594427
 20
12.8351150504367
 30
0.0
 10
13.19899617020497
 20
12.8351150504367
 30
0.0
 10
13.21045330074046
 20
12.83360936194641
 30
0.0
 10
13.23278957583793
 20
12.82762391460006
 30
0.0
 10
13.24346119171364
 20
12.82320033507253
 30
0.0
 10
13.25345500594432
 20
12.81743040373621
 30
0.0
  0
LINE
  5
19B
330
6C
100
AcDbEntity
  8
Visible (ANSI)
100
AcDbLine
 10
13.18745500594427
 20
12.79591505043669
 30
0.0
 11
13.18745500594427
 21
12.8351150504367
 31
0.0
  0
LINE
  5
19C
330
6C
100
AcDbEntity
  8
Visible (ANSI)
100
AcDbLine
 10
13.18745500594427
 20
12.7651150504367
 30
0.0
 11
13.18745500594427
 21
12.79591505043669
 31
0.0
  0
SPLINE
  5
19D
330
6C
100
AcDbEntity
  8
Visible (ANSI)
100
AcDbSpline
210
0.0
220
0.0
230
1.0
 70
     8
 71
     3
 72
    12
 73
     8
 74
     0
 42
0.0000000001
 43
0.0000000001
 40
0.0
 40
0.0
 40
0.0
 40
0.0
 40
0.0212051465407833
 40
0.0212051465407833
 40
0.0526644946346956
 40
0.0526644946346956
 40
0.0769222682827208
 40
0.0769222682827208
 40
0.0769222682827208
 40
0.0769222682827208
 10
13.21845500594432
 20
12.7568086254713
 30
0.0
 10
13.21612561840298
 20
12.75815349799535
 30
0.0
 10
13.21371836287313
 20
12.75934399420444
 30
0.0
 10
13.20745280681883
 20
12.76194109037176
 30
0.0
 10
13.20354345322968
 20
12.76313004354652
 30
0.0
 10
13.19645798689303
 20
12.76453848651838
 30
0.0
 10
13.19238577710632
 20
12.7651150504367
 30
0.0
 10
13.18745500594427
 20
12.7651150504367
 30
0.0
  0
LINE
  5
19E
330
6C
100
AcDbEntity
  8
Visible (ANSI)
100
AcDbLine
 10
13.23381025691127
 20
12.78340470030915
 30
0.0
 11
13.21845500594427
 21
12.75680862547133
 31
0.0
  0
LINE
  5
19F
330
6C
100
AcDbEntity
  8
Visible (ANSI)
100
AcDbLine
 10
13.25345500594427
 20
12.81743040373624
 30
0.0
 11
13.23381025691127
 21
12.78340470030915
 31
0.0
  0
LINE
  5
1A0
330
6C
100
AcDbEntity
  8
Visible (ANSI)
100
AcDbLine
 10
6.208501626072571
 20
6.014631501374047
 30
0.0
 11
6.201944553472936
 21
6.01463150137405
 31
0.0
  0
LINE
  5
1A1
330
6C
100
AcDbEntity
  8
Visible (ANSI)
100
AcDbLine
 10
6.201944553472936
 20
6.01463150137405
 30
0.0
 11
6.201584938695342
 21
6.014631501374046
 31
0.0
  0
LINE
  5
1A2
330
6C
100
AcDbEntity
  8
Visible (ANSI)
100
AcDbLine
 10
6.201584938695342
 20
6.014631501374046
 30
0.0
 11
6.169778140759016
 21
6.014631501374051
 31
0.0
  0
ARC
  5
1A3
330
6C
100
AcDbEntity
  8
Visible (ANSI)
100
AcDbCircle
 10
6.294384938695332
 20
6.05818773982568
 30
0.0
 40
0.1319999999999878
100
AcDbArc
 50
199.2670458749094
 51
206.8921189088805
  0
LINE
  5
1A4
330
6C
100
AcDbEntity
  8
Visible (ANSI)
100
AcDbLine
 10
6.208501626072571
 20
6.014631501374047
 30
0.0
 11
6.176659451166012
 21
5.998482550888863
 31
0.0
  0
LINE
  5
1A5
330
6C
100
AcDbEntity
  8
Visible (ANSI)
100
AcDbLine
 10
6.239089633946718
 20
6.030144393506875
 30
0.0
 11
6.232395000564401
 21
6.026749169929191
 31
0.0
  0
ARC
  5
1A6
330
6C
100
AcDbEntity
  8
Visible (ANSI)
100
AcDbCircle
 10
6.294384938695346
 20
6.058187739825686
 30
0.0
 40
0.0620000000000032
100
AcDbArc
 50
185.4808888756893
 51
206.8921189088796
  0
SPLINE
  5
1A7
330
6C
100
AcDbEntity
  8
Visible (ANSI)
100
AcDbSpline
210
0.0
220
0.0
230
1.0
 70
     8
 71
     3
 72
    12
 73
     8
 74
     0
 42
0.0000000001
 43
0.0000000001
 40
0.0
 40
0.0
 40
0.0
 40
0.0
 40
0.0430310869543731
 40
0.0430310869543731
 40
0.0963149875354558
 40
0.0963149875354558
 40
0.149543791433186
 40
0.149543791433186
 40
0.149543791433186
 40
0.149543791433186
 10
6.249238279776355
 20
5.934148313881946
 30
0.0
 10
6.244168482208858
 20
5.935993569290269
 30
0.0
 10
6.23662823729521
 20
5.939068224585372
 30
0.0
 10
6.217163962751683
 20
5.950409090249734
 30
0.0
 10
6.207210203900584
 20
5.958258254415011
 30
0.0
 10
6.189763612213715
 20
5.976705342904016
 30
0.0
 10
6.182408018316931
 20
5.987147642106429
 30
0.0
 10
6.176659451166014
 20
5.998482550888863
 30
0.0
  0
LINE
  5
1A8
330
6C
100
AcDbEntity
  8
Visible (ANSI)
100
AcDbLine
 10
6.262731177216875
 20
5.971219744922793
 30
0.0
 11
6.249238279776354
 21
5.934148313881944
 31
0.0
  0
LINE
  5
1A9
330
6C
100
AcDbEntity
  8
Visible (ANSI)
100
AcDbLine
 10
6.27317968980915
 20
5.999926797336958
 30
0.0
 11
6.262731177216875
 21
5.971219744922793
 31
0.0
  0
SPLINE
  5
1AA
330
6C
100
AcDbEntity
  8
Visible (ANSI)
100
AcDbSpline
210
0.0
220
0.0
230
1.0
 70
     8
 71
     3
 72
    12
 73
     8
 74
     0
 42
0.0000000001
 43
0.0000000001
 40
0.0
 40
0.0
 40
0.0
 40
0.0
 40
0.0447844537739673
 40
0.0447844537739673
 40
0.0837814961006823
 40
0.0837814961006823
 40
0.1366049009199828
 40
0.1366049009199828
 40
0.1366049009199828
 40
0.1366049009199828
 10
6.239089633946719
 20
6.030144393506875
 30
0.0
 10
6.241722144301191
 20
6.024953662677193
 30
0.0
 10
6.245081097116241
 20
6.020150029177317
 30
0.0
 10
6.252491958896809
 20
6.012203410731006
 30
0.0
 10
6.256292586306971
 20
6.009037721816803
 30
0.0
 10
6.265671117056418
 20
6.002859075323741
 30
0.0
 10
6.270344345388282
 20
6.000958778310045
 30
0.0
 10
6.273179689809182
 20
5.999926797336947
 30
0.0
  0
LINE
  5
1AB
330
6C
100
AcDbEntity
  8
Visible (ANSI)
100
AcDbLine
 10
6.169778140759016
 20
6.014631501374051
 30
0.0
 11
6.162384938695343
 21
6.01463150137405
 31
0.0
  0
LINE
  5
1AC
330
6C
100
AcDbEntity
  8
Visible (ANSI)
100
AcDbLine
 10
6.162384938695343
 20
6.01463150137405
 30
0.0
 11
6.162384938695343
 21
6.058187739825685
 31
0.0
  0
LINE
  5
1AD
330
6C
100
AcDbEntity
  8
Visible (ANSI)
100
AcDbLine
 10
6.232384938695342
 20
6.01463150137405
 30
0.0
 11
6.208501626072571
 21
6.014631501374047
 31
0.0
  0
LINE
  5
1AE
330
6C
100
AcDbEntity
  8
Visible (ANSI)
100
AcDbLine
 10
6.162384938695343
 20
6.058187739825685
 30
0.0
 11
6.162384938695346
 21
10.94181226017431
 31
0.0
  0
SPLINE
  5
1AF
330
6C
100
AcDbEntity
  8
Visible (ANSI)
100
AcDbSpline
210
0.0
220
0.0
230
1.0
 70
     8
 71
     3
 72
    18
 73
    14
 74
     0
 42
0.0000000001
 43
0.0000000001
 40
0.0
 40
0.0
 40
0.0
 40
0.0
 40
0.0825085194092507
 40
0.0825085194092507
 40
0.1675381341389686
 40
0.1675381341389686
 40
0.2693387279903901
 40
0.2693387279903901
 40
0.374394066003397
 40
0.374394066003397
 40
0.4661749579255999
 40
0.4661749579255999
 40
0.5577143937407123
 40
0.5577143937407123
 40
0.5577143937407123
 40
0.5577143937407123
 10
6.162384938695343
 20
6.01463150137405
 30
0.0
 10
6.162384938695343
 20
6.025363118471578
 30
0.0
 10
6.162335478601406
 20
6.036872997127088
 30
0.0
 10
6.16331894727724
 20
6.060798478500137
 30
0.0
 10
6.164413786461728
 20
6.071688897824493
 30
0.0
 10
6.169869630834919
 20
6.093080987605377
 30
0.0
 10
6.174751131199348
 20
6.102719617818403
 30
0.0
 10
6.190091463198132
 20
6.119199888401058
 30
0.0
 10
6.200440227731827
 20
6.125640218872593
 30
0.0
 10
6.224441507221969
 20
6.134847052506486
 30
0.0
 10
6.237224402349204
 20
6.137860219730226
 30
0.0
 10
6.264964896988876
 20
6.141609819778611
 30
0.0
 10
6.27961750710498
 20
6.142311987479668
 30
0.0
 10
6.294384938695343
 20
6.141876143817985
 30
0.0
  0
SPLINE
  5
1B0
330
6C
100
AcDbEntity
  8
Visible (ANSI)
100
AcDbSpline
210
0.0
220
0.0
230
1.0
 70
     8
 71
     3
 72
    18
 73
    14
 74
     0
 42
0.0000000001
 43
0.0000000001
 40
0.0136459065777249
 40
0.0136459065777249
 40
0.0136459065777249
 40
0.0136459065777249
 40
0.0437974267573149
 40
0.0437974267573149
 40
0.0907018522358021
 40
0.0907018522358021
 40
0.144497773897534
 40
0.144497773897534
 40
0.2103288059396452
 40
0.2103288059396452
 40
0.2698796928579882
 40
0.2698796928579882
 40
0.3539803553841344
 40
0.3539803553841344
 40
0.3539803553841344
 40
0.3539803553841344
 10
6.289041416279468
 20
6.141984808166748
 30
0.0
 10
6.285124219739919
 20
6.14189645639574
 30
0.0
 10
6.281258753220265
 20
6.141437115396903
 30
0.0
 10
6.27169898374035
 20
6.139333218835805
 30
0.0
 10
6.266397865425493
 20
6.137218751394865
 30
0.0
 10
6.256341415711885
 20
6.131138683820452
 30
0.0
 10
6.25162497615688
 20
6.126863317743811
 30
0.0
 10
6.242855235058668
 20
6.114663649302421
 30
0.0
 10
6.239367620334793
 20
6.106374923370067
 30
0.0
 10
6.234885245761582
 20
6.086977997637805
 30
0.0
 10
6.233741419387823
 20
6.076524775792092
 30
0.0
 10
6.232252969834154
 20
6.047734751026008
 30
0.0
 10
6.232384938695343
 20
6.030487847006522
 30
0.0
 10
6.232384938695343
 20
6.01463150137405
 30
0.0
  0
SPLINE
  5
1B1
330
6C
100
AcDbEntity
  8
Visible (ANSI)
100
AcDbSpline
210
0.0
220
0.0
230
1.0
 70
     8
 71
     3
 72
    18
 73
    14
 74
     0
 42
0.0000000001
 43
0.0000000001
 40
0.0
 40
0.0
 40
0.0
 40
0.0
 40
0.1188717060401955
 40
0.1188717060401955
 40
0.2392425706074543
 40
0.2392425706074543
 40
0.3659231536326863
 40
0.3659231536326863
 40
0.5064326660666984
 40
0.5064326660666984
 40
0.5889497790166139
 40
0.5889497790166139
 40
0.6971691953585825
 40
0.6971691953585825
 40
0.6971691953585825
 40
0.6971691953585825
 10
6.294384938695346
 20
10.85812385618201
 30
0.0
 10
6.27879176714262
 20
10.85766364176049
 30
0.0
 10
6.263336587850663
 20
10.85846987717632
 30
0.0
 10
6.234125932836861
 20
10.86272482616379
 30
0.0
 10
6.220756653018287
 20
10.86615335188872
 30
0.0
 10
6.197178042448634
 20
10.8762188259167
 30
0.0
 10
6.187529908658999
 20
10.8828618449624
 30
0.0
 10
6.172367344984365
 20
10.90082844489453
 30
0.0
 10
6.167887524854213
 20
10.91203539818002
 30
0.0
 10
6.163988340887622
 20
10.93305194781225
 30
0.0
 10
6.163243719566554
 20
10.9415045469367
 30
0.0
 10
6.162330943222065
 20
10.96265655958788
 30
0.0
 10
6.162384938695347
 20
10.97440238069089
 30
0.0
 10
6.162384938695347
 20
10.98536849862591
 30
0.0
  0
SPLINE
  5
1B2
330
6C
100
AcDbEntity
  8
Visible (ANSI)
100
AcDbSpline
210
0.0
220
0.0
230
1.0
 70
     8
 71
     3
 72
    18
 73
    14
 74
     0
 42
0.0000000001
 43
0.0000000001
 40
0.0
 40
0.0
 40
0.0
 40
0.0
 40
0.074537733156995
 40
0.074537733156995
 40
0.1898407362050077
 40
0.1898407362050077
 40
0.2759942848164561
 40
0.2759942848164561
 40
0.3449741476319495
 40
0.3449741476319495
 40
0.3928422727361139
 40
0.3928422727361139
 40
0.4221650287355835
 40
0.4221650287355835
 40
0.4221650287355835
 40
0.4221650287355835
 10
6.232384938695347
 20
10.98536849862591
 30
0.0
 10
6.232384938695347
 20
10.97560590447653
 30
0.0
 10
6.23233951195885
 20
10.96368360284284
 30
0.0
 10
6.233008060288108
 20
10.93060537757214
 30
0.0
 10
6.234194340619781
 20
10.91368393987646
 30
0.0
 10
6.240934463209491
 20
10.8892603548455
 30
0.0
 10
6.245166621582223
 20
10.88105993854153
 30
0.0
 10
6.255393603975073
 20
10.8695380309724
 30
0.0
 10
6.260740147411657
 20
10.86570752554441
 30
0.0
 10
6.270824190677361
 20
10.86109139214138
 30
0.0
 10
6.275320345906341
 20
10.8597052873572
 30
0.0
 10
6.283033116001753
 20
10.85837257986568
 30
0.0
 10
6.286024108558146
 20
10.85808403462523
 30
0.0
 10
6.289041399893091
 20
10.8580156322744
 30
0.0
  0
ARC
  5
1B3
330
6C
100
AcDbEntity
  8
Visible (ANSI)
100
AcDbCircle
 10
6.294384938695326
 20
10.94181226017432
 30
0.0
 40
0.0619999999999805
100
AcDbArc
 50
153.1078810911368
 51
174.5191111243073
  0
LINE
  5
1B4
330
6C
100
AcDbEntity
  8
Visible (ANSI)
100
AcDbLine
 10
6.239089633946711
 20
10.9698556064931
 30
0.0
 11
6.232395000564405
 21
10.97325083007078
 31
0.0
  0
SPLINE
  5
1B5
330
6C
100
AcDbEntity
  8
Visible (ANSI)
100
AcDbSpline
210
0.0
220
0.0
230
1.0
 70
     8
 71
     3
 72
    12
 73
     8
 74
     0
 42
0.0000000001
 43
0.0000000001
 40
0.0
 40
0.0
 40
0.0
 40
0.0
 40
0.1195541800790786
 40
0.1195541800790786
 40
0.1877678317403692
 40
0.1877678317403692
 40
0.2766736471331273
 40
0.2766736471331273
 40
0.2766736471331273
 40
0.2766736471331273
 10
6.176659451165996
 20
11.00151744911109
 30
0.0
 10
6.183740629258575
 20
11.01547997327484
 30
0.0
 10
6.193266309871853
 20
11.02807943769286
 30
0.0
 10
6.211231163141401
 20
11.04471298125031
 30
0.0
 10
6.218312421921271
 20
11.05004264424174
 30
0.0
 10
6.235564457273687
 20
11.06053330262005
 30
0.0
 10
6.24391359217427
 20
11.06391365832413
 30
0.0
 10
6.249238279776471
 20
11.06585168611809
 30
0.0
  0
LINE
  5
1B6
330
6C
100
AcDbEntity
  8
Visible (ANSI)
100
AcDbLine
 10
6.208501626072565
 20
10.98536849862592
 30
0.0
 11
6.176659451165994
 21
11.00151744911109
 31
0.0
  0
SPLINE
  5
1B7
330
6C
100
AcDbEntity
  8
Visible (ANSI)
100
AcDbSpline
210
0.0
220
0.0
230
1.0
 70
     8
 71
     3
 72
    14
 73
    10
 74
     0
 42
0.0000000001
 43
0.0000000001
 40
0.0
 40
0.0
 40
0.0
 40
0.0
 40
0.0194037065101429
 40
0.0194037065101429
 40
0.0473160650259598
 40
0.0473160650259598
 40
0.0612772440338388
 40
0.0612772440338388
 40
0.0752159922643262
 40
0.0752159922643262
 40
0.0752159922643262
 40
0.0752159922643262
 10
6.273179689809241
 20
11.00007320266307
 30
0.0
 10
6.271181427891223
 20
10.99934589480465
 30
0.0
 10
6.268197553696849
 20
10.99815473600942
 30
0.0
 10
6.259570076484227
 20
10.99344131403476
 30
0.0
 10
6.254640744300216
 20
10.98981634156742
 30
0.0
 10
6.247984824685336
 20
10.98305586318629
 30
0.0
 10
6.245923101055888
 20
10.98061596004044
 30
0.0
 10
6.242182499466087
 20
10.97541507513266
 30
0.0
 10
6.240525853843988
 20
10.97268751592371
 30
0.0
 10
6.239089633946711
 20
10.9698556064931
 30
0.0
  0
LINE
  5
1B8
330
6C
100
AcDbEntity
  8
Visible (ANSI)
100
AcDbLine
 10
6.262731177216825
 20
11.02878025507735
 30
0.0
 11
6.273179689809155
 21
11.00007320266304
 31
0.0
  0
LINE
  5
1B9
330
6C
100
AcDbEntity
  8
Visible (ANSI)
100
AcDbLine
 10
6.249238279776357
 20
11.06585168611805
 30
0.0
 11
6.262731177216825
 21
11.02878025507735
 31
0.0
  0
LINE
  5
1BA
330
6C
100
AcDbEntity
  8
Visible (ANSI)
100
AcDbLine
 10
6.201584938695346
 20
10.98536849862592
 30
0.0
 11
6.208501626072565
 21
10.98536849862592
 31
0.0
  0
ARC
  5
1BB
330
6C
100
AcDbEntity
  8
Visible (ANSI)
100
AcDbCircle
 10
6.294384938695396
 20
10.94181226017429
 30
0.0
 40
0.1320000000000522
100
AcDbArc
 50
153.1078810911436
 51
160.7329541251017
  0
LINE
  5
1BC
330
6C
100
AcDbEntity
  8
Visible (ANSI)
100
AcDbLine
 10
6.169778140759011
 20
10.98536849862592
 30
0.0
 11
6.201584938695346
 21
10.98536849862592
 31
0.0
  0
LINE
  5
1BD
330
6C
100
AcDbEntity
  8
Visible (ANSI)
100
AcDbLine
 10
6.162384938695346
 20
10.94181226017431
 30
0.0
 11
6.162384938695346
 21
10.98536849862591
 31
0.0
  0
LINE
  5
1BE
330
6C
100
AcDbEntity
  8
Visible (ANSI)
100
AcDbLine
 10
6.162384938695346
 20
10.98536849862591
 30
0.0
 11
6.169778140759011
 21
10.98536849862592
 31
0.0
  0
LINE
  5
1BF
330
6C
100
AcDbEntity
  8
Visible (ANSI)
100
AcDbLine
 10
6.208501626072565
 20
10.98536849862592
 30
0.0
 11
6.232384938695346
 21
10.98536849862591
 31
0.0
  0
LINE
  5
1C0
330
6C
100
AcDbEntity
  8
Visible (ANSI)
100
AcDbLine
 10
15.21553247497491
 20
10.98536849862592
 30
0.0
 11
15.22305542479091
 21
10.98536849862592
 31
0.0
  0
LINE
  5
1C1
330
6C
100
AcDbEntity
  8
Visible (ANSI)
100
AcDbLine
 10
15.22305542479091
 20
10.98536849862592
 30
0.0
 11
15.22341503956874
 21
10.98536849862592
 31
0.0
  0
LINE
  5
1C2
330
6C
100
AcDbEntity
  8
Visible (ANSI)
100
AcDbLine
 10
15.22341503956874
 20
10.98536849862592
 30
0.0
 11
15.2539667057729
 21
10.98536849862592
 31
0.0
  0
ARC
  5
1C3
330
6C
100
AcDbEntity
  8
Visible (ANSI)
100
AcDbCircle
 10
15.12261503956891
 20
10.93692533826881
 30
0.0
 40
0.1399999999998201
100
AcDbArc
 50
20.2442299806297
 51
27.53560153514693
  0
LINE
  5
1C4
330
6C
100
AcDbEntity
  8
Visible (ANSI)
100
AcDbLine
 10
15.21553247497491
 20
10.98536849862592
 30
0.0
 11
15.24675636428786
 21
11.00164729356199
 31
0.0
  0
LINE
  5
1C5
330
6C
100
AcDbEntity
  8
Visible (ANSI)
100
AcDbLine
 10
15.1846857019283
 20
10.96928631591536
 30
0.0
 11
15.19260533514797
 21
10.97341527255685
 31
0.0
  0
ARC
  5
1C6
330
6C
100
AcDbEntity
  8
Visible (ANSI)
100
AcDbCircle
 10
15.12261503956875
 20
10.93692533826873
 30
0.0
 40
0.0699999999999979
100
AcDbArc
 50
5.981098083490048
 51
27.53560153514211
  0
SPLINE
  5
1C7
330
6C
100
AcDbEntity
  8
Visible (ANSI)
100
AcDbSpline
210
0.0
220
0.0
230
1.0
 70
     8
 71
     3
 72
    12
 73
     8
 74
     0
 42
0.0000000001
 43
0.0000000001
 40
0.0
 40
0.0
 40
0.0
 40
0.0
 40
0.0442721432798396
 40
0.0442721432798396
 40
0.099129781521382
 40
0.099129781521382
 40
0.1538959890937536
 40
0.1538959890937536
 40
0.1538959890937536
 40
0.1538959890937536
 10
15.17049785963434
 20
11.06848230517876
 30
0.0
 10
15.17565089737656
 20
11.06660675282454
 30
0.0
 10
15.18345715245243
 20
11.06344993950013
 30
0.0
 10
15.20382277904085
 20
11.05170581700459
 30
0.0
 10
15.2143046886757
 20
11.04355854393697
 30
0.0
 10
15.23276270350273
 20
11.02435835727097
 30
0.0
 10
15.24058956426349
 20
11.01347565568169
 30
0.0
 10
15.24675636428786
 20
11.00164729356199
 30
0.0
  0
LINE
  5
1C8
330
6C
100
AcDbEntity
  8
Visible (ANSI)
100
AcDbLine
 10
15.15699187971035
 20
11.03137493030999
 30
0.0
 11
15.17049785963434
 21
11.06848230517876
 31
0.0
  0
LINE
  5
1C9
330
6C
100
AcDbEntity
  8
Visible (ANSI)
100
AcDbLine
 10
15.14655644960154
 20
11.00270382172374
 30
0.0
 11
15.15699187971035
 21
11.03137493030999
 31
0.0
  0
SPLINE
  5
1CA
330
6C
100
AcDbEntity
  8
Visible (ANSI)
100
AcDbSpline
210
0.0
220
0.0
230
1.0
 70
     8
 71
     3
 72
    12
 73
     8
 74
     0
 42
0.0000000001
 43
0.0000000001
 40
0.0
 40
0.0
 40
0.0
 40
0.0
 40
0.049326400793712
 40
0.049326400793712
 40
0.0931915111499907
 40
0.0931915111499907
 40
0.1538342684501953
 40
0.1538342684501953
 40
0.1538342684501953
 40
0.1538342684501953
 10
15.1846857019283
 20
10.96928631591536
 30
0.0
 10
15.1817200500447
 20
10.97497464766953
 30
0.0
 10
15.17796884185298
 20
10.98024719420932
 30
0.0
 10
15.1696954448785
 20
10.98903792884161
 30
0.0
 10
15.16542151546437
 20
10.99256676830206
 30
0.0
 10
15.15480690263383
 20
10.99951841453232
 30
0.0
 10
15.14956021128647
 20
11.0016105418796
 30
0.0
 10
15.14655644960154
 20
11.00270382172374
 30
0.0
  0
LINE
  5
1CB
330
6C
100
AcDbEntity
  8
Visible (ANSI)
100
AcDbLine
 10
15.2539667057729
 20
10.98536849862592
 30
0.0
 11
15.26261503956875
 21
10.98536849862592
 31
0.0
  0
LINE
  5
1CC
330
6C
100
AcDbEntity
  8
Visible (ANSI)
100
AcDbLine
 10
15.26261503956875
 20
10.98536849862592
 30
0.0
 11
15.26261503956875
 21
10.93692533826873
 31
0.0
  0
LINE
  5
1CD
330
6C
100
AcDbEntity
  8
Visible (ANSI)
100
AcDbLine
 10
15.19261503956874
 20
10.98536849862592
 30
0.0
 11
15.21553247497491
 21
10.98536849862592
 31
0.0
  0
LINE
  5
1CE
330
6C
100
AcDbEntity
  8
Visible (ANSI)
100
AcDbLine
 10
15.26261503956875
 20
10.93692533826873
 30
0.0
 11
15.26261503956875
 21
6.063074661731267
 31
0.0
  0
SPLINE
  5
1CF
330
6C
100
AcDbEntity
  8
Visible (ANSI)
100
AcDbSpline
210
0.0
220
0.0
230
1.0
 70
     8
 71
     3
 72
    18
 73
    14
 74
     0
 42
0.0000000001
 43
0.0000000001
 40
0.0
 40
0.0
 40
0.0
 40
0.0
 40
0.0825085194170737
 40
0.0825085194170737
 40
0.167538134160044
 40
0.167538134160044
 40
0.2693387280273644
 40
0.2693387280273644
 40
0.3743940660568077
 40
0.3743940660568077
 40
0.4661749579929319
 40
0.4661749579929319
 40
0.5577143938219501
 40
0.5577143938219501
 40
0.5577143938219501
 40
0.5577143938219501
 10
15.26261503956875
 20
10.98536849862592
 30
0.0
 10
15.26261503956875
 20
10.97463688152737
 30
0.0
 10
15.26266449966265
 20
10.96312700287185
 30
0.0
 10
15.26168103098682
 20
10.9392015214995
 30
0.0
 10
15.26058619180231
 20
10.92831110217514
 30
0.0
 10
15.25513034742906
 20
10.90691901239434
 30
0.0
 10
15.25024884706459
 20
10.89728038218135
 30
0.0
 10
15.2349085150657
 20
10.88080011159874
 30
0.0
 10
15.22455975053195
 20
10.87435978112724
 30
0.0
 10
15.20055847104178
 20
10.86515294749342
 30
0.0
 10
15.18777557591459
 20
10.86213978026972
 30
0.0
 10
15.16003508127506
 20
10.85839018022138
 30
0.0
 10
15.14538247115905
 20
10.85768801252034
 30
0.0
 10
15.13061503956875
 20
10.85812385618201
 30
0.0
  0
SPLINE
  5
1D0
330
6C
100
AcDbEntity
  8
Visible (ANSI)
100
AcDbSpline
210
0.0
220
0.0
230
1.0
 70
     8
 71
     3
 72
    18
 73
    14
 74
     0
 42
0.0000000001
 43
0.0000000001
 40
0.0136459065778807
 40
0.0136459065778807
 40
0.0136459065778807
 40
0.0136459065778807
 40
0.0437974267578415
 40
0.0437974267578415
 40
0.0907018522366689
 40
0.0907018522366689
 40
0.1444977738977117
 40
0.1444977738977117
 40
0.2103288059361785
 40
0.2103288059361785
 40
0.2698796928493594
 40
0.2698796928493594
 40
0.353980355369486
 40
0.353980355369486
 40
0.353980355369486
 40
0.353980355369486
 10
15.13595856198468
 20
10.85801519183325
 30
0.0
 10
15.13987575852427
 20
10.85810354360426
 30
0.0
 10
15.14374122504395
 20
10.85856288460311
 30
0.0
 10
15.15330099452389
 20
10.86066678116424
 30
0.0
 10
15.15860211283873
 20
10.8627812486052
 30
0.0
 10
15.16865856255221
 20
10.86886131617957
 30
0.0
 10
15.17337500210724
 20
10.87313668225619
 30
0.0
 10
15.18214474320545
 20
10.88533635069766
 30
0.0
 10
15.18563235792935
 20
10.89362507663001
 30
0.0
 10
15.19011473250256
 20
10.91302200236261
 30
0.0
 10
15.19125855887629
 20
10.92347522420825
 30
0.0
 10
15.19274700842994
 20
10.95226524897447
 30
0.0
 10
15.19261503956874
 20
10.96951215299381
 30
0.0
 10
15.19261503956874
 20
10.98536849862592
 30
0.0
  0
SPLINE
  5
1D1
330
6C
100
AcDbEntity
  8
Visible (ANSI)
100
AcDbSpline
210
0.0
220
0.0
230
1.0
 70
     8
 71
     3
 72
    18
 73
    14
 74
     0
 42
0.0000000001
 43
0.0000000001
 40
0.0
 40
0.0
 40
0.0
 40
0.0
 40
0.118871706040399
 40
0.118871706040399
 40
0.2392425706077677
 40
0.2392425706077677
 40
0.3659231536332943
 40
0.3659231536332943
 40
0.5064326660676148
 40
0.5064326660676148
 40
0.5889497790174005
 40
0.5889497790174005
 40
0.6971691953583071
 40
0.6971691953583071
 40
0.6971691953583071
 40
0.6971691953583071
 10
15.13061503956875
 20
6.141876143817984
 30
0.0
 10
15.1462082111215
 20
6.142336358239506
 30
0.0
 10
15.16166339041347
 20
6.141530122823676
 30
0.0
 10
15.19087404542729
 20
6.137275173836192
 30
0.0
 10
15.20424332524586
 20
6.133846648111257
 30
0.0
 10
15.22782193581553
 20
6.123781174083251
 30
0.0
 10
15.23747006960518
 20
6.117138155037517
 30
0.0
 10
15.25263263327975
 20
6.099171555105407
 30
0.0
 10
15.25711245340991
 20
6.087964601819877
 30
0.0
 10
15.26101163737648
 20
6.066948052187634
 30
0.0
 10
15.26175625869754
 20
6.058495453063192
 30
0.0
 10
15.26266903504202
 20
6.037343440412141
 30
0.0
 10
15.26261503956875
 20
6.025597619309144
 30
0.0
 10
15.26261503956875
 20
6.014631501374066
 30
0.0
  0
SPLINE
  5
1D2
330
6C
100
AcDbEntity
  8
Visible (ANSI)
100
AcDbSpline
210
0.0
220
0.0
230
1.0
 70
     8
 71
     3
 72
    18
 73
    14
 74
     0
 42
0.0000000001
 43
0.0000000001
 40
0.0
 40
0.0
 40
0.0
 40
0.0
 40
0.0745377331564043
 40
0.0745377331564043
 40
0.1898407362021732
 40
0.1898407362021732
 40
0.2759942848151897
 40
0.2759942848151897
 40
0.344974147633946
 40
0.344974147633946
 40
0.3928422727384401
 40
0.3928422727384401
 40
0.4221650287382051
 40
0.4221650287382051
 40
0.4221650287382051
 40
0.4221650287382051
 10
15.19261503956874
 20
6.014631501374066
 30
0.0
 10
15.19261503956874
 20
6.024394095523366
 30
0.0
 10
15.19266046630524
 20
6.036316397156969
 30
0.0
 10
15.19199191797601
 20
6.069394622427158
 30
0.0
 10
15.19080563764444
 20
6.08631606012296
 30
0.0
 10
15.18406551505447
 20
6.110739645155043
 30
0.0
 10
15.17983335668156
 20
6.118940061458786
 30
0.0
 10
15.1696063742893
 20
6.130461969027314
 30
0.0
 10
15.16425983085276
 20
6.134292474455424
 30
0.0
 10
15.15417578758683
 20
6.138908607858576
 30
0.0
 10
15.14967963235783
 20
6.14029471264278
 30
0.0
 10
15.14196686226236
 20
6.141627420134309
 30
0.0
 10
15.13897586970595
 20
6.141915965374765
 30
0.0
 10
15.13595857837098
 20
6.141984367725594
 30
0.0
  0
ARC
  5
1D3
330
6C
100
AcDbEntity
  8
Visible (ANSI)
100
AcDbCircle
 10
15.12261503956873
 20
6.063074661731271
 30
0.0
 40
0.070000000000015
100
AcDbArc
 50
332.4643984648525
 51
354.0189019164965
  0
LINE
  5
1D4
330
6C
100
AcDbEntity
  8
Visible (ANSI)
100
AcDbLine
 10
15.1846857019283
 20
6.030713684084632
 30
0.0
 11
15.19260533514797
 21
6.026584727443141
 31
0.0
  0
SPLINE
  5
1D5
330
6C
100
AcDbEntity
  8
Visible (ANSI)
100
AcDbSpline
210
0.0
220
0.0
230
1.0
 70
     8
 71
     3
 72
    14
 73
    10
 74
     0
 42
0.0000000001
 43
0.0000000001
 40
0.0
 40
0.0
 40
0.0
 40
0.0
 40
0.0619576122475979
 40
0.0619576122475979
 40
0.1650109035897181
 40
0.1650109035897181
 40
0.2165629748250552
 40
0.2165629748250552
 40
0.2682010484743906
 40
0.2682010484743906
 40
0.2682010484743906
 40
0.2682010484743906
 10
15.24675636428786
 20
5.998352706437995
 30
0.0
 10
15.24300598735149
 20
5.99115921608427
 30
0.0
 10
15.23863862232707
 20
5.984306491053952
 30
0.0
 10
15.2254801005686
 20
5.967152384009674
 30
0.0
 10
15.21578825356539
 20
5.957738486441469
 30
0.0
 10
15.19965613580192
 20
5.945989425389632
 30
0.0
 10
15.19404574656522
 20
5.942490938292196
 30
0.0
 10
15.18248240280597
 20
5.936351254517038
 30
0.0
 10
15.17667460469929
 20
5.933765846169532
 30
0.0
 10
15.17049785963434
 20
5.931517694821241
 30
0.0
  0
LINE
  5
1D6
330
6C
100
AcDbEntity
  8
Visible (ANSI)
100
AcDbLine
 10
15.21553247497491
 20
6.014631501374067
 30
0.0
 11
15.24675636428785
 21
5.998352706437995
 31
0.0
  0
SPLINE
  5
1D7
330
6C
100
AcDbEntity
  8
Visible (ANSI)
100
AcDbSpline
210
0.0
220
0.0
230
1.0
 70
     8
 71
     3
 72
    14
 73
    10
 74
     0
 42
0.0000000001
 43
0.0000000001
 40
0.0
 40
0.0
 40
0.0
 40
0.0
 40
0.021341910687844
 40
0.021341910687844
 40
0.0516347629984791
 40
0.0516347629984791
 40
0.0669281753921726
 40
0.0669281753921726
 40
0.0821766814687031
 40
0.0821766814687031
 40
0.0821766814687031
 40
0.0821766814687031
 10
15.14655644960154
 20
5.997296178276253
 30
0.0
 10
15.14871190332954
 20
5.998080699274582
 30
0.0
 10
15.15200603913522
 20
5.999384867016705
 30
0.0
 10
15.1615718600055
 20
6.004567351808703
 30
0.0
 10
15.16705347510293
 20
6.008535333918808
 30
0.0
 10
15.17453866326881
 20
6.015994878967216
 30
0.0
 10
15.17688084937544
 20
6.018710222748141
 30
0.0
 10
15.18114273636572
 20
6.024507653241349
 30
0.0
 10
15.18303696005581
 20
6.027551279623225
 30
0.0
 10
15.1846857019283
 20
6.030713684084632
 30
0.0
  0
LINE
  5
1D8
330
6C
100
AcDbEntity
  8
Visible (ANSI)
100
AcDbLine
 10
15.15699187971043
 20
5.968625069689798
 30
0.0
 11
15.14655644960154
 21
5.997296178276253
 31
0.0
  0
LINE
  5
1D9
330
6C
100
AcDbEntity
  8
Visible (ANSI)
100
AcDbLine
 10
15.17049785963434
 20
5.93151769482124
 30
0.0
 11
15.15699187971043
 21
5.968625069689798
 31
0.0
  0
LINE
  5
1DA
330
6C
100
AcDbEntity
  8
Visible (ANSI)
100
AcDbLine
 10
15.22341503956874
 20
6.014631501374067
 30
0.0
 11
15.21553247497491
 21
6.014631501374067
 31
0.0
  0
ARC
  5
1DB
330
6C
100
AcDbEntity
  8
Visible (ANSI)
100
AcDbCircle
 10
15.12261503956876
 20
6.063074661731259
 30
0.0
 40
0.1399999999999785
100
AcDbArc
 50
332.4643984648499
 51
339.7557700193589
  0
LINE
  5
1DC
330
6C
100
AcDbEntity
  8
Visible (ANSI)
100
AcDbLine
 10
15.25396670577289
 20
6.014631501374066
 30
0.0
 11
15.22341503956874
 21
6.014631501374067
 31
0.0
  0
LINE
  5
1DD
330
6C
100
AcDbEntity
  8
Visible (ANSI)
100
AcDbLine
 10
15.26261503956875
 20
6.063074661731267
 30
0.0
 11
15.26261503956875
 21
6.014631501374067
 31
0.0
  0
LINE
  5
1DE
330
6C
100
AcDbEntity
  8
Visible (ANSI)
100
AcDbLine
 10
15.26261503956875
 20
6.014631501374067
 30
0.0
 11
15.25396670577289
 21
6.014631501374066
 31
0.0
  0
LINE
  5
1DF
330
6C
100
AcDbEntity
  8
Visible (ANSI)
100
AcDbLine
 10
15.21553247497491
 20
6.014631501374067
 30
0.0
 11
15.19261503956874
 21
6.014631501374067
 31
0.0
  0
ENDSEC
  0
SECTION
  2
OBJECTS
  0
DICTIONARY
  5
C
330
0
100
AcDbDictionary
281
     1
  3
ACAD_CIP_PREVIOUS_PRODUCT_INFO
350
1E0
  3
ACAD_COLOR
350
63
  3
ACAD_GROUP
350
D
  3
ACAD_LAYOUT
350
62
  3
ACAD_MATERIAL
350
10
  3
ACAD_MLEADERSTYLE
350
66
  3
ACAD_MLINESTYLE
350
5F
  3
ACAD_PLOTSETTINGS
350
61
  3
ACAD_PLOTSTYLENAME
350
E
  3
ACAD_SCALELIST
350
42
  3
ACAD_TABLESTYLE
350
64
  3
ACAD_VISUALSTYLE
350
29
  3
ACDB_RECOMPOSE_DATA
350
239
  3
AcDbVariableDictionary
350
76
  3
DWGPROPS
350
23A
  0
DICTIONARY
  5
1E7
330
8
100
AcDbDictionary
280
     1
281
     1
  0
XRECORD
  5
1E0
102
{ACAD_REACTORS
330
C
102
}
330
C
100
AcDbXrecord
280
     1
300
AMECH_PP
300
2012
300
85794PDSS_2012_0F
  0
DICTIONARY
  5
63
102
{ACAD_REACTORS
330
C
102
}
330
C
100
AcDbDictionary
281
     1
  0
DICTIONARY
  5
D
102
{ACAD_REACTORS
330
C
102
}
330
C
100
AcDbDictionary
281
     1
  0
DICTIONARY
  5
62
102
{ACAD_REACTORS
330
C
102
}
330
C
100
AcDbDictionary
281
     1
  3
Layout1
350
6B
  3
Layout2
350
73
  3
Model
350
6F
  0
DICTIONARY
  5
10
102
{ACAD_REACTORS
330
C
102
}
330
C
100
AcDbDictionary
281
     1
  3
ByBlock
350
19
  3
ByLayer
350
11
  3
Global
350
21
  0
DICTIONARY
  5
66
102
{ACAD_REACTORS
330
C
102
}
330
C
100
AcDbDictionary
281
     1
  3
Standard
350
67
  0
DICTIONARY
  5
5F
102
{ACAD_REACTORS
330
C
102
}
330
C
100
AcDbDictionary
281
     1
  3
Standard
350
60
  0
DICTIONARY
  5
61
102
{ACAD_REACTORS
330
C
102
}
330
C
100
AcDbDictionary
281
     1
  0
ACDBDICTIONARYWDFLT
  5
E
102
{ACAD_REACTORS
330
C
102
}
330
C
100
AcDbDictionary
281
     1
  3
Normal
350
F
100
AcDbDictionaryWithDefault
340
F
  0
DICTIONARY
  5
42
102
{ACAD_REACTORS
330
C
102
}
330
C
100
AcDbDictionary
281
     1
  3
A0
350
43
  3
A1
350
44
  3
A2
350
45
  3
A3
350
46
  3
A4
350
47
  3
A5
350
48
  3
A6
350
49
  3
A7
350
4A
  3
A8
350
4B
  3
A9
350
4C
  3
B0
350
4D
  3
B1
350
4E
  3
B2
350
4F
  3
B3
350
50
  3
B4
350
51
  3
B5
350
52
  3
B6
350
53
  0
DICTIONARY
  5
64
102
{ACAD_REACTORS
330
C
102
}
330
C
100
AcDbDictionary
281
     1
  3
Standard
350
65
  0
DICTIONARY
  5
29
102
{ACAD_REACTORS
330
C
102
}
330
C
100
AcDbDictionary
281
     1
  3
2dWireframe
350
2F
  3
Basic
350
2E
  3
Brighten
350
35
  3
ColorChange
350
39
  3
Conceptual
350
32
  3
Dim
350
34
  3
EdgeColorOff
350
41
  3
Facepattern
350
38
  3
Flat
350
2A
  3
FlatWithEdges
350
2B
  3
Gouraud
350
2C
  3
GouraudWithEdges
350
2D
  3
Hidden
350
31
  3
JitterOff
350
3F
  3
Linepattern
350
37
  3
OverhangOff
350
40
  3
Realistic
350
33
  3
Shaded
350
3E
  3
Shaded with edges
350
3D
  3
Shades of Gray
350
3A
  3
Sketchy
350
3B
  3
Thicken
350
36
  3
Wireframe
350
30
  3
X-Ray
350
3C
  0
XRECORD
  5
239
102
{ACAD_REACTORS
330
C
102
}
330
C
100
AcDbXrecord
280
     1
 90
        1
330
65
  0
DICTIONARY
  5
76
102
{ACAD_REACTORS
330
C
102
}
330
C
100
AcDbDictionary
281
     1
  3
CANNOSCALE
350
79
  3
CMLEADERSTYLE
350
78
  3
CTABLESTYLE
350
77
  3
DIMASSOC
350
22B
  3
HIDETEXT
350
22A
  3
INDEXCTL
350
229
  3
LAYEREVAL
350
226
  3
LAYERNOTIFY
350
227
  3
LIGHTINGUNITS
350
225
  3
MSLTSCALE
350
224
  3
SORTENTS
350
228
  3
XCLIPFRAME
350
234
  0
XRECORD
  5
23A
102
{ACAD_REACTORS
330
C
102
}
330
C
100
AcDbXrecord
280
     1
  1
DWGPROPS COOKIE
  2

  3

  4
JIM WALLS
  6

  7

  8
jwalls
  9

300
Manager=
301
Company=
302
Category=
303
Part Number=
304
Description=
305
Project=
306
Designer=JIM WALLS
307
Engineer=
308
Authority=
309
Cost Center=
 40
0.0011161921296296
 41
2456240.497128183
 42
2456240.522565197
  1

 90
       16
300
Vendor=
300
User Status=
300
Design Status=WorkInProgress
300
Checked by=
300
Engr Approved by=
300
Mfg Approved by=
  0
LAYOUT
  5
6B
102
{ACAD_XDICTIONARY
360
26F
102
}
102
{ACAD_REACTORS
330
62
102
}
330
62
100
AcDbPlotSettings
  1

  2

  4

  6

 40
0.0
 41
0.0
 42
0.0
 43
0.0
 44
0.0
 45
0.0
 46
0.0
 47
0.0
 48
0.0
 49
0.0
140
0.0
141
0.0
142
1.0
143
1.0
 70
   688
 72
     0
 73
     0
 74
     5
  7

 75
    16
147
1.0
148
0.0
149
0.0
100
AcDbLayout
  1
Layout1
 70
     1
 71
     1
 10
0.0
 20
0.0
 11
22.0
 21
17.0
 12
0.0
 22
0.0
 32
0.0
 14
0.0
 24
0.0
 34
0.0
 15
22.0
 25
17.0
 35
0.0
146
0.0
 13
0.0
 23
0.0
 33
0.0
 16
1.0
 26
0.0
 36
0.0
 17
0.0
 27
1.0
 37
0.0
 76
     0
330
68
  0
LAYOUT
  5
73
102
{ACAD_XDICTIONARY
360
273
102
}
102
{ACAD_REACTORS
330
62
102
}
330
62
100
AcDbPlotSettings
  1

  2

  4

  6

 40
0.0
 41
0.0
 42
0.0
 43
0.0
 44
0.0
 45
0.0
 46
0.0
 47
0.0
 48
0.0
 49
0.0
140
0.0
141
0.0
142
1.0
143
1.0
 70
   688
 72
     0
 73
     0
 74
     5
  7

 75
    16
147
1.0
148
0.0
149
0.0
100
AcDbLayout
  1
Layout2
 70
     1
 71
     2
 10
0.0
 20
0.0
 11
12.0
 21
9.0
 12
0.0
 22
0.0
 32
0.0
 14
0.0
 24
0.0
 34
0.0
 15
0.0
 25
0.0
 35
0.0
146
0.0
 13
0.0
 23
0.0
 33
0.0
 16
1.0
 26
0.0
 36
0.0
 17
0.0
 27
1.0
 37
0.0
 76
     0
330
70
  0
LAYOUT
  5
6F
102
{ACAD_XDICTIONARY
360
271
102
}
102
{ACAD_REACTORS
330
62
102
}
330
62
100
AcDbPlotSettings
  1

  2

  4

  6

 40
0.0
 41
0.0
 42
0.0
 43
0.0
 44
0.0
 45
0.0
 46
0.0
 47
0.0
 48
0.0
 49
0.0
140
0.0
141
0.0
142
1.0
143
1.0
 70
  1712
 72
     0
 73
     0
 74
     0
  7

 75
     0
147
1.0
148
0.0
149
0.0
100
AcDbLayout
  1
Model
 70
     1
 71
     0
 10
0.0
 20
0.0
 11
12.0
 21
9.0
 12
0.0
 22
0.0
 32
0.0
 14
0.0
 24
0.0
 34
0.0
 15
0.0
 25
0.0
 35
0.0
146
0.0
 13
0.0
 23
0.0
 33
0.0
 16
1.0
 26
0.0
 36
0.0
 17
0.0
 27
1.0
 37
0.0
 76
     0
330
6C
331
57
  0
MATERIAL
  5
19
102
{ACAD_XDICTIONARY
360
1A
102
}
102
{ACAD_REACTORS
330
10
102
}
330
10
100
AcDbMaterial
  1
ByBlock
 72
     0
 43
0.0208333333333333
 43
0.0
 43
0.0
 43
0.0
 43
0.0
 43
0.0208333333333333
 43
0.0
 43
0.0
 43
0.0
 43
0.0
 43
1.0
 43
0.0
 43
0.0
 43
0.0
 43
0.0
 43
1.0
 77
     0
 47
0.0208333333333333
 47
0.0
 47
0.0
 47
0.0
 47
0.0
 47
0.0208333333333333
 47
0.0
 47
0.0
 47
0.0
 47
0.0
 47
1.0
 47
0.0
 47
0.0
 47
0.0
 47
0.0
 47
1.0
171
     0
 49
0.0208333333333333
 49
0.0
 49
0.0
 49
0.0
 49
0.0
 49
0.0208333333333333
 49
0.0
 49
0.0
 49
0.0
 49
0.0
 49
1.0
 49
0.0
 49
0.0
 49
0.0
 49
0.0
 49
1.0
175
     0
142
0.0208333333333333
142
0.0
142
0.0
142
0.0
142
0.0
142
0.0208333333333333
142
0.0
142
0.0
142
0.0
142
0.0
142
1.0
142
0.0
142
0.0
142
0.0
142
0.0
142
1.0
179
     0
144
0.0208333333333333
144
0.0
144
0.0
144
0.0
144
0.0
144
0.0208333333333333
144
0.0
144
0.0
144
0.0
144
0.0
144
1.0
144
0.0
144
0.0
144
0.0
144
0.0
144
1.0
147
0.0208333333333333
147
0.0
147
0.0
147
0.0
147
0.0
147
0.0208333333333333
147
0.0
147
0.0
147
0.0
147
0.0
147
1.0
147
0.0
147
0.0
147
0.0
147
0.0
147
1.0
  0
MATERIAL
  5
11
102
{ACAD_XDICTIONARY
360
12
102
}
102
{ACAD_REACTORS
330
10
102
}
330
10
100
AcDbMaterial
  1
ByLayer
 72
     0
 43
0.0208333333333333
 43
0.0
 43
0.0
 43
0.0
 43
0.0
 43
0.0208333333333333
 43
0.0
 43
0.0
 43
0.0
 43
0.0
 43
1.0
 43
0.0
 43
0.0
 43
0.0
 43
0.0
 43
1.0
 77
     0
 47
0.0208333333333333
 47
0.0
 47
0.0
 47
0.0
 47
0.0
 47
0.0208333333333333
 47
0.0
 47
0.0
 47
0.0
 47
0.0
 47
1.0
 47
0.0
 47
0.0
 47
0.0
 47
0.0
 47
1.0
171
     0
 49
0.0208333333333333
 49
0.0
 49
0.0
 49
0.0
 49
0.0
 49
0.0208333333333333
 49
0.0
 49
0.0
 49
0.0
 49
0.0
 49
1.0
 49
0.0
 49
0.0
 49
0.0
 49
0.0
 49
1.0
175
     0
142
0.0208333333333333
142
0.0
142
0.0
142
0.0
142
0.0
142
0.0208333333333333
142
0.0
142
0.0
142
0.0
142
0.0
142
1.0
142
0.0
142
0.0
142
0.0
142
0.0
142
1.0
179
     0
144
0.0208333333333333
144
0.0
144
0.0
144
0.0
144
0.0
144
0.0208333333333333
144
0.0
144
0.0
144
0.0
144
0.0
144
1.0
144
0.0
144
0.0
144
0.0
144
0.0
144
1.0
147
0.0208333333333333
147
0.0
147
0.0
147
0.0
147
0.0
147
0.0208333333333333
147
0.0
147
0.0
147
0.0
147
0.0
147
1.0
147
0.0
147
0.0
147
0.0
147
0.0
147
1.0
  0
MATERIAL
  5
21
102
{ACAD_XDICTIONARY
360
22
102
}
102
{ACAD_REACTORS
330
10
102
}
330
10
100
AcDbMaterial
  1
Global
 72
     0
 43
0.0208333333333333
 43
0.0
 43
0.0
 43
0.0
 43
0.0
 43
0.0208333333333333
 43
0.0
 43
0.0
 43
0.0
 43
0.0
 43
1.0
 43
0.0
 43
0.0
 43
0.0
 43
0.0
 43
1.0
 77
     0
 47
0.0208333333333333
 47
0.0
 47
0.0
 47
0.0
 47
0.0
 47
0.0208333333333333
 47
0.0
 47
0.0
 47
0.0
 47
0.0
 47
1.0
 47
0.0
 47
0.0
 47
0.0
 47
0.0
 47
1.0
171
     0
 49
0.0208333333333333
 49
0.0
 49
0.0
 49
0.0
 49
0.0
 49
0.0208333333333333
 49
0.0
 49
0.0
 49
0.0
 49
0.0
 49
1.0
 49
0.0
 49
0.0
 49
0.0
 49
0.0
 49
1.0
175
     0
142
0.0208333333333333
142
0.0
142
0.0
142
0.0
142
0.0
142
0.0208333333333333
142
0.0
142
0.0
142
0.0
142
0.0
142
1.0
142
0.0
142
0.0
142
0.0
142
0.0
142
1.0
179
     0
144
0.0208333333333333
144
0.0
144
0.0
144
0.0
144
0.0
144
0.0208333333333333
144
0.0
144
0.0
144
0.0
144
0.0
144
1.0
144
0.0
144
0.0
144
0.0
144
0.0
144
1.0
147
0.0208333333333333
147
0.0
147
0.0
147
0.0
147
0.0
147
0.0208333333333333
147
0.0
147
0.0
147
0.0
147
0.0
147
1.0
147
0.0
147
0.0
147
0.0
147
0.0
147
1.0
  0
MLEADERSTYLE
  5
67
102
{ACAD_XDICTIONARY
360
237
102
}
102
{ACAD_REACTORS
330
66
102
}
330
66
100
AcDbMLeaderStyle
170
     2
171
     1
172
     0
 90
        2
 40
0.0
 41
0.0
173
     1
 91
-1056964608
340
5B
 92
       -2
290
     1
 42
0.09
291
     1
 43
0.36
  3
Standard
 44
0.18
300

342
55
174
     1
178
     6
175
     1
176
     0
 93
-1056964608
 45
0.18
292
     0
297
     0
 46
0.18
 94
-1056964608
 47
1.0
 49
1.0
140
1.0
293
     1
141
0.0
294
     1
177
     0
142
1.0
295
     0
296
     0
143
0.125
1001
ACAD_MLEADERVER
1070
     2
  0
MLINESTYLE
  5
60
102
{ACAD_REACTORS
330
5F
102
}
330
5F
100
AcDbMlineStyle
  2
STANDARD
 70
     0
  3

 62
   256
 51
90.0
 52
90.0
 71
     2
 49
0.5
 62
   256
  6
BYLAYER
 49
-0.5
 62
   256
  6
BYLAYER
  0
ACDBPLACEHOLDER
  5
F
102
{ACAD_REACTORS
330
E
102
}
330
E
  0
SCALE
  5
43
102
{ACAD_REACTORS
330
42
102
}
330
42
100
AcDbScale
 70
     0
300
1:1
140
1.0
141
1.0
290
     1
  0
SCALE
  5
44
102
{ACAD_REACTORS
330
42
102
}
330
42
100
AcDbScale
 70
     0
300
1/128" = 1'-0"
140
0.0078125
141
12.0
290
     0
  0
SCALE
  5
45
102
{ACAD_REACTORS
330
42
102
}
330
42
100
AcDbScale
 70
     0
300
1/64" = 1'-0"
140
0.015625
141
12.0
290
     0
  0
SCALE
  5
46
102
{ACAD_REACTORS
330
42
102
}
330
42
100
AcDbScale
 70
     0
300
1/32" = 1'-0"
140
0.03125
141
12.0
290
     0
  0
SCALE
  5
47
102
{ACAD_REACTORS
330
42
102
}
330
42
100
AcDbScale
 70
     0
300
1/16" = 1'-0"
140
0.0625
141
12.0
290
     0
  0
SCALE
  5
48
102
{ACAD_REACTORS
330
42
102
}
330
42
100
AcDbScale
 70
     0
300
3/32" = 1'-0"
140
0.09375
141
12.0
290
     0
  0
SCALE
  5
49
102
{ACAD_REACTORS
330
42
102
}
330
42
100
AcDbScale
 70
     0
300
1/8" = 1'-0"
140
0.125
141
12.0
290
     0
  0
SCALE
  5
4A
102
{ACAD_REACTORS
330
42
102
}
330
42
100
AcDbScale
 70
     0
300
3/16" = 1'-0"
140
0.1875
141
12.0
290
     0
  0
SCALE
  5
4B
102
{ACAD_REACTORS
330
42
102
}
330
42
100
AcDbScale
 70
     0
300
1/4" = 1'-0"
140
0.25
141
12.0
290
     0
  0
SCALE
  5
4C
102
{ACAD_REACTORS
330
42
102
}
330
42
100
AcDbScale
 70
     0
300
3/8" = 1'-0"
140
0.375
141
12.0
290
     0
  0
SCALE
  5
4D
102
{ACAD_REACTORS
330
42
102
}
330
42
100
AcDbScale
 70
     0
300
1/2" = 1'-0"
140
0.5
141
12.0
290
     0
  0
SCALE
  5
4E
102
{ACAD_REACTORS
330
42
102
}
330
42
100
AcDbScale
 70
     0
300
3/4" = 1'-0"
140
0.75
141
12.0
290
     0
  0
SCALE
  5
4F
102
{ACAD_REACTORS
330
42
102
}
330
42
100
AcDbScale
 70
     0
300
1" = 1'-0"
140
1.0
141
12.0
290
     0
  0
SCALE
  5
50
102
{ACAD_REACTORS
330
42
102
}
330
42
100
AcDbScale
 70
     0
300
1-1/2" = 1'-0"
140
1.5
141
12.0
290
     0
  0
SCALE
  5
51
102
{ACAD_REACTORS
330
42
102
}
330
42
100
AcDbScale
 70
     0
300
3" = 1'-0"
140
3.0
141
12.0
290
     0
  0
SCALE
  5
52
102
{ACAD_REACTORS
330
42
102
}
330
42
100
AcDbScale
 70
     0
300
6" = 1'-0"
140
6.0
141
12.0
290
     0
  0
SCALE
  5
53
102
{ACAD_REACTORS
330
42
102
}
330
42
100
AcDbScale
 70
     0
300
1'-0" = 1'-0"
140
12.0
141
12.0
290
     0
  0
TABLESTYLE
  5
65
102
{ACAD_XDICTIONARY
360
1E1
102
}
102
{ACAD_REACTORS
330
64
102
}
330
64
100
AcDbTableStyle
  3
Standard
 70
     0
 71
     0
 40
0.06
 41
0.06
280
     0
281
     0
  7
Standard
140
0.18
170
     2
 62
     0
 63
     7
283
     0
274
    -2
284
     1
 64
     0
275
    -2
285
     1
 65
     0
276
    -2
286
     1
 66
     0
277
    -2
287
     1
 67
     0
278
    -2
288
     1
 68
     0
279
    -2
289
     1
 69
     0
  7
Standard
140
0.25
170
     5
 62
     0
 63
     7
283
     0
274
    -2
284
     1
 64
     0
275
    -2
285
     1
 65
     0
276
    -2
286
     1
 66
     0
277
    -2
287
     1
 67
     0
278
    -2
288
     1
 68
     0
279
    -2
289
     1
 69
     0
  7
Standard
140
0.18
170
     5
 62
     0
 63
     7
283
     0
274
    -2
284
     1
 64
     0
275
    -2
285
     1
 65
     0
276
    -2
286
     1
 66
     0
277
    -2
287
     1
 67
     0
278
    -2
288
     1
 68
     0
279
    -2
289
     1
 69
     0
  0
VISUALSTYLE
  5
2F
102
{ACAD_XDICTIONARY
360
248
102
}
102
{ACAD_REACTORS
330
29
102
}
330
29
100
AcDbVisualStyle
  2
2dWireframe
 70
     4
 71
     0
 72
     2
 73
     0
 90
        0
 40
-0.6
 41
-30.0
 62
     5
 63
     7
 74
     1
 91
        4
 64
     7
 65
   257
 75
     1
175
     1
 42
1.0
 92
        0
 66
   257
 43
1.0
 76
     1
 77
     6
 78
     2
 67
     7
 79
     5
170
     0
171
     0
290
     0
174
     0
 93
        1
 44
0.0
173
     0
291
     0
 45
0.0
1001
ACAD
1000
AcDbSavedByObjectVersion
1070
     0
  0
VISUALSTYLE
  5
2E
102
{ACAD_XDICTIONARY
360
246
102
}
102
{ACAD_REACTORS
330
29
102
}
330
29
100
AcDbVisualStyle
  2
Basic
 70
     7
 71
     1
 72
     0
 73
     1
 90
        0
 40
-0.6
 41
-30.0
 62
     5
 63
     7
 74
     0
 91
        4
 64
     7
 65
   257
 75
     1
175
     1
 42
1.0
 92
        8
 66
     7
 43
1.0
 76
     1
 77
     6
 78
     2
 67
     7
 79
     5
170
     0
171
     0
290
     0
174
     0
 93
        1
 44
0.0
173
     0
291
     1
 45
0.0
1001
ACAD
1000
AcDbSavedByObjectVersion
1070
     0
  0
VISUALSTYLE
  5
35
102
{ACAD_XDICTIONARY
360
254
102
}
102
{ACAD_REACTORS
330
29
102
}
330
29
100
AcDbVisualStyle
  2
Brighten
 70
    12
 71
     2
 72
     2
 73
     0
 90
        0
 40
-0.6
 41
-30.0
 62
     5
 63
     7
 74
     1
 91
        4
 64
     7
 65
   257
 75
     1
175
     1
 42
1.0
 92
        8
 66
     7
 43
1.0
 76
     1
 77
     6
 78
     2
 67
     7
 79
     5
170
     0
171
     0
290
     0
174
     0
 93
        1
 44
50.0
173
     0
291
     1
 45
0.0
1001
ACAD
1000
AcDbSavedByObjectVersion
1070
     0
  0
VISUALSTYLE
  5
39
102
{ACAD_XDICTIONARY
360
25C
102
}
102
{ACAD_REACTORS
330
29
102
}
330
29
100
AcDbVisualStyle
  2
ColorChange
 70
    16
 71
     2
 72
     2
 73
     3
 90
        0
 40
-0.6
 41
-30.0
 62
     5
 63
     8
 74
     1
 91
        4
 64
     7
 65
   257
 75
     1
175
     1
 42
1.0
 92
        8
 66
     8
 43
1.0
 76
     1
 77
     6
 78
     2
 67
     7
 79
     5
170
     0
171
     0
290
     0
174
     0
 93
        1
 44
0.0
173
     0
291
     1
 45
0.0
1001
ACAD
1000
AcDbSavedByObjectVersion
1070
     0
  0
VISUALSTYLE
  5
32
102
{ACAD_XDICTIONARY
360
24E
102
}
102
{ACAD_REACTORS
330
29
102
}
330
29
100
AcDbVisualStyle
  2
Conceptual
 70
     9
 71
     3
 72
     2
 73
     0
 90
        0
 40
-0.6
 41
-30.0
 62
     5
 63
     7
 74
     2
 91
        2
 64
     7
 65
   257
 75
     1
175
     1
 42
179.0
 92
        8
 66
     7
 43
1.0
 76
     1
 77
     6
 78
     2
 67
     7
 79
     3
170
     0
171
     0
290
     0
174
     0
 93
        1
 44
0.0
173
     0
291
     0
 45
0.0
1001
ACAD
1000
AcDbSavedByObjectVersion
1070
     0
  0
VISUALSTYLE
  5
34
102
{ACAD_XDICTIONARY
360
252
102
}
102
{ACAD_REACTORS
330
29
102
}
330
29
100
AcDbVisualStyle
  2
Dim
 70
    11
 71
     2
 72
     2
 73
     0
 90
        0
 40
-0.6
 41
-30.0
 62
     5
 63
     7
 74
     1
 91
        4
 64
     7
 65
   257
 75
     1
175
     1
 42
1.0
 92
        8
 66
     7
 43
1.0
 76
     1
 77
     6
 78
     2
 67
     7
 79
     5
170
     0
171
     0
290
     0
174
     0
 93
        1
 44
-50.0
173
     0
291
     1
 45
0.0
1001
ACAD
1000
AcDbSavedByObjectVersion
1070
     0
  0
VISUALSTYLE
  5
41
102
{ACAD_XDICTIONARY
360
26C
102
}
102
{ACAD_REACTORS
330
29
102
}
330
29
100
AcDbVisualStyle
  2
EdgeColorOff
 70
    22
 71
     2
 72
     2
 73
     0
 90
        0
 40
-0.6
 41
-30.0
 62
     5
 63
     7
 74
     1
 91
        4
 64
     7
 65
   257
 75
     1
175
     1
 42
1.0
 92
        8
 66
     7
 43
1.0
 76
     1
 77
     6
 78
     2
 67
     7
 79
     5
170
     0
171
     0
290
     0
174
     0
 93
        1
 44
0.0
173
     0
291
     1
 45
0.0
1001
ACAD
1000
AcDbSavedByObjectVersion
1070
     0
  0
VISUALSTYLE
  5
38
102
{ACAD_XDICTIONARY
360
25A
102
}
102
{ACAD_REACTORS
330
29
102
}
330
29
100
AcDbVisualStyle
  2
Facepattern
 70
    15
 71
     2
 72
     2
 73
     0
 90
        0
 40
-0.6
 41
-30.0
 62
     5
 63
     7
 74
     1
 91
        4
 64
     7
 65
   257
 75
     1
175
     1
 42
1.0
 92
        8
 66
     7
 43
1.0
 76
     1
 77
     6
 78
     2
 67
     7
 79
     5
170
     0
171
     0
290
     0
174
     0
 93
        1
 44
0.0
173
     0
291
     1
 45
0.0
1001
ACAD
1000
AcDbSavedByObjectVersion
1070
     0
  0
VISUALSTYLE
  5
2A
102
{ACAD_XDICTIONARY
360
23E
102
}
102
{ACAD_REACTORS
330
29
102
}
330
29
100
AcDbVisualStyle
  2
Flat
 70
     0
 71
     2
 72
     1
 73
     1
 90
        2
 40
-0.6
 41
30.0
 62
     5
 63
     7
 74
     0
 91
        0
 64
     7
 65
   257
 75
     1
175
     1
 42
1.0
 92
        8
 66
     7
 43
1.0
 76
     1
 77
     6
 78
     2
 67
     7
 79
     5
170
     0
171
     0
290
     0
174
     0
 93
       13
 44
0.0
173
     0
291
     1
 45
0.0
1001
ACAD
1000
AcDbSavedByObjectVersion
1070
     0
  0
VISUALSTYLE
  5
2B
102
{ACAD_XDICTIONARY
360
240
102
}
102
{ACAD_REACTORS
330
29
102
}
330
29
100
AcDbVisualStyle
  2
FlatWithEdges
 70
     1
 71
     2
 72
     1
 73
     1
 90
        2
 40
-0.6
 41
30.0
 62
     5
 63
     7
 74
     1
 91
        0
 64
     7
 65
   257
 75
     1
175
     1
 42
1.0
 92
        0
 66
   257
 43
1.0
 76
     1
 77
     6
 78
     2
 67
     7
 79
     5
170
     0
171
     0
290
     0
174
     0
 93
       13
 44
0.0
173
     0
291
     1
 45
0.0
1001
ACAD
1000
AcDbSavedByObjectVersion
1070
     0
  0
VISUALSTYLE
  5
2C
102
{ACAD_XDICTIONARY
360
242
102
}
102
{ACAD_REACTORS
330
29
102
}
330
29
100
AcDbVisualStyle
  2
Gouraud
 70
     2
 71
     2
 72
     2
 73
     1
 90
        2
 40
-0.6
 41
30.0
 62
     5
 63
     7
 74
     0
 91
        0
 64
     7
 65
   257
 75
     1
175
     1
 42
1.0
 92
        0
 66
     7
 43
1.0
 76
     1
 77
     6
 78
     2
 67
     7
 79
     5
170
     0
171
     0
290
     0
174
     0
 93
       13
 44
0.0
173
     0
291
     1
 45
0.0
1001
ACAD
1000
AcDbSavedByObjectVersion
1070
     0
  0
VISUALSTYLE
  5
2D
102
{ACAD_XDICTIONARY
360
244
102
}
102
{ACAD_REACTORS
330
29
102
}
330
29
100
AcDbVisualStyle
  2
GouraudWithEdges
 70
     3
 71
     2
 72
     2
 73
     1
 90
        2
 40
-0.6
 41
30.0
 62
     5
 63
     7
 74
     1
 91
        0
 64
     7
 65
   257
 75
     1
175
     1
 42
1.0
 92
        0
 66
   257
 43
1.0
 76
     1
 77
     6
 78
     2
 67
     7
 79
     5
170
     0
171
     0
290
     0
174
     0
 93
       13
 44
0.0
173
     0
291
     1
 45
0.0
1001
ACAD
1000
AcDbSavedByObjectVersion
1070
     0
  0
VISUALSTYLE
  5
31
102
{ACAD_XDICTIONARY
360
24C
102
}
102
{ACAD_REACTORS
330
29
102
}
330
29
100
AcDbVisualStyle
  2
Hidden
 70
     6
 71
     1
 72
     2
 73
     2
 90
        0
 40
-0.6
 41
-30.0
 62
     5
 63
     7
 74
     2
 91
        2
 64
     7
 65
   257
 75
     2
175
     1
 42
40.0
 92
        0
 66
   257
 43
1.0
 76
     1
 77
     6
 78
     2
 67
     7
 79
     3
170
     0
171
     0
290
     0
174
     0
 93
        1
 44
0.0
173
     0
291
     0
 45
0.0
1001
ACAD
1000
AcDbSavedByObjectVersion
1070
     0
  0
VISUALSTYLE
  5
3F
102
{ACAD_XDICTIONARY
360
268
102
}
102
{ACAD_REACTORS
330
29
102
}
330
29
100
AcDbVisualStyle
  2
JitterOff
 70
    20
 71
     2
 72
     2
 73
     0
 90
        0
 40
-0.6
 41
-30.0
 62
     5
 63
     7
 74
     1
 91
        4
 64
     7
 65
   257
 75
     1
175
     1
 42
1.0
 92
       10
 66
     7
 43
1.0
 76
     1
 77
     6
 78
     2
 67
     7
 79
     5
170
     0
171
     0
290
     0
174
     0
 93
        1
 44
0.0
173
     0
291
     1
 45
0.0
1001
ACAD
1000
AcDbSavedByObjectVersion
1070
     0
  0
VISUALSTYLE
  5
37
102
{ACAD_XDICTIONARY
360
258
102
}
102
{ACAD_REACTORS
330
29
102
}
330
29
100
AcDbVisualStyle
  2
Linepattern
 70
    14
 71
     2
 72
     2
 73
     0
 90
        0
 40
-0.6
 41
-30.0
 62
     5
 63
     7
 74
     1
 91
        4
 64
     7
 65
   257
 75
     7
175
     7
 42
1.0
 92
        8
 66
     7
 43
1.0
 76
     1
 77
     6
 78
     2
 67
     7
 79
     5
170
     0
171
     0
290
     0
174
     0
 93
        1
 44
0.0
173
     0
291
     1
 45
0.0
1001
ACAD
1000
AcDbSavedByObjectVersion
1070
     0
  0
VISUALSTYLE
  5
40
102
{ACAD_XDICTIONARY
360
26A
102
}
102
{ACAD_REACTORS
330
29
102
}
330
29
100
AcDbVisualStyle
  2
OverhangOff
 70
    21
 71
     2
 72
     2
 73
     0
 90
        0
 40
-0.6
 41
-30.0
 62
     5
 63
     7
 74
     1
 91
        4
 64
     7
 65
   257
 75
     1
175
     1
 42
1.0
 92
        9
 66
     7
 43
1.0
 76
     1
 77
     6
 78
     2
 67
     7
 79
     5
170
     0
171
     0
290
     0
174
     0
 93
        1
 44
0.0
173
     0
291
     1
 45
0.0
1001
ACAD
1000
AcDbSavedByObjectVersion
1070
     0
  0
VISUALSTYLE
  5
33
102
{ACAD_XDICTIONARY
360
250
102
}
102
{ACAD_REACTORS
330
29
102
}
330
29
100
AcDbVisualStyle
  2
Realistic
 70
     8
 71
     2
 72
     2
 73
     0
 90
        2
 40
-0.6
 41
30.0
 62
     5
 63
     7
 74
     0
 91
        0
 64
     7
 65
   257
 75
     1
175
     1
 42
1.0
 92
        8
 66
   257
 43
1.0
 76
     1
 77
     6
 78
     2
 67
     7
 79
     3
170
     0
171
     0
290
     0
174
     0
 93
       13
 44
0.0
173
     0
291
     0
 45
0.0
1001
ACAD
1000
AcDbSavedByObjectVersion
1070
     0
  0
VISUALSTYLE
  5
3E
102
{ACAD_XDICTIONARY
360
266
102
}
102
{ACAD_REACTORS
330
29
102
}
330
29
100
AcDbVisualStyle
  2
Shaded
 70
    27
 71
     2
 72
     2
 73
     1
 90
        2
 40
-0.6
 41
30.0
 62
     5
 63
     7
 74
     0
 91
        4
 64
     7
 65
   257
 75
     1
175
     1
 42
1.0
 92
        8
 66
   257
 43
1.0
 76
     1
 77
     6
 78
     2
 67
     8
 79
     3
170
     0
171
     0
290
     0
174
     0
 93
        5
 44
0.0
173
     0
291
     0
 45
0.0
1001
ACAD
1000
AcDbSavedByObjectVersion
1070
     0
  0
VISUALSTYLE
  5
3D
102
{ACAD_XDICTIONARY
360
264
102
}
102
{ACAD_REACTORS
330
29
102
}
330
29
100
AcDbVisualStyle
  2
Shaded with edges
 70
    26
 71
     2
 72
     2
 73
     1
 90
        2
 40
-0.6
 41
30.0
 62
     5
 63
     7
 74
     1
 91
       10
 64
     7
 65
   257
 75
     2
175
     1
 42
1.0
 92
        8
 66
   257
 43
1.0
 76
     1
 77
     6
 78
     2
 67
     7
 79
     3
170
     0
171
     0
290
     0
174
     0
 93
        5
 44
0.0
173
     0
291
     0
 45
0.0
1001
ACAD
1000
AcDbSavedByObjectVersion
1070
     0
  0
VISUALSTYLE
  5
3A
102
{ACAD_XDICTIONARY
360
25E
102
}
102
{ACAD_REACTORS
330
29
102
}
330
29
100
AcDbVisualStyle
  2
Shades of Gray
 70
    23
 71
     2
 72
     2
 73
     3
 90
        0
 40
-0.6
 41
-30.0
 62
     5
 63
     7
 74
     2
 91
        2
 64
     7
 65
     7
 75
     1
175
     1
 42
40.0
 92
        8
 66
     7
 43
1.0
 76
     1
 77
     6
 78
     2
 67
     7
 79
     3
170
     0
171
     0
290
     0
174
     0
 93
        1
 44
0.0
173
     0
291
     0
 45
0.0
1001
ACAD
1000
AcDbSavedByObjectVersion
1070
     0
  0
VISUALSTYLE
  5
3B
102
{ACAD_XDICTIONARY
360
260
102
}
102
{ACAD_REACTORS
330
29
102
}
330
29
100
AcDbVisualStyle
  2
Sketchy
 70
    24
 71
     1
 72
     2
 73
     2
 90
        0
 40
-0.6
 41
-30.0
 62
     5
 63
     7
 74
     2
 91
        2
 64
     7
 65
     7
 75
     1
175
     1
 42
40.0
 92
       11
 66
     7
 43
1.0
 76
     1
 77
     6
 78
     2
 67
     7
 79
     6
170
     0
171
     0
290
     0
174
     0
 93
        1
 44
0.0
173
     0
291
     0
 45
0.0
1001
ACAD
1000
AcDbSavedByObjectVersion
1070
     0
  0
VISUALSTYLE
  5
36
102
{ACAD_XDICTIONARY
360
256
102
}
102
{ACAD_REACTORS
330
29
102
}
330
29
100
AcDbVisualStyle
  2
Thicken
 70
    13
 71
     2
 72
     2
 73
     0
 90
        0
 40
-0.6
 41
-30.0
 62
     5
 63
     7
 74
     1
 91
        4
 64
     7
 65
   257
 75
     1
175
     1
 42
1.0
 92
       12
 66
     7
 43
1.0
 76
     1
 77
     6
 78
     2
 67
     7
 79
     5
170
     0
171
     0
290
     0
174
     0
 93
        1
 44
0.0
173
     0
291
     1
 45
0.0
1001
ACAD
1000
AcDbSavedByObjectVersion
1070
     0
  0
VISUALSTYLE
  5
30
102
{ACAD_XDICTIONARY
360
24A
102
}
102
{ACAD_REACTORS
330
29
102
}
330
29
100
AcDbVisualStyle
  2
Wireframe
 70
     5
 71
     0
 72
     2
 73
     0
 90
        0
 40
-0.6
 41
-30.0
 62
     5
 63
     7
 74
     1
 91
        4
 64
     7
 65
   257
 75
     1
175
     1
 42
1.0
 92
        0
 66
   257
 43
1.0
 76
     1
 77
     6
 78
     2
 67
     7
 79
     3
170
     0
171
     0
290
     0
174
     0
 93
        1
 44
0.0
173
     0
291
     0
 45
0.0
1001
ACAD
1000
AcDbSavedByObjectVersion
1070
     0
  0
VISUALSTYLE
  5
3C
102
{ACAD_XDICTIONARY
360
262
102
}
102
{ACAD_REACTORS
330
29
102
}
330
29
100
AcDbVisualStyle
  2
X-Ray
 70
    25
 71
     2
 72
     2
 73
     1
 90
        1
 40
0.5
 41
-30.0
 62
     5
 63
     7
 74
     1
 91
        0
 64
     7
 65
   257
 75
     1
175
     1
 42
1.0
 92
        8
 66
     7
 43
1.0
 76
     1
 77
     6
 78
     2
 67
     7
 79
     3
170
     0
171
     0
290
     0
174
     0
 93
       13
 44
0.0
173
     0
291
     0
 45
0.0
1001
ACAD
1000
AcDbSavedByObjectVersion
1070
     0
  0
DICTIONARYVAR
  5
79
102
{ACAD_REACTORS
330
76
102
}
330
76
100
DictionaryVariables
280
     0
  1
1:1
  0
DICTIONARYVAR
  5
78
102
{ACAD_REACTORS
330
76
102
}
330
76
100
DictionaryVariables
280
     0
  1
STANDARD
  0
DICTIONARYVAR
  5
77
102
{ACAD_REACTORS
330
76
102
}
330
76
100
DictionaryVariables
280
     0
  1
STANDARD
  0
DICTIONARYVAR
  5
22B
102
{ACAD_REACTORS
330
76
102
}
330
76
100
DictionaryVariables
280
     0
  1
1
  0
DICTIONARYVAR
  5
22A
102
{ACAD_REACTORS
330
76
102
}
330
76
100
DictionaryVariables
280
     0
  1
1
  0
DICTIONARYVAR
  5
229
102
{ACAD_REACTORS
330
76
102
}
330
76
100
DictionaryVariables
280
     0
  1
0
  0
DICTIONARYVAR
  5
226
102
{ACAD_REACTORS
330
76
102
}
330
76
100
DictionaryVariables
280
     0
  1
0
  0
DICTIONARYVAR
  5
227
102
{ACAD_REACTORS
330
76
102
}
330
76
100
DictionaryVariables
280
     0
  1
0
  0
DICTIONARYVAR
  5
225
102
{ACAD_REACTORS
330
76
102
}
330
76
100
DictionaryVariables
280
     0
  1
2
  0
DICTIONARYVAR
  5
224
102
{ACAD_REACTORS
330
76
102
}
330
76
100
DictionaryVariables
280
     0
  1
1
  0
DICTIONARYVAR
  5
228
102
{ACAD_REACTORS
330
76
102
}
330
76
100
DictionaryVariables
280
     0
  1
127
  0
DICTIONARYVAR
  5
234
102
{ACAD_REACTORS
330
76
102
}
330
76
100
DictionaryVariables
280
     0
  1
2
  0
DICTIONARY
  5
26F
330
6B
100
AcDbDictionary
280
     1
281
     1
  3
ACAD_XREC_ROUNDTRIP
360
270
  0
DICTIONARY
  5
273
330
73
100
AcDbDictionary
280
     1
281
     1
  3
ACAD_XREC_ROUNDTRIP
360
274
  0
DICTIONARY
  5
271
330
6F
100
AcDbDictionary
280
     1
281
     1
  3
ACAD_XREC_ROUNDTRIP
360
272
  0
DICTIONARY
  5
1A
330
19
100
AcDbDictionary
280
     1
281
     1
  3
ACAD_XREC_ROUNDTRIP
360
23C
  3
BUMPTILE
360
1C
  3
DIFFUSETILE
360
1B
  3
OPACITYTILE
360
1F
  3
REFLECTIONTILE
360
1E
  3
REFRACTIONTILE
360
20
  3
SPECULARTILE
360
1D
  0
DICTIONARY
  5
12
330
11
100
AcDbDictionary
280
     1
281
     1
  3
ACAD_XREC_ROUNDTRIP
360
23B
  3
BUMPTILE
360
14
  3
DIFFUSETILE
360
13
  3
FBXASSET
360
F4
  3
OPACITYTILE
360
17
  3
REFLECTIONTILE
360
16
  3
REFRACTIONTILE
360
18
  3
SPECULARTILE
360
15
  0
DICTIONARY
  5
22
330
21
100
AcDbDictionary
280
     1
281
     1
  3
ACAD_XREC_ROUNDTRIP
360
23D
  3
BUMPTILE
360
24
  3
DIFFUSETILE
360
23
  3
FBXASSET
360
BA
  3
OPACITYTILE
360
27
  3
REFLECTIONTILE
360
26
  3
REFRACTIONTILE
360
28
  3
SPECULARTILE
360
25
  0
DICTIONARY
  5
237
330
67
100
AcDbDictionary
280
     1
281
     1
  3
ACAD_XREC_ROUNDTRIP
360
238
  0
DICTIONARY
  5
1E1
330
65
100
AcDbDictionary
280
     1
281
     1
  3
ACAD_ROUNDTRIP_2008_TABLESTYLE_CELLSTYLEMAP
360
236
  3
ACAD_XREC_ROUNDTRIP
360
26E
  0
DICTIONARY
  5
248
330
2F
100
AcDbDictionary
280
     1
281
     1
  3
ACAD_XREC_ROUNDTRIP
360
249
  0
DICTIONARY
  5
246
330
2E
100
AcDbDictionary
280
     1
281
     1
  3
ACAD_XREC_ROUNDTRIP
360
247
  0
DICTIONARY
  5
254
330
35
100
AcDbDictionary
280
     1
281
     1
  3
ACAD_XREC_ROUNDTRIP
360
255
  0
DICTIONARY
  5
25C
330
39
100
AcDbDictionary
280
     1
281
     1
  3
ACAD_XREC_ROUNDTRIP
360
25D
  0
DICTIONARY
  5
24E
330
32
100
AcDbDictionary
280
     1
281
     1
  3
ACAD_XREC_ROUNDTRIP
360
24F
  0
DICTIONARY
  5
252
330
34
100
AcDbDictionary
280
     1
281
     1
  3
ACAD_XREC_ROUNDTRIP
360
253
  0
DICTIONARY
  5
26C
330
41
100
AcDbDictionary
280
     1
281
     1
  3
ACAD_XREC_ROUNDTRIP
360
26D
  0
DICTIONARY
  5
25A
330
38
100
AcDbDictionary
280
     1
281
     1
  3
ACAD_XREC_ROUNDTRIP
360
25B
  0
DICTIONARY
  5
23E
330
2A
100
AcDbDictionary
280
     1
281
     1
  3
ACAD_XREC_ROUNDTRIP
360
23F
  0
DICTIONARY
  5
240
330
2B
100
AcDbDictionary
280
     1
281
     1
  3
ACAD_XREC_ROUNDTRIP
360
241
  0
DICTIONARY
  5
242
330
2C
100
AcDbDictionary
280
     1
281
     1
  3
ACAD_XREC_ROUNDTRIP
360
243
  0
DICTIONARY
  5
244
330
2D
100
AcDbDictionary
280
     1
281
     1
  3
ACAD_XREC_ROUNDTRIP
360
245
  0
DICTIONARY
  5
24C
330
31
100
AcDbDictionary
280
     1
281
     1
  3
ACAD_XREC_ROUNDTRIP
360
24D
  0
DICTIONARY
  5
268
330
3F
100
AcDbDictionary
280
     1
281
     1
  3
ACAD_XREC_ROUNDTRIP
360
269
  0
DICTIONARY
  5
258
330
37
100
AcDbDictionary
280
     1
281
     1
  3
ACAD_XREC_ROUNDTRIP
360
259
  0
DICTIONARY
  5
26A
330
40
100
AcDbDictionary
280
     1
281
     1
  3
ACAD_XREC_ROUNDTRIP
360
26B
  0
DICTIONARY
  5
250
330
33
100
AcDbDictionary
280
     1
281
     1
  3
ACAD_XREC_ROUNDTRIP
360
251
  0
DICTIONARY
  5
266
330
3E
100
AcDbDictionary
280
     1
281
     1
  3
ACAD_XREC_ROUNDTRIP
360
267
  0
DICTIONARY
  5
264
330
3D
100
AcDbDictionary
280
     1
281
     1
  3
ACAD_XREC_ROUNDTRIP
360
265
  0
DICTIONARY
  5
25E
330
3A
100
AcDbDictionary
280
     1
281
     1
  3
ACAD_XREC_ROUNDTRIP
360
25F
  0
DICTIONARY
  5
260
330
3B
100
AcDbDictionary
280
     1
281
     1
  3
ACAD_XREC_ROUNDTRIP
360
261
  0
DICTIONARY
  5
256
330
36
100
AcDbDictionary
280
     1
281
     1
  3
ACAD_XREC_ROUNDTRIP
360
257
  0
DICTIONARY
  5
24A
330
30
100
AcDbDictionary
280
     1
281
     1
  3
ACAD_XREC_ROUNDTRIP
360
24B
  0
DICTIONARY
  5
262
330
3C
100
AcDbDictionary
280
     1
281
     1
  3
ACAD_XREC_ROUNDTRIP
360
263
  0
XRECORD
  5
270
102
{ACAD_REACTORS
330
26F
102
}
330
26F
100
AcDbXrecord
280
     1
102
SHADEPLOT
 70
     0
102
SHADEPLOTRESLEVEL
 70
     2
102
SHADEPLOTCUSTOMDPI
 70
   300
  0
XRECORD
  5
274
102
{ACAD_REACTORS
330
273
102
}
330
273
100
AcDbXrecord
280
     1
102
SHADEPLOT
 70
     0
102
SHADEPLOTRESLEVEL
 70
     2
102
SHADEPLOTCUSTOMDPI
 70
   300
  0
XRECORD
  5
272
102
{ACAD_REACTORS
330
271
102
}
330
271
100
AcDbXrecord
280
     1
102
SHADEPLOT
 70
     0
102
SHADEPLOTRESLEVEL
 70
     2
102
SHADEPLOTCUSTOMDPI
 70
   300
  0
XRECORD
  5
23C
102
{ACAD_REACTORS
330
1A
102
}
330
1A
100
AcDbXrecord
280
     1
102
MATERIAL
148
0.0
149
0.0
149
0.0
 93
        0
 94
      127
282
     0
 72
     0
 77
     0
171
     0
175
     0
179
     0
273
     0
  0
XRECORD
  5
1C
102
{ACAD_REACTORS
330
1A
102
}
330
1A
100
AcDbXrecord
280
     1
270
     1
271
     1
  0
XRECORD
  5
1B
102
{ACAD_REACTORS
330
1A
102
}
330
1A
100
AcDbXrecord
280
     1
270
     1
271
     1
  0
XRECORD
  5
1F
102
{ACAD_REACTORS
330
1A
102
}
330
1A
100
AcDbXrecord
280
     1
270
     1
271
     1
  0
XRECORD
  5
1E
102
{ACAD_REACTORS
330
1A
102
}
330
1A
100
AcDbXrecord
280
     1
270
     1
271
     1
  0
XRECORD
  5
20
102
{ACAD_REACTORS
330
1A
102
}
330
1A
100
AcDbXrecord
280
     1
270
     1
271
     1
  0
XRECORD
  5
1D
102
{ACAD_REACTORS
330
1A
102
}
330
1A
100
AcDbXrecord
280
     1
270
     1
271
     1
  0
XRECORD
  5
23B
102
{ACAD_REACTORS
330
12
102
}
330
12
100
AcDbXrecord
280
     1
102
MATERIAL
148
0.0
149
0.0
149
0.0
 93
        0
 94
      127
282
     0
 72
     0
 77
     0
171
     0
175
     0
179
     0
273
     0
  0
XRECORD
  5
14
102
{ACAD_REACTORS
330
12
102
}
330
12
100
AcDbXrecord
280
     1
270
     1
271
     1
  0
XRECORD
  5
13
102
{ACAD_REACTORS
330
12
102
}
330
12
100
AcDbXrecord
280
     1
270
     1
271
     1
  0
XRECORD
  5
F4
102
{ACAD_REACTORS
330
12
102
}
330
12
100
AcDbXrecord
280
     1
 70
     1
 90
1959938040
 71
     1
  1
0C110BCE-99BB-4C36-8BCC-D135EB407A49
311
504B03040A0000080000FA5E68413DEE336E79000000790000001B0000006175746F6465736B2D64657369676E2D7061636B6167652E786D6C3C3F786D6C2076657273696F6E3D22312E302220656E636F64696E673D227574662D3822203F3E3C666F726D6174733E3C666F726D61743E687474703A2F2F736368656D612E
311
6175746F6465736B2E636F6D2F64657369676E2D7061636B6167652F323030393C2F666F726D61743E3C2F666F726D6174733E504B0304140006080800FA5E6841D486FD9CA0000000F4000000130000005B436F6E74656E745F54797065735D2E786D6C7D8EC10E82300C865F65E91D8A1E8C310C0EEA1BF002731658846E
311
D98AC1B77784ABF1D8FE5FBFBF75BBCE937A534CCEB38643598122B6FEE978D0B0485F9C41B54DDD7D022595594E1A469170414C76A4D9A4D207E29CF43ECE46F218070CC6BECC4078ACAA135ACF422C856C0E68EA1BF5669944DDD7BCDE7B1F8E415D77AECB980613C2E4AC91FC167A2B244592486606FC29C8FD7F045B9A
311
EF7053A7E60B504B0304140006080800FA5E68419156A00CE80000007C01000008000000636F72652E786D6C8D90516EC3201044AF82F61F1B881D3B1626B22AE704BD0002E2A0C46019A87AFCE2C491DABF7EED6898C7AE869FBFE707FA326BB0DEF5400B02C838E5B575530F295E710BE82CF8EA7DFC1503E4E46C7AD86C
311
107C5A7D5A764B79178D8BD9755E9BDD94219808483DB2E821A89B99652153CC89702F16A9EE7232057DAB0CA764357A2DB13AFF67AFD6AC204E0DA9E8C770C1E3A11A71D5D417DC8EC716B3BA6103A1A7E3D80EBCDC60C1A39DDFFBD56A64341A042394614A31693F29EDEABAAB59D61D21BCDCE27FA0B4E87F42C9BA7860
311
FBB92F2C80A0F990E783E0E5D6451ECFA2F2DC7A133F504B0304140006080800FA5E684155019EA25F0000007C00000007000000636E782E786D6C4DCB3B0E80201045D1AD90E915ED2CF8AC45050C11660C8261F98AB1B07AC9C97D42D718D865D3E909258CFD00CCE24AC6E326A164D74DC0B4128928FF326038472BA131
311
28B1252AC747C6BAB984FC68F0B87FE8960A5C09FE86CFB69FBA01504B0304140006080800FA5E6841F8B3B00465010000020300000C0000006662782F636F72652E786D6C8D52ED8E8230107C95A6FFA11441D1941A73C127B817A850B946684969898F7FCB87E1BC1863484A33B3B33B3BC08EF7B64183B4BD323AC7348C
311
3092BA3495D2758EBDBB06194647CEAC31EE4F19465AB432C7238C39ABADF1DD0295463BA91DA0DA54720145DF4B8751D9C025C77DF9235B110AEFA0A2BF859D286FA296210D81863ACE7A67C1009A878C27E6D7CB9D9119E7CC7B552DACAA609ABA2A6931DFEFA2847E9DCE41B1498A20D9A5E7202BB65910A7BBF814D1FD
311
B6C84E8C8C62CE9C6A1FEE4A2B859315E67144E380D220CABE293DA4E9218DE17E882246C6F22791EFAA0F455E69B78917BBB3ACC79C829189F8B72D44E4502F06F04338236388F09A127E0E1A0281909DB8348F3D6E000DB274C626C054C6AFD4201A2F616A84A687919985CE5303D8EC659FF84D9FF73DE0030A5D8335E1
311
E07AF16E9CCEE6A94B149DB4C1E0EE481BDB8A6635375B5CCF75D04B79691A633F51936555B28449C6BF97FF02504B0304140006080800FA5E68413BE103E47E0000009D0000000B0000006662782F636E782E786D6C4DCCDD0A832018C6F15B91F7DCF5EE4366A086AE791FB12C22D3E174ECF257A3831D3DF0E3E12F9ACF
311
E2C9DBA5D7148384E30181B8F088FD144609250F940369944831E6BF1B90D02D4EC2C6A0C4986279EED4BBA12B3EAFEAA730EF786356B393B953DDA2A11776AEA96935528E57AC91736399854A89EA575A770BAB2F504B0304140006080800FA5E68415F7366712C01000015020000310000006662782F4335464135324245
311
2D414430422D343533392D424441302D3830373039303838424635462F636F72652E786D6C8D51CB6EC23010FC15CB277A7062871802728C48295FD01F0889492D881DF951F1F95D37416A6F5CBCD6ECCCEC68571C1EE31D7D2BE7B535356619C54899CEF6DA0C358EE14A2A8C0E52386BC31F1A46A61D558D138CA5189C8D
311
D30275D6046502A0C6F66A015BEF55C0A8BBC3A7C6BEFB52639BB53100C3DFB2A9ED6EEDA03296411B7852F8E020009A87A417CB777E3EF2A2F920C7136D48C9D73BD29C8E9454744B77B4AA9A333F8B7C164A11A3EE17B9EE218EBE6AE55E35496229821E9FF13BA7DAA07A2C0BCA0AC218A1D527637BCEF7BC80FF9E5291
311
27FA3F519CFA1745519BB02E96B8B3CC63C9443E37A4E86DBCDC9F61D463B22EA0346FE555F78625CD28DDF20DA72517F9CC850D80E9A65C4C7DB00E36BCBA5D80CE80959C37A514793A1294DF0B424D07953F504B0304140006080800FA5E6841A4C2FA454B01000033030000300000006662782F43354641353242452D41
311
4430422D343533392D424441302D3830373039303838424635462F636E782E786D6CD593CD6E022114855F85B09F1FAC1A63184CBAE81374D12D0357A53230E1A7A96FDF8BA275E3A2CB6E0839F7E39C9B9319BEFB9E2CF982108D7703656D4F0938E5B5718781E6B46F3694EC040FDEA7078C122727186891A9E087E0F35C
311
250D7B996D42D51A77AA6280E8735010512E2F89F54A5A3400D76414611A416BD0E40EE26D0F015741713C937404F2F6FA41FCF8092A45DE1517C1BB922178396BD2034489B232C68146758449B63227AF219E5A2D936C597BCB7AB2D3AF13290F6E91391852C2075A4E2AEA462DF6C83B1C0A1E53C0F62A94CE335021E7D9
311
1A251396DC5DC02B2378362EAD979535587C409AAD5F964B34BBCC044F66824AA8003281A662D1B345C358D36FDE19DBAE56DBD502EFDBBEE75DC1051FBDB7F511DA40F03351DE2570890AC6BB327E565FE5883601BBF6E1FC8722B1809A7A6DE7EEF19FFBE92EDF37D615F02F103F504B0304140006080800FA5E6841F073
311
9D80A405000081100000340000006662782F43354641353242452D414430422D343533392D424441302D3830373039303838424635462F6F626A656374732E786D6CAD57D96EDB3814FD1541F332F3E045B693C60345456C2785D1A62D6AA4980703062D510A27D402924A9DF9FA3914295972ECD433E88B162E97F79E7BEE
311
42FFFD2EE5CE331592E5D9B5EBF587AE43B3308F58965CBBA58A7B57AEF33EF0459EABD632D7C9484AAF5D3DEC067E22F2B2B043118D49C9D5C1E8DDEC2F478634A3AE137222E5B52BC3479A923E29551E51F9D48F8822FD24DEF5BDBE59D8159B08523C1E082D88A09982A618CF20C5314A79DDDFA13B08FC819E0F7CFDB4
311
ABC6A7570D2A7BBAE7B34C2A9285AF0E3B1033F6268BDBD1C5B47731998C7B93CB91D79BDDCD163DEFDD7838BF9CCFA737B7531C2C958024AB89A0B11B7C00368285FEC04C057EC932351ED925D64103419F99F6941B8C1CCF1F98358D75D6C863EA877996D1B0C20A6854F659D1112D6816C1E78C4A68D64268D8FDF5348E
311
ADE9B1FEB747B687CF43A0BDA325A8D6BD7EB735CDB77FC304790E8384A49A81064B6BA8E1EA708FF036CFB99D63D24989A28211EE70B61544BCB80196EA2581DF11A3992C7434680BDC005E30D35DBA208C7ECEF3635AC625E79AC66E5045C106B14295AC3463FF50B1D7BE8D0C7482AF341BAEAC41EAA5A06E303514B93A
311
609301D2893949E07298A9778E470786CE759C2E176EF0F16EBB5BE9D83D7E7821F2820AA5E9036AD58EABDF1A25AB937796E7F406F740953D28DF80FC6784FA5E15F84DB0DD6437B1A728413219E722856F9CA1D31BE23174BCEAA9BF5B5FFEA0D9DCF5DE293CE16C0DD52FC0B36B43DB972D3803FF1984CFC5D89AB60A09
311
47DAB8671900D22471788E21E4E178BB738325B21CB23276111E783019EA3EE3D31F58314814D549AD77062C0FD2E219091AB0558C841A86FC56C1BD9F5EA5B3EA60BBEC14BC17BF84AE378BD5C755296212D27B1BD30B1AB38C2994B83D6FDA0A7530EF58F4445F7EE42282A1AFF15EB5F14EED5112686BCC35F0499DD3F5
311
CFFEE4CE0121F625B94E37FE4F4E8011BAB0B6E4DF331952CE4946F3B23EF7CDFA81B26120D6C1AE99DC14987D610169CCCC410CA2488782151AC4A65A3549B37FC2BA87E56730D20D662F9FC84B3B7B6DF7B937CC792E36DB978D494B47A1FEDEE5B6C560A0A580EE5590D4F16F41DF442C8E4B89247804D7EFCB79DB773A
311
2D2045D4524DB44C603F828B084BDA5A2EAAB520A8A479B661A89B88BBA307B4E50352CB804AE0298D25E5F186715EA69B987154A34D4A8A1370FC7FFDB7655A6C489A97993A21BBA33AAA4357F70E7BE50FA2C247375855EFDE0CB937A2D10932E85A7204AB8E6B8773CF1BCEE6B7BDE97436EB4DE6E3CBDED56C3EEF2DBC
311
F1C5ED6C327C773399D67E329A047E5D6ADA110D2FA1B4F9A560D67D0F4BC48F4D026E704F945C7F30E159BF1F967DF4C2FE007B502F9B8D37D133FA3E1AFD5CC07EE55141CBB4E034A599223A86EEF507FF46D067749431E3CB9424F40C295F3EAC0E8CC1C819FBBEEA78A73F0EF6DAD1B90EC8A342D463996E33C2F8C1C6
311
C420D92FB2C4E257FBA4799B4253FFEA3FEB1874A632E72C421E8C9C84E62955C886671421915209EAB57BFAC8DE3DCED8FD6C3A4445B69CD69A3C1234C95C222C40AD3254DD71E7373475BAAFBA76516EFB4F78D84CE13AE0CCB58B265DB190CAFE16055AB742957070A9DDC9A3F12759C2D16B9B4DCD7FB34B63D329C9CD
311
9273FA276B9749E1D600A491027D031A2278A75226F02BDDEC7CF89F0CAFD57188C2E7B6548D2DFB81C698EA1884A831CADE16D0C43CD9A37708D4B7CDF2FAD59A0E2267DDB2DE248191DA534424D54D41EB6755BA597C1DA04371965F9C8297097C79BEA49EA02073A9031C2C022BACCC82285075FEE7FAABC871934D9D3B
311
060A38BFEFAE2EFF58CFF334CD3333B4BEB1F76167F588DB6DB44672A0FA5A22D7A3A1375A57D7017B43D96C89A47D12C9270CC0B382354077DC0F5E9A3B23EA909968D60DB42B0E18BA5C38B6B04D20D4D2A59D5B3538683C32EA2086F49552474C7B41F1E68D60502D850A02BD7CF02F504B0304140006080000FA5E6841
311
000000000000000000000000350000006662782F43354641353242452D414430422D343533392D424441302D3830373039303838424635462F76657274696365732E62696E504B0304140006080800FA5E6841F270F1330600000004000000360000006662782F43354641353242452D414430422D343533392D424441302D
311
3830373039303838424635462F747269616E676C65732E62696E636660600000504B0304140006080000FA5E6841000000000000000000000000370000006662782F43354641353242452D414430422D343533392D424441302D3830373039303838424635462F617474726962757465732E62696E504B0304140006080800
311
FA5E6841D5987DFC8F00000041010000360000006662782F43354641353242452D414430422D343533392D424441302D3830373039303838424635462F6469726563746F72792E786D6C858F410EC2201045AF4266AF15DDB800BA74E7C21B903225242D6328188F2FA5C4183471359997F9FF81E89FF3C41E1816475E02DF
311
1F80A11FC8386F25A438EECEC07A250251FC3803E6F58C12560C4AD840E95E91C151A72936F496F35732D860FE635F62C8F2DA16B505C545B74125BAA2FA9E05D7CC053D063734D5C7665FD55B6B8D15D5E9BFEAFD8490FFA45E504B0304140006080800FA5E6841F9BCFD3DFB000000A00100003B0000006662782F433546
311
41353242452D414430422D343533392D424441302D3830373039303838424635462F7265736F75726365732F636F72652E786D6C8D504B6E833010BD0A9ABDC1261008328E50454FD00B586642AC041BF953F5F835814AEDAE9B99D1FB689E1EBF7E2DCFEC139DD7D6F4C0720A191A65276DE61E62B89116B2ABE0CEDAF04B
311
0699910BF6B0C120F8EC6C5C0F485913D084841A3BE1014AEF3140A69EE9E8C1AB3B2E32973124857FE4AB540F3963CEF244279DE03EB81420DB9F6C1384436FA353E879B1B382C7A8A743A3A7F453DF343A10978656EC6D18C978AA465235F53B69C7734BCABA2907CA2EE7B11D78B199050F7AF9C9A81CCA80138892B292
311
304668FBC15857D75D5DA6BBA394179BFC8F29AED33F4D519B702A8FB8BBCD836029C88B10BCD8FA4AEB5566DA5BB7E21B504B010214000A0000080000FA5E68413DEE336E79000000790000001B00000000000000000000000000000000006175746F6465736B2D64657369676E2D7061636B6167652E786D6C504B010214
311
00140006080800FA5E6841D486FD9CA0000000F40000001300000000000000000000000000B20000005B436F6E74656E745F54797065735D2E786D6C504B01021400140006080800FA5E68419156A00CE80000007C010000080000000000000000000000000083010000636F72652E786D6C504B01021400140006080800FA
311
5E684155019EA25F0000007C000000070000000000000000000000000091020000636E782E786D6C504B01021400140006080800FA5E6841F8B3B00465010000020300000C00000000000000000000000000150300006662782F636F72652E786D6C504B01021400140006080800FA5E68413BE103E47E0000009D0000000B
311
00000000000000000000000000A40400006662782F636E782E786D6C504B01021400140006080800FA5E68415F7366712C0100001502000031000000000000000000000000004B0500006662782F43354641353242452D414430422D343533392D424441302D3830373039303838424635462F636F72652E786D6C504B0102
311
1400140006080800FA5E6841A4C2FA454B010000330300003000000000000000000000000000C60600006662782F43354641353242452D414430422D343533392D424441302D3830373039303838424635462F636E782E786D6C504B01021400140006080800FA5E6841F0739D80A405000081100000340000000000000000
311
00000000005F0800006662782F43354641353242452D414430422D343533392D424441302D3830373039303838424635462F6F626A656374732E786D6C504B01021400140006080000FA5E68410000000000000000000000003500000000000000000000000000550E00006662782F43354641353242452D414430422D3435
311
33392D424441302D3830373039303838424635462F76657274696365732E62696E504B01021400140006080800FA5E6841F270F13306000000040000003600000000000000000000000000A80E00006662782F43354641353242452D414430422D343533392D424441302D3830373039303838424635462F747269616E676C
311
65732E62696E504B01021400140006080000FA5E68410000000000000000000000003700000000000000000000000000020F00006662782F43354641353242452D414430422D343533392D424441302D3830373039303838424635462F617474726962757465732E62696E504B01021400140006080800FA5E6841D5987DFC
311
8F000000410100003600000000000000000000000000570F00006662782F43354641353242452D414430422D343533392D424441302D3830373039303838424635462F6469726563746F72792E786D6C504B01021400140006080800FA5E6841F9BCFD3DFB000000A00100003B000000000000000000000000003A10000066
311
62782F43354641353242452D414430422D343533392D424441302D3830373039303838424635462F7265736F75726365732F636F72652E786D6C504B0506000000000E000E00800400008E1100000000
310
504B03040A0000080000FA5E68413DEE336E79000000790000001B0000006175746F6465736B2D64657369676E2D7061636B6167652E786D6C3C3F786D6C2076657273696F6E3D22312E302220656E636F64696E673D227574662D3822203F3E3C666F726D6174733E3C666F726D61743E687474703A2F2F736368656D612E
310
6175746F6465736B2E636F6D2F64657369676E2D7061636B6167652F323030393C2F666F726D61743E3C2F666F726D6174733E504B0304140006080800FA5E6841D486FD9CA0000000F4000000130000005B436F6E74656E745F54797065735D2E786D6C7D8EC10E82300C865F65E91D8A1E8C310C0EEA1BF002731658846E
310
D98AC1B77784ABF1D8FE5FBFBF75BBCE937A534CCEB38643598122B6FEE978D0B0485F9C41B54DDD7D022595594E1A469170414C76A4D9A4D207E29CF43ECE46F218070CC6BECC4078ACAA135ACF422C856C0E68EA1BF5669944DDD7BCDE7B1F8E415D77AECB980613C2E4AC91FC167A2B244592486606FC29C8FD7F045B9A
310
EF7053A7E60B504B0304140006080800FA5E684174130A46E90000007C01000008000000636F72652E786D6C8D90E16E832014855F85DCFFA8A0566790A651F7047B0102D491563002CB1E7FD8DA64FBB75FF7E4703EEECD61E7EFE58EBEF4E68DB33D90AC00A4AD74CAD8B98718AEB80574E66C732EFC8A01B262D13DEC36
310
70366F2EAE87259D0DDA86E45AA7F4610AEF750024EF49F4E0E5A75E44266248097FCB56216F62D61979A904C768147A2E312AFD67AE466FC02B32946379B9E0E9D434B8AAE980DFDEAB015342A6B619CB713AB52CDF61CE82595EFBE5A645D00A382D08C584E0A2FD20A4ABEBAEA6497745C1F23DFE078AABFA27148D0D25
310
3DCE7D621E3849873C1E38CBF72ED2781495E6DE1BFF01504B0304140006080800FA5E684155019EA25F0000007C00000007000000636E782E786D6C4DCB3B0E80201045D1AD90E915ED2CF8AC45050C11660C8261F98AB1B07AC9C97D42D718D865D3E909258CFD00CCE24AC6E326A164D74DC0B4128928FF326038472BA1
310
3128B1252AC747C6BAB984FC68F0B87FE8960A5C09FE86CFB69FBA01504B0304140006080800FA5E684143E58C5166010000020300000C0000006662782F636F72652E786D6C8D52ED8E8320107C15C27F45FC68BD06699AB6F704F70254A947AA60104C1FFFD68FC6EBA5692E26486676766747D9FEDE366890B657461798
310
8611465297A652BA2EB077D720C768CF9935C6FD2AC3488B561678843167B535BE5BA0D26827B503549B4A2EA0E87BE9302A1BB814B82FBF652B42E11D54F4B7B013E54DD432A421D050C759EF2C1840F390F1C4FC7AB93332E39C79AFAA8555154C5357252DE6293D26A7E47008CE9BED3648B3F8187C7CA6C720A6F49C6F
310
4FC9E9BCC91919C59C39D53EDC95560A272BCCE388C601A541947F51BACBB25D16C37D17458C8CE54F22DF55FF1479A55D122F7667598F39052313F1675B88C8A15E0CE0877046C610E13525FC1C340402213B71691E7BDC001A64E98C4D81A98C5FA941345EC2D4084D0F23330B9DA706B0D9CB3EF19B3EEF7BC00714BA06
310
6BC2C1F5E2DD389DCD5397283A6983C1DD9136B615CD6A6EB6B89EEBA097F2D234C6FE474D9655C9122619FF5EFE03504B0304140006080800FA5E684109A9B19E7E0000009D0000000B0000006662782F636E782E786D6C4DCCD10E82201886E15B61FF39190AA11BE00AE23E5CA2732A3482D6E5A7CD838EBEEDD9B757B4
310
9F75416F175F53F012C8E90CC8F947E8273F4AC869C035A056891842FABB01F2DDEA24EC0C4A8C31E4E741BD1BBABCA44D97C9CF073646F3BBA94A6C18B398726271ADC90D5F39A5BAA94A6DD9050A258A5F69DB3DACBE504B0304140006080800FA5E6841B6C977252C01000015020000310000006662782F394443374544
310
33322D443535462D343731462D384331422D4137343443393332434635362F636F72652E786D6C8D51CB6EC32010FC15C4293D60831F711C61A2D669BEA03F4081A42831583CAA7C7EA176A4F6960B8B66676647BBF4709F6EE05B39AFAD1920293004CA082BB5B90C308633DA417060D4591BFED020307C5203CC3064F4E2
310
6C9C574858139409093556AA15E4DEAB0081B8A5CF00BDF852132F780C89E1AFC5CCC5955F54418AD44E3C467D7029005886E417B2FE3876EFC7BA42C7B63DA1A62327B41BC91B7AED9A66ECEB6A3CB55B5A2E424663D472956B99E2E8B356EE59932C6634E8E9115F38C5839290559854881084771F84ECDB76DF56E9BFC7
310
989699FE4F1467F9A4286A13EA6A8DBBC83C6484964B835169E3E7ED1146DD67EB02C8F3365E8917C8708171D7F76DD3D5B45CB86903C974DBACA63E589736BCB97E267ABD3A6F1B46CB7CA4547E2F986A3E28FB01504B0304140006080800FA5E6841C26535525301000033030000300000006662782F3944433745443332
310
2D443535462D343731462D384331422D4137343443393332434635362F636E782E786D6CBD93CD6EC32010845F0571F70FCE8FA20813A9873E410FBD62D82434182CC055F3F65D1292E69243A5AA1784668799D5279BEFBE464B3E2144E35D4F59DD52024E796DDCA1A773DA571B4A768207EFD3838D122747E86996A9E087
310
E0E7A9481AF672B609556BDCA98801A29F838288727E49AC57D26200B86A4611C601B4064DEE46BCED21E02A280E67928E405E5FDE891F3E40A5C89B9C2278933B04CF67697A3051A2AC8CB1A7511D6194B59C93D7104FB59649D6ACBE753DD9E92789E407B7CA391892CB7B9A4F2ACA463572E40D0E058F2920BD624AE709
310
A890D3648D9209213717E3D523F86C5C5A2F8BD720F880EE45B7DE6C30EC32133C99118A4305900934155DCBBA8AB1AADDBC31B65DADB6AB0EEFDBB6E54DB60B3E786FCB238C81E027A2BC4BE012158C3779FC0C5FF1116D02B2F6E1FC0B9008A0B45EE9DC33FE920F5B2F96CB7FE4D35CBE6FC415F02F10DF504B03041400
310
06080800FA5E68416EF07454630700009A1B0000340000006662782F39444337454433322D443535462D343731462D384331422D4137343443393332434635362F6F626A656374732E786D6CED59DD739B3810FF5718EEE5EEC1D8C44E9ADC103AB1D3763CBDB49DFADAB907CF3032C8441721184924F1FDF5B7FA00033109
310
BEE6DEFA6003425AEDFEF6534BF0F631A3CE3DE682E4ECD2F5BD89EB6016E70961E9A55BCAEDE8DC75DE8601CF73D998E63A0C65F8D255C36E18A43C2F0B3B94E02D2AA9EC8CBE9FFFE5881833EC3A3145425CBA22BEC519F25029F3048B3B2F411279E9F6D1F33D33B14D36E5A8B8ED102D10C74C02A730CE808A6398F2DB
310
8F13771C0663F53E0CD4BF9D351D346BD63F6BACA56E7349989088C54F58EA90990E6269EACFAEDF9D9C5E8C4E67B3E9687676E28FE6EFE7D723FFCD74B2385B2C2EAEDE5D007B9B3CA756A604179825A0BF9D1BFAC158BDA945B7081CE23ACE19C3B10612A0D2627509122C60AB067C93F6A3AF246ABCD612369E67EABD65
310
A1313C6D53E99B350C88165D10C46E57495C5D9BF2E59BBF417031C428B9C012B8159283762D3C1CBCC20D27C1D88C86C166AF0B229C0C49CC09A20E251B8E382805A6AA296160165832CA3938907294045A73E675DBB6C0335F769D435C6E4B4A9567B8A176AC08DC0F4BA13923FF60BEE7BE890CF004D29684C973CBA5DC
310
15D80D2F82B11E0C0375999ED8970648674B512A3422E66D47D08572FDE5B51B7E7CBF795CA9707078F382E705E652199DD2A3E60B0CD95E154A765B7F90E6D40210C6806A57EE41F90AC87F82E8B16705F4C6C9E3EC7166E74A8E98D8E63C03DD3813673481BF89E3EB7F75DFB80BC6F5E2B6F6FAF0043755509DFF389E6D
310
19345696FF069C61700F069FF3A97DB58A11057BBE210C005246E2D01C8620B46F378F6EB884C009811E56211AFA2032B07B0FB7C1D892D96BA5722FEB750C10B57B4C87280960D316096CF4E8E903640F4EE2BD9A9A22F6C17BFA2AE67A75BDFAB82AF916C5F8C6FAF435DE12462464CDC30CB5306F497487770F394F40D0
310
A778AF9A7867762B01682BCC15F06905827AD8EFDCDA20867569AEC24DF0C20E2084CAD50DFA3744C49852C4705E56FBD6D14D196AEDF1B66670C31303F1F4A463C21CDF13555580D3EC67B41885BC1F73522810DDF08391AC0E9A5E8F74DF969FC022EBF93DB3960C422F43F44F1DB40EE0D0B2EC0A690B442DF0661FCEE3
310
9CE63CDAEC2213E95CA825808DB6B77C6F1185586F94A4A8800769BFAB424A6AA48D12B2DD9602E2EA0116BF2F174D73987853FFD469FE779C7106D1167C1771EB779D3D2292A114475B94F46DD7DCADA62D34C91ED21C6F29C845EE89DC4548469304A7C7407314F18B57A59ED25C08C2B0807C7510FC261A130F0289D166
310
C5B2D26A076822A20C4B448F414091E90157A71D5DE3C6503ABCCC636DBDCF69AC49F47FB2088EA096CC5944A014851CF222E3BE770A31A48DAE41B9832F585B455B8B414B2821E25DF480497A2B8F41DD90EFC13D86234929A3BC403198F500B24F7C4529B5C3FB06C5772A7F4471495FCB4004A6DB88505A6611FC088393
310
C710D7AE03D3B32834889BD8277106451992251FB2C9D9E9E4C93EA666E886C0C6465B42216C47192A7A506F05445D8F3835F8967A8F523765564428CB4B36C850BC69D79B2CF9AE5A15D981FCAA5211CAC68AB025180684C93AAB56311B4C5D075670231DA87691405941CD29EC85C4E3D7DEA429F76EC0AD9FBEEE061914
310
7E3DDA6B46D4590583E5B15518880724E35B375CE9EB680EF57782937DAAAF6ACD66050888A9485E726255F46D09E58DADD1DCF00649B1FE60B26E75FDB6F4A0FB118C610DD42EF5C2A5023AC34C225599DCA81BFA1541086ED130E34B95538FA1729524BA6A44F43DE95367AB8C686D9A11AFB8C52CCFE0C7D684C5B44CF0
310
1A25E22EBA91345A11C5BA95D2CB4885F1B3027EFEB0EAC003230344FAA20A3CFCD0596B4717AA5C3A4844DE96D986210241B0255A6A74E3152CB51AA9B45C5FD59902EA2E3030ABE2D9CF9345B31DF1F364915AC3F8A193C57CF707DA35FB228D741E2BBB3EEA1850E72745E5358E01BAED5053ADB38849E6567EEB4C1104
310
C52ACA0FAEC6AAA06108F671FC9FB3765F1634DB75F83F2E6BFB4F2A8EA3B24A6BB2EA521DA85C97CD1C3659F8FE64BE7837BAB898CF47B3C5F46C743E5F2C46D7FEF4F4DD7C36797335BBA8D1D48E1A067530D3B90B9E4D50AB86D593C500BAB222A72481D37CE2A41862BE8433FD80F639CFB080E4D96C7627B6293F60F5
310
BDE9734AB4A1B8E2E4164183980A48EB805119CBF6B8F30BB426251CB42F5D681A7977F067ADD27520F35CBAD02A9024C6C2DB409B4935F4347148B93AF75B62800F62A94A896651FD5CAF52D8B4C27F3D65481AB072B57A1850B815D0FD6A7528346F96A7F828C12B761C24E176534AA8D68C2CFB815A18BDCD5EFD46364A
310
D89DDDFA115CF779B17C4FCF692132E893C1B34660A88E24E2A9EE772BC62C4B57D75FC6D06773969F9D829629E87238A511C760CCA52AA8C08AC02A2CCD024930D5C5EFEB2F3C874F3C99A3AB22E7D7C7F3B3DFD68B3CCB726686D657702A4BE04391B3BA85CF3EC91A8A07AC9AEB627D32F14FD6BAA96DFBECD10609ECA9
310
AA0806AA624209D23139B0CB270D2ADBBE1C2B5574A62FAF1D1B44A11960ECE8498FD77CE472C087D4E714E531DACF2B699FED6B8FF554B0090E1DE9F05F504B0304140006080000FA5E6841000000000000000000000000350000006662782F39444337454433322D443535462D343731462D384331422D41373434433933
310
32434635362F76657274696365732E62696E504B0304140006080800FA5E6841F270F1330600000004000000360000006662782F39444337454433322D443535462D343731462D384331422D4137343443393332434635362F747269616E676C65732E62696E636660600000504B0304140006080000FA5E68410000000000
310
00000000000000370000006662782F39444337454433322D443535462D343731462D384331422D4137343443393332434635362F617474726962757465732E62696E504B0304140006080800FA5E6841D5987DFC8F00000041010000360000006662782F39444337454433322D443535462D343731462D384331422D413734
310
3443393332434635362F6469726563746F72792E786D6C858F410EC2201045AF4266AF15DDB800BA74E7C21B903225242D6328188F2FA5C4183471359997F9FF81E89FF3C41E1816475E02DF1F80A11FC8386F25A438EECEC07A250251FC3803E6F58C12560C4AD840E95E91C151A72936F496F35732D860FE635F62C8F2DA
310
16B505C545B74125BAA2FA9E05D7CC053D063734D5C7665FD55B6B8D15D5E9BFEAFD8490FFA45E504B0304140006080800FA5E6841C9DA6987FC000000A00100003B0000006662782F39444337454433322D443535462D343731462D384331422D4137343443393332434635362F7265736F75726365732F636F72652E786D
310
6C8D50596E833010BD0A9A7F03660904194715D013F4029699102BC1465EAA1EBF26A152FBD79F99D15B344F8F5DBED647F289D629A37BA0690E096A6966A5971E82BF9216920B67D618FF4B0689162BF6B0C3C0D9624DD80E481AED51FB886A33E3010AE7D043221FF1E8C1C91BAE2215C14785BBA79B9077B1604AD34847
310
1D67CEDB1820793DD927708BCE042BD1B1ECC57216829A0F8D9AE34F75556881577428C7F2ED4CA653D390AA2E06727EAF0652503AB5CD588ED3A965D96EE6CCABF527A3B4283CCEC08B9C16845292B71F947675DDD545BCBB3C67D92EFF630ADBFC4F5350DA97C511F76573C0690CF22438CBF6BEE27A9619F7DE2DFF0650
310
4B010214000A0000080000FA5E68413DEE336E79000000790000001B00000000000000000000000000000000006175746F6465736B2D64657369676E2D7061636B6167652E786D6C504B01021400140006080800FA5E6841D486FD9CA0000000F40000001300000000000000000000000000B20000005B436F6E74656E745F
310
54797065735D2E786D6C504B01021400140006080800FA5E684174130A46E90000007C010000080000000000000000000000000083010000636F72652E786D6C504B01021400140006080800FA5E684155019EA25F0000007C000000070000000000000000000000000092020000636E782E786D6C504B0102140014000608
310
0800FA5E684143E58C5166010000020300000C00000000000000000000000000160300006662782F636F72652E786D6C504B01021400140006080800FA5E684109A9B19E7E0000009D0000000B00000000000000000000000000A60400006662782F636E782E786D6C504B01021400140006080800FA5E6841B6C977252C01
310
00001502000031000000000000000000000000004D0500006662782F39444337454433322D443535462D343731462D384331422D4137343443393332434635362F636F72652E786D6C504B01021400140006080800FA5E6841C265355253010000330300003000000000000000000000000000C80600006662782F39444337
310
454433322D443535462D343731462D384331422D4137343443393332434635362F636E782E786D6C504B01021400140006080800FA5E68416EF07454630700009A1B00003400000000000000000000000000690800006662782F39444337454433322D443535462D343731462D384331422D4137343443393332434635362F
310
6F626A656374732E786D6C504B01021400140006080000FA5E684100000000000000000000000035000000000000000000000000001E1000006662782F39444337454433322D443535462D343731462D384331422D4137343443393332434635362F76657274696365732E62696E504B01021400140006080800FA5E6841F2
310
70F13306000000040000003600000000000000000000000000711000006662782F39444337454433322D443535462D343731462D384331422D4137343443393332434635362F747269616E676C65732E62696E504B01021400140006080000FA5E68410000000000000000000000003700000000000000000000000000CB10
310
00006662782F39444337454433322D443535462D343731462D384331422D4137343443393332434635362F617474726962757465732E62696E504B01021400140006080800FA5E6841D5987DFC8F000000410100003600000000000000000000000000201100006662782F39444337454433322D443535462D343731462D38
310
4331422D4137343443393332434635362F6469726563746F72792E786D6C504B01021400140006080800FA5E6841C9DA6987FC000000A00100003B00000000000000000000000000031200006662782F39444337454433322D443535462D343731462D384331422D4137343443393332434635362F7265736F75726365732F
310
636F72652E786D6C504B0506000000000E000E0080040000581300000000
  0
XRECORD
  5
17
102
{ACAD_REACTORS
330
12
102
}
330
12
100
AcDbXrecord
280
     1
270
     1
271
     1
  0
XRECORD
  5
16
102
{ACAD_REACTORS
330
12
102
}
330
12
100
AcDbXrecord
280
     1
270
     1
271
     1
  0
XRECORD
  5
18
102
{ACAD_REACTORS
330
12
102
}
330
12
100
AcDbXrecord
280
     1
270
     1
271
     1
  0
XRECORD
  5
15
102
{ACAD_REACTORS
330
12
102
}
330
12
100
AcDbXrecord
280
     1
270
     1
271
     1
  0
XRECORD
  5
23D
102
{ACAD_REACTORS
330
22
102
}
330
22
100
AcDbXrecord
280
     1
102
MATERIAL
148
0.0
149
0.0
149
0.0
 93
        0
 94
      127
282
     0
 72
     0
 77
     0
171
     0
175
     0
179
     0
273
     0
  0
XRECORD
  5
24
102
{ACAD_REACTORS
330
22
102
}
330
22
100
AcDbXrecord
280
     1
270
     1
271
     1
  0
XRECORD
  5
23
102
{ACAD_REACTORS
330
22
102
}
330
22
100
AcDbXrecord
280
     1
270
     1
271
     1
  0
XRECORD
  5
BA
102
{ACAD_REACTORS
330
22
102
}
330
22
100
AcDbXrecord
280
     1
 70
     1
 90
1959938040
 71
     1
  1
4F611974-3A6F-4906-ABED-FE2F4DB30B36
311
504B03040A0000080000FA5E68413DEE336E79000000790000001B0000006175746F6465736B2D64657369676E2D7061636B6167652E786D6C3C3F786D6C2076657273696F6E3D22312E302220656E636F64696E673D227574662D3822203F3E3C666F726D6174733E3C666F726D61743E687474703A2F2F736368656D612E
311
6175746F6465736B2E636F6D2F64657369676E2D7061636B6167652F323030393C2F666F726D61743E3C2F666F726D6174733E504B0304140006080800FA5E6841D486FD9CA0000000F4000000130000005B436F6E74656E745F54797065735D2E786D6C7D8EC10E82300C865F65E91D8A1E8C310C0EEA1BF002731658846E
311
D98AC1B77784ABF1D8FE5FBFBF75BBCE937A534CCEB38643598122B6FEE978D0B0485F9C41B54DDD7D022595594E1A469170414C76A4D9A4D207E29CF43ECE46F218070CC6BECC4078ACAA135ACF422C856C0E68EA1BF5669944DDD7BCDE7B1F8E415D77AECB980613C2E4AC91FC167A2B244592486606FC29C8FD7F045B9A
311
EF7053A7E60B504B0304140006080800FA5E68411179EB95E80000007C01000008000000636F72652E786D6C8D90E16E832014855F85DCFF28A864C6208D5AF7047B0102B423AD6004963DFEB0B5C9F66FBFEEC9E17CDC9BC34FDFCB1D7D992D58EF7AA00501649CF2DABA6B0F295E700BE824F8E67DFC1503E4E4627AD86D
311
10FCBAF9B41E96F22E1A17B3EBBC36872943301190BA67D143509F6691854C3127C2AD58A5BAC9AB29E84B653825ABD17389D5F93F7BB16603D1B6F3DB79181B4C27F28E9BA13EE3719A6B3CCE4DCDDA890D8435BCDC61C1A35D5EFBD56664341A4445688529C5A4FDA0B463AC6355D61D21BCDCE37FA0B4EA7F42C9BA5857
311
C7B94F2C80A0F990C783E0E5DE451E8FA2F2DC7B133F504B0304140006080800FA5E684155019EA25F0000007C00000007000000636E782E786D6C4DCB3B0E80201045D1AD90E915ED2CF8AC45050C11660C8261F98AB1B07AC9C97D42D718D865D3E909258CFD00CCE24AC6E326A164D74DC0B4128928FF326038472BA131
311
28B1252AC747C6BAB984FC68F0B87FE8960A5C09FE86CFB69FBA01504B0304140006080800FA5E6841151E0E4165010000020300000C0000006662782F636F72652E786D6C8D52D96E833010FC15CBEF60CCA1A2C838CAD52FE80F38E0502B60231F289FDFE588D254515421196B66677776806D6F7D8746699D32BAC2344E
311
3092BA368DD26D8583BF4425465BCEAC31FE5719465AF4B2C2138C396BAD09C30AD5467BA93DA0DA3472058573D263547770A9B0ABBF652F62113C54B86B3C88FA2A5A19D31868A8E3CC790B06D032643A31BF9C6F8C2C386721A866655503D3D445498B79599E3E8EBB7D1ED143F219E5BBEC18ED0FA72CDA9FF2AC280FC5
311
2E2972462631675EF57777B595C2CB06F334A169446994945F946E8A6253A470DF24092353F993280CCD3F4541699FA5ABDD45E630A7606426FE6C0B1179E4C4087E0867640A115E73C2CF41432010B217E7EEBEC715A051D6DED81C98C68407358A2E48989AA0F9616461A1F3DC00367BD9277DD3E77D0FF88042B7604D78
311
B89E839FA6B365EA1AC5206D34FA1BD2C6F6A27B985B2C3ECEC7A097F2DA74C6FE474DD655C91A2699FE5EFE03504B0304140006080800FA5E68416F532FC87D0000009D0000000B0000006662782F636E782E786D6C4DCCD10AC2201886E15B91FFDC663F0B3D5087B9761FA3B921390DD3E8F2DB62071D7DF0F0F1CAEEB3
311
06F276F9E55354703E31202EDED3E4E3A2A096990A209D9639A5F2770312C7D529D819B45C72AACF8326378F35944D838F8F0319B73D8ADE523B20D2F66A2FD45881D418CE871B32D61A0E8D96CDAFB4ED1ED65F504B0304140006080800FA5E684163241C4C2C01000015020000310000006662782F30374344323844432D
311
434632322D344243352D414338322D4141373746453230303441372F636F72652E786D6C8D51CB6E833010FC15E4537A006CD70414194794345FD01F70C049AC041BF951E5F3BB2E446A6FB97857BB33B3E35DBE7F4CF7EC5B39AFAD69112930CA9419ECA8CDA545319CF306657BC19DB5E10F0C65464EAA45A98C04BF381B
311
E7B53458139409503576546B517AAF02CA863B242DF2C3554DB2903100C2DF8A590E3779510529A00D38C17D7060205B86A417095CF707DA1CFABC3F529AB38FBECABBBEA179D7D5F5F19362CCBA9A970B51F018F5B8D2F50876F4592BF7AA48220B1EF4F4B43F3825831A91A098D09C901C375F84ECAA6A5751C87718F332
311
C1FF91E23CBE488ADA8477BADA5D681E09C2CBA521F868E3E9FE34A31EB375214BF3365E0D6FF0AB02E39AB19A6D192F172C6C0044B76C15F5C13AD8F0E6760238A916E52D13BC4C4782F07B4188E9A0E207504B0304140006080800FA5E6841A4C2FA454B01000033030000300000006662782F30374344323844432D4346
311
32322D344243352D414338322D4141373746453230303441372F636E782E786D6CD593CD6E022114855F85B09F1FAC1A63184CBAE81374D12D0357A53230E1A7A96FDF8BA275E3A2CB6E0839F7E39C9B9319BEFB9E2CF982108D7703656D4F0938E5B5718781E6B46F3694EC040FDEA7078C122727186891A9E087E0F35C25
311
0D7B996D42D51A77AA6280E8735010512E2F89F54A5A3400D76414611A416BD0E40EE26D0F015741713C937404F2F6FA41FCF8092A45DE1517C1BB922178396BD2034489B232C68146758449B63227AF219E5A2D936C597BCB7AB2D3AF13290F6E91391852C2075A4E2AEA462DF6C83B1C0A1E53C0F62A94CE335021E7D91A
311
251396DC5DC02B2378362EAD979535587C409AAD5F964B34BBCC044F66824AA8003281A662D1B345C358D36FDE19DBAE56DBD502EFDBBEE75DC1051FBDB7F511DA40F03351DE2570890AC6BB327E565FE5883601BBF6E1FC8722B1809A7A6DE7EEF19FFBE92EDF37D615F02F103F504B0304140006080800FA5E68419C904D
311
43A405000080100000340000006662782F30374344323844432D434632322D344243352D414338322D4141373746453230303441372F6F626A656374732E786D6CAD57DB8EDB3610FD15417D691F7C91ED38BB8556812FEBC00836096224E88301839228ADBA942850D4C6DBAFEFA148DD1C7BE31679B12C6A389C3973E642
311
F7DD3165D6331545C2B33BDB198E6D8B66010F932CBEB34B190D6E6CEB9DE70ACE6547CCB63292D23B5B2DDB9E1B0B5EE66629A41129993C59DD2CFFB28A8066D4B602468AE2CE2E82479A922129250F69F1340C8924C3383A0E9DA116ECAB8D05C91F4F94E644D04CC252AC67D06269A39CFEEBD81E79EE487DF75CF56BA4
311
A697A546953FFDF393AC90240B7E38EC44CDD499ADEF276F6E076F66B3E960369F3883E566B91E386FA7E3D57CB5BA5DDCDFE2E0420A683296081AD9DE7B602392C01DE94F9E5B26999C4E8C8809D048D0E74445CAF62696E38EB44CE39D71F29CF901CF321A5458018DCA3FA33AA439CD42C43CA1052CEB2034EEBF3A0AC7
311
CEE7A97A37477697AF43A0BBA3A3A8B6BD7E762DE5FEDF70A1B88641A2A08A811A4BE3A8E6EAB845D8E79C996F4961A54452911066B1C41744BCD81E449588E7F6D428260B950DCA03DB4314F4E73E5D90463FE7F9392BA392314563DBABB2E0805CA1B2A82C4BFEA1A2B5BE8B0C6C42AC141B6E8C43F225A7B677AB297273
311
C2260DA415311223E47053ED9C4E4E1C5DA93CDDAE6DEFC3C63FEE54EE9E3F3C173CA7422AFA805A75E0EAA742C9D8E45C1539B5C13E31A505E50B90FF88546F4D41DC44729C1D67E614294856445CA4888D35B60663FC8C2DA7FA55FF3BFFDC51B3B91FBD4B7822D80AAA5F8067DF876E2C3B707AEE3308CFC5D4B8B60B08
311
43D978483200A44862318E25D4E1C83FDADE16550E5519BB08F31CB80C739FF1D71D19352814D5499D67062C4FCAE215051AB0558C84199AFCC6C0364E3F94B3EA60237609DE37BF84AE8BF5EEC3AE141109E883C9E9358D922C9168712D6FBA06F530EF79F4445FBE7311C2D11FF1DE75F14ECD5105D056982BE0E3BAA6AB
311
97F6E4DE0101F6C55C951BF72727C009D5583BFA1F9222A08C918CF2B23EF7D5FE81B6A12156C9AE98DC3498B6B18034FACB490EA2490722C915884DB76A8AE6F082775FB71FC148C833EE13D60AF96DE90D38E3E2E0BF1C74553A8BF4B73EB50D0423A5056CAF72A44E7F83F9214CA2A82C5003CFC0FA6DBBEA864E550554
311
885AAB4E9619DC476E1161385BEB45B316048D946787046D136977F680AE7E206A085029BC647141597448182BD343943034A3434AF20B70FC7FFBFD32CD0F24E565262FE8EE998EE6D0B7BD47DEE23B91C1A3EDEDAAE76089D21BD2B00D734F58B5923358F5423BDBCC1DE7F6ED6C305DCC3783D9ED783E582CEFD783CDFD
311
64335B2FA7E3E5745EC7492BF7DCBAD374131A514267734B9198F07DDD227D4C0DB0BD07228BFD7B9D9DF5F3EB768851D81D610FDA65B371113E63ECA3E1CF15B49267156DD39CD1946692A8147A507FD8178231A3678C5EDFA624A65768F9F47E77E20C56AED8F759A53BFD7EB2D7ACAE54429E55221FCBD4CF48C24E36C6
311
1AC9619EC506BF3A26CD53F799FA55BD99C060302D384B4294C1D08A294FA94431BCA207899416A05E77A40FCDD5E38ADDCF7A4094C467B4B6E49160466605D202D42A03D95FB77EC34CA7C6AA3B1BDD76F8841F53296C0B9CB9B331A3CB24A0C5D0477F569350A51C5CEA0EF298FB4916338CDA7A53F3DEEC52D8F43A7223
311
72CDF864FCD215DC38803292636CC03C84E854C6786E659BF91EFC27C76B732C22F1D72F65E34BBBD038531D8314D54E99CB0266982773F41189FABA5BCEB092E92172D525EB551268AD0349445C5D14947DC6A4C5FAF308038AB5FD64E5AC8C11CBEB350D0405994B95E06011586174E64482AAAB3FF79F05C74536B53609
311
2860FD7EBC99FFB15FF134E5995EDA2FCC75D8DA3DE2721BEE511CA8BA9514FBC9D899ECABDB80B9A01C7C52D021098B272C20B2226980EE851FBCD45746F421FDA1911BA9509C3074BBB64C639B41A9A14BB7B62A70307764D4420EA91BA5CA98AE40FEEA85605489C2048151DEFB17504B0304140006080000FA5E684100
311
0000000000000000000000350000006662782F30374344323844432D434632322D344243352D414338322D4141373746453230303441372F76657274696365732E62696E504B0304140006080800FA5E6841F270F1330600000004000000360000006662782F30374344323844432D434632322D344243352D414338322D41
311
41373746453230303441372F747269616E676C65732E62696E636660600000504B0304140006080000FA5E6841000000000000000000000000370000006662782F30374344323844432D434632322D344243352D414338322D4141373746453230303441372F617474726962757465732E62696E504B0304140006080800FA
311
5E6841D5987DFC8F00000041010000360000006662782F30374344323844432D434632322D344243352D414338322D4141373746453230303441372F6469726563746F72792E786D6C858F410EC2201045AF4266AF15DDB800BA74E7C21B903225242D6328188F2FA5C4183471359997F9FF81E89FF3C41E1816475E02DF1F
311
80A11FC8386F25A438EECEC07A250251FC3803E6F58C12560C4AD840E95E91C151A72936F496F35732D860FE635F62C8F2DA16B505C545B74125BAA2FA9E05D7CC053D063734D5C7665FD55B6B8D15D5E9BFEAFD8490FFA45E504B0304140006080800FA5E6841CE17212DFC000000A00100003B0000006662782F30374344
311
323844432D434632322D344243352D414338322D4141373746453230303441372F7265736F75726365732F636F72652E786D6C8D50596E833010BD0A9A7F83CDA2A2C83802424FD00B586692580936F252F5F835814AED5F7F66466FD13C3D7EFE5A9ED9273AAFADE980E5143234CACEDADC3A88E14A5AC8CE823B6BC32F19
311
64462ED8C10683E03767E37A40CA9A802624D4D8190F507A8F0132F54C47075EDD7191B98C2129FC235FA57AC81BE62C4F74D209EE834B01B2FDC9364138F4363A859E173B2B788C7A3E347A4E3FF555A303D1B6D3DBA51F2AC246FA4EEABEBA90619C2A324C75D5B463D3D3A6E6C566163CE8E527A3722803CE204ACA4AC2
311
18A1ED0763A7A6393565BA4F94F26293FF31C575FEA7296A13AAF288BBDB3C089682BC08C18BADAFB45E65A6BD752BBE01504B010214000A0000080000FA5E68413DEE336E79000000790000001B00000000000000000000000000000000006175746F6465736B2D64657369676E2D7061636B6167652E786D6C504B010214
311
00140006080800FA5E6841D486FD9CA0000000F40000001300000000000000000000000000B20000005B436F6E74656E745F54797065735D2E786D6C504B01021400140006080800FA5E68411179EB95E80000007C010000080000000000000000000000000083010000636F72652E786D6C504B01021400140006080800FA
311
5E684155019EA25F0000007C000000070000000000000000000000000091020000636E782E786D6C504B01021400140006080800FA5E6841151E0E4165010000020300000C00000000000000000000000000150300006662782F636F72652E786D6C504B01021400140006080800FA5E68416F532FC87D0000009D0000000B
311
00000000000000000000000000A40400006662782F636E782E786D6C504B01021400140006080800FA5E684163241C4C2C0100001502000031000000000000000000000000004A0500006662782F30374344323844432D434632322D344243352D414338322D4141373746453230303441372F636F72652E786D6C504B0102
311
1400140006080800FA5E6841A4C2FA454B010000330300003000000000000000000000000000C50600006662782F30374344323844432D434632322D344243352D414338322D4141373746453230303441372F636E782E786D6C504B01021400140006080800FA5E68419C904D43A405000080100000340000000000000000
311
00000000005E0800006662782F30374344323844432D434632322D344243352D414338322D4141373746453230303441372F6F626A656374732E786D6C504B01021400140006080000FA5E68410000000000000000000000003500000000000000000000000000540E00006662782F30374344323844432D434632322D3442
311
43352D414338322D4141373746453230303441372F76657274696365732E62696E504B01021400140006080800FA5E6841F270F13306000000040000003600000000000000000000000000A70E00006662782F30374344323844432D434632322D344243352D414338322D4141373746453230303441372F747269616E676C
311
65732E62696E504B01021400140006080000FA5E68410000000000000000000000003700000000000000000000000000010F00006662782F30374344323844432D434632322D344243352D414338322D4141373746453230303441372F617474726962757465732E62696E504B01021400140006080800FA5E6841D5987DFC
311
8F000000410100003600000000000000000000000000560F00006662782F30374344323844432D434632322D344243352D414338322D4141373746453230303441372F6469726563746F72792E786D6C504B01021400140006080800FA5E6841CE17212DFC000000A00100003B000000000000000000000000003910000066
311
62782F30374344323844432D434632322D344243352D414338322D4141373746453230303441372F7265736F75726365732F636F72652E786D6C504B0506000000000E000E00800400008E1100000000
310
504B03040A0000080000FA5E68413DEE336E79000000790000001B0000006175746F6465736B2D64657369676E2D7061636B6167652E786D6C3C3F786D6C2076657273696F6E3D22312E302220656E636F64696E673D227574662D3822203F3E3C666F726D6174733E3C666F726D61743E687474703A2F2F736368656D612E
310
6175746F6465736B2E636F6D2F64657369676E2D7061636B6167652F323030393C2F666F726D61743E3C2F666F726D6174733E504B0304140006080800FA5E6841D486FD9CA0000000F4000000130000005B436F6E74656E745F54797065735D2E786D6C7D8EC10E82300C865F65E91D8A1E8C310C0EEA1BF002731658846E
310
D98AC1B77784ABF1D8FE5FBFBF75BBCE937A534CCEB38643598122B6FEE978D0B0485F9C41B54DDD7D022595594E1A469170414C76A4D9A4D207E29CF43ECE46F218070CC6BECC4078ACAA135ACF422C856C0E68EA1BF5669944DDD7BCDE7B1F8E415D77AECB980613C2E4AC91FC167A2B244592486606FC29C8FD7F045B9A
310
EF7053A7E60B504B0304140006080800FA5E684103981F67E80000007C01000008000000636F72652E786D6C8D90516EC3201044AF82F61F9B25B1625998C891ED13F40208488A12836543D5E317278ED4FEF56B47C33C7635E2FC3D3DC8975D56177C0B583020D6EB609CBFB590E295D640CE522C21C45F31205E4DB685CD
310
06296E4B48F36EE9E0A3F531BB3E18BB9B6A5D6D04A21F59B4B0EA4F3BA942A59813EBBD9895BEAB9B2DF0AD329C9233E4B5C499FC9FBB3ABB801CFB11798D1D651D0EF4381E077A39753D1DFAA1AB2B1C0F353F897283A5886E7AEFD78B55D11A909C21A78894D51F884D553515CFBA614C945BFC0F9466F34F28391F0F7C
310
3FF785AD20311FF27C90A2DCBAC8E359549E5B6FF207504B0304140006080800FA5E684155019EA25F0000007C00000007000000636E782E786D6C4DCB3B0E80201045D1AD90E915ED2CF8AC45050C11660C8261F98AB1B07AC9C97D42D718D865D3E909258CFD00CCE24AC6E326A164D74DC0B4128928FF326038472BA131
310
28B1252AC747C6BAB984FC68F0B87FE8960A5C09FE86CFB69FBA01504B0304140006080800FA5E6841042CFC4964010000020300000C0000006662782F636F72652E786D6C8D52ED8A8330107C9590FF1A632B9512533CAA4F702F906AEA856A2231913EFEAD1FC5EB514A116298D9D99D1D65A77BD7A251DA41199D611A46
310
18495D995AE926C3DE5D8314A31367D618F7A70C232D3A99E109C69C35D6F87E852AA39DD40E506D6AB9826218A4C3A86AE192E1A1FA919D0885775031DCC25E5437D1C8908640431D6783B360002D43A613F3EBE5CEC88273E6BDAA5756D5304D5D95B49897E792C629CD8328A745B02FF745F075C8CF41712EF234A1E52E
310
8D0F8C4C62CE9CEA1EEE2A2B859335E67144E380D2204ABF293D26C93189E17E8C2246A6F22791EFEB0F455E69B78B57BB8B6CC09C829199F8B72D44E4D02046F04338235388F09A137E0E1A0281909DB8B48F3D6E008DB272C6EE81A98DDFA851B45EC2D408CD0F230B0B9DE706B0D9CB3EF19B3EEF7BC00714BA016BC2C1
310
F5E2DD349D2D53D7287A6983D1DD9136B613ED666EB1B89DDBA097F2CAB4C67EA226EBAA640D934C7F2FFF05504B0304140006080800FA5E68410B05DC1D7E0000009D0000000B0000006662782F636E782E786D6C4DCCD10AC2201886E15B91FFDCB61F671AA8A365DDC7686E8C9C866974F96DB1838E3E78F87855FB593C
310
79BBF49A63D080871A880BF738CC61D250F2482590D6A81463FEBB0109FDE2346C0C464D2996E74E831BFBE2F3AA7E0E8F1D99B5C8513454487EA3CD8909DAA1BD5064E7DA4ADE5D8F12A132AAFA95D6DDC2E60B504B0304140006080800FA5E6841B0CB5E422B01000015020000310000006662782F33444431353137342D
310
373835462D343933372D423144432D3133413044383542453638312F636F72652E786D6C8D51CB6E833010FC15E4537A30D818131219474D69BFA03F40C049AD041BF951E5F3BB2E446A6FB97857BB33B3E35D71B84FB7EC5B39AFAD6911CD09CA9419ECA8CDA545319C7183B28314CEDAF0078632D34FAA45A98CA4B8381B
310
E7B53458139409503576546BB1F75E05940D37485AE4872F35F5791F0320FC359FFBE1DA5F544E7368034E0A1F1C18C89621E94592751DE5745BE16DC33F70B5635B7CA4DD1BA6EC95740D3FBED70D15C5429422463DAE743D821D7DD6CA3D2B92C852043D3DEC0F4EF5418D4896849698524C9A4F4AF79CEF7909F99E1051
310
24F83F529CC72749519BC0CAD5EE42F348C26F968614A38DA7DBC38CBACFD6852CCDDB7835BC204972421AC6EB9A32512C58D80088D6D52AEA8375B0E1CDF50470B62AD79514453A1284DF0B424C07953F504B0304140006080800FA5E6841C26535525301000033030000300000006662782F33444431353137342D373835
310
462D343933372D423144432D3133413044383542453638312F636E782E786D6CBD93CD6EC32010845F0571F70FCE8FA20813A9873E410FBD62D82434182CC055F3F65D1292E69243A5AA1784668799D5279BEFBE464B3E2144E35D4F59DD52024E796DDCA1A773DA571B4A768207EFD3838D122747E86996A9E087E0E7A948
310
1AF672B609556BDCA98801A29F838288727E49AC57D26200B86A4611C601B4064DEE46BCED21E02A280E67928E405E5FDE891F3E40A5C89B9C2278933B04CF67697A3051A2AC8CB1A7511D6194B59C93D7104FB59649D6ACBE753DD9E92789E407B7CA391892CB7B9A4F2ACA463572E40D0E058F2920BD624AE709A890D364
310
8D9209213717E3D523F86C5C5A2F8BD720F880EE45B7DE6C30EC32133C99118A4305900934155DCBBA8AB1AADDBC31B65DADB6AB0EEFDBB6E54DB60B3E786FCB238C81E027A2BC4BE012158C3779FC0C5FF1116D02B2F6E1FC0B9008A0B45EE9DC33FE920F5B2F96CB7FE4D35CBE6FC415F02F10DF504B0304140006080800
310
FA5E6841077E98CF61070000991B0000340000006662782F33444431353137342D373835462D343933372D423144432D3133413044383542453638312F6F626A656374732E786D6CED59DD73A33610FF5718FAD23E189BD8C9251D422789938CE7267737E7DE4D1F3CC3C8201335423092489CFEF55D7D80819804F7D2B77B
310
B00121AD767FFBA925F8639B51E71173417276EEFADEC475308BF384B0F4DC2DE56674EA3A7F8401CF73D998E63A0C65F8DC55C36E18A43C2F0B3B94E00D2AA9EC8CDE5CFEE5881833EC3A3145429CBB22BEC719F25029F3048B072F411279E966EBF99E99D8269B7254DC7788168863268153186740C5314CF9EDC7893B0E
310
83B17A1F06EADFCE9A0E9A35EB9F35D652B7B9244C48C4E2172C75C84C07B134F567F3EBA3E3B3D1F16C361DCD4E8EFCD1E5CDE57CE47F984EAE4EAEAECE2EAECF80BD759E532B53820BCC12D0DFB31BFAC158BDA945B708ECE33ACE19C3B10612A0D2627509122C60AB067C93F6A3AF246ABCD612369E67EABD65A1313C6D
310
53E99B350C88165D10C46E57495C5D9BF2E5EBBF417031C428B9C012B8159283762D3C1CBCC20D27C1D88C86C17AA70B229C0C49CC09A20E256B8E382805A6AA296160165832CA3938907294045A73E675DBB6C033DF769D7D5C6E4A4A9567B8A176AC08DC0F4BA13923FF60BEE3BE890CF004D29684C953CBA57C2EB01B9E
310
05633D1806EA323DB22F0D90CE86A2546844CCDB8EA057CAF5177337FC78B3DE2E5538D8BF79C1F30273A98C4EE951F305866CAF0A25BBAD3F48736A01086340B52B77A07C05E43F41F4D8B1027AE3643BDBCEEC5CC911139B9C67A01B67E28C26F037717CFDAFEE1B77C1B85EDCD65E1F9EE0A60AAAD31FC7B32D83C6CAF2
310
DF80330C1EC1E0733EB5AF9631A260CF77840140CA481C9AC31084F6CD7AEB860B089C10E86115A2A10F2203BB8F701B8C2D999D562AF7B25EC70051BBC774889200366D91C0468F9E6E217B7012EFD4D414B10FDEE37731D78BF9F2E3B2E41B14E33BEBD373BC218C48C89AFB196A61DE92E8013F3FE53C01415FE2BD6CE2
310
9DD9AD04A0AD3057C0A71508EA61B7736B8318D6A5B90A37C11B3B80102A5737E8DF1111634A11C37959ED5B473765A8B5C7DB9AC10D8F0CC4D3A38E0973FC485455014EB39BD16214F27ECC49A14074C35B23591D34BD1EE9BE2D3E8145D6F37B662D18845E86E89F3A68EDC1A165D915D216885AE0F52E9CC739CD79B47E
310
8E4CA473A1960036DADEF2BD451462BD5192A2021EA4FDAE0A29A991364AC866530A88AB7B58FCBEB86A9AC3C49BFAC74EF3BFE38C3388B6E0BB885BBFEBEC11910CA538DAA0A46FBBE66E356DA149F690E67843412EF248E47384643449707A083407113F7B57EA29CD85200C0BC8577BC16FA231F12090186D562C2BAD76
310
802622CAB044F4100414991E7075DAD1356E0CA5C3DB3CD6D6FB9AC69A44FF278BE0086AC99C45044A51C8216F32EE7BC71043DAE81A943BF882B555B4B518B48412227E8E9E3049EFE521A81BF23DB8C77024296594172806B31E40F685AF28A576785FA3F841E58F282EE97B1988C07413114ACB2C821F6170F218E2DA75
310
607A1585067113FB24CEA02843B2E4433639399EBCD8C7D40CDD10D8D868432884ED2843450FEAAD80A8EB11A706DF52EF51EABACC8A086579C906198A37ED7A9325DF55AB223B905F552A42D95811B604C380305967D52A6683A9EBC00A6EA403D57324505650730A7B23F1F8B53769CABD1B70EBA7EFBB4106855F8FF69A
310
117556C160796C1506E209C9F8DE0D97FA3ABA84FA3BC1C92ED557B566B30204C454242F39B12AFAB680F2C6D6686E7887A458DD9AAC5B5DBF2D3CE87E04635803B54BBD70A180CE309348552677EA867E4510825B34CCF842E5D443A85C2489AE1A11BD217DEA6C9511AD4D33E215F798E519FCD88AB09896095EA1443C44
310
7792464BA258B7527A19A9307E55C0CFB7CB0E3C303240A42FAAC0C34F9DB576F44A954B7B89C8FB325B33442008B6444B8D6EBC82A556239596EBAB3A5340DD050666553CFB79B268B6237E9E2C526B183F76B2A0F91AD15DB46964F35899F541A7803A3D292AEF710AD05D879A6A9D444C2EB7E25B5F8A202656417E7031
310
56C50C43B08FE3FF9CB4FB92A0D9AEC3FF6149DB7F51701C94545A9355936A4FE1BA68A5B09B13DF3FFB301B4D2F4E6E46B3B3C9C9E8E2F27A3EBAB93EBA99CD2FA793CBE9498DA6F6D330A863994E5DF06C625A35AC9E2C06D094153925091CE61327C510F2251CE90774CF798605E4CE66AF3BB13DF901AB1F4D9B53A235
310
C51527F708FAC3544056078CCA58B6C79D5FA03329E19C7DEE42CFC87B803F6B95AE0389E7DC854E81243116DE1ABA4CAA9FA78943C6D5A9DF12037C104B5546348BEAE77A95C2A615FDEB2943B28095ABD5C280BAAD80E657AB41A179B33CC507095EB1E32009B7EB5242B16664D90DD4C2E86D76EA37B251C21EECD65B70
310
DDD7C5F23D3DA785C8A02F06AF1A81A13A9288A7BADDAD18B32C5DCCBF8CA1CDE62C3E3B052D53D0E5704A238EC1984B554F81158155589A059260AA57BFAFBEF01CBEF0648E2E8A9C5FB7A727BFADAEF22CCB99195A5DC0A12C81EF44CEF21EBEFA242BA81DB0EAAD8BD5D1C43F5AE99EB66DB3476B24B0A78A2218A86A09
310
2548C7E4C02E5FF4A76CF772AC54D199BE983B3688422FC0D8D18B16AFF9C6E5800FA9AF29CA63B49F57D2BEDAD61EEBA960131C1AD2E1BF504B0304140006080000FA5E6841000000000000000000000000350000006662782F33444431353137342D373835462D343933372D423144432D3133413044383542453638312F
310
76657274696365732E62696E504B0304140006080800FA5E6841F270F1330600000004000000360000006662782F33444431353137342D373835462D343933372D423144432D3133413044383542453638312F747269616E676C65732E62696E636660600000504B0304140006080000FA5E68410000000000000000000000
310
00370000006662782F33444431353137342D373835462D343933372D423144432D3133413044383542453638312F617474726962757465732E62696E504B0304140006080800FA5E6841D5987DFC8F00000041010000360000006662782F33444431353137342D373835462D343933372D423144432D313341304438354245
310
3638312F6469726563746F72792E786D6C858F410EC2201045AF4266AF15DDB800BA74E7C21B903225242D6328188F2FA5C4183471359997F9FF81E89FF3C41E1816475E02DF1F80A11FC8386F25A438EECEC07A250251FC3803E6F58C12560C4AD840E95E91C151A72936F496F35732D860FE635F62C8F2DA16B505C545B7
310
4125BAA2FA9E05D7CC053D063734D5C7665FD55B6B8D15D5E9BFEAFD8490FFA45E504B0304140006080800FA5E6841BE517CA6FB000000A00100003B0000006662782F33444431353137342D373835462D343933372D423144432D3133413044383542453638312F7265736F75726365732F636F72652E786D6C8D504B6E83
310
3010BD0A9ABD013B41A1C838A2024ED00B586642AC041BF953F5F835814AEDAE9B99D1FB689E1EBF7E2DCFEC139DD7D6B440F3123234CA4EDACC2DC47023356457C19DB5E1970C3223176C618341F0D9D9B81E90B226A009093576C20394DE63804C3DD3D18257775C642E63480AFFC857A91E72C69CE6894E3AC17D702940
310
B63FD9260887DE46A7D0F36267058F514F87464FE9A7BE697420C67EA4ACA66FA4ECE840CEE37920EF97AE27433F747545C753CD2EBCD8CC8207BDFC64540E65C009042B29239492B2FEA0B4A9AAA662E96ECA92179BFC8F29AED33F4D519B706247DCDDE641D014E445085E6C7DA5F52A33EDAD5BF10D504B010214000A00
310
00080000FA5E68413DEE336E79000000790000001B00000000000000000000000000000000006175746F6465736B2D64657369676E2D7061636B6167652E786D6C504B01021400140006080800FA5E6841D486FD9CA0000000F40000001300000000000000000000000000B20000005B436F6E74656E745F54797065735D2E
310
786D6C504B01021400140006080800FA5E684103981F67E80000007C010000080000000000000000000000000083010000636F72652E786D6C504B01021400140006080800FA5E684155019EA25F0000007C000000070000000000000000000000000091020000636E782E786D6C504B01021400140006080800FA5E684104
310
2CFC4964010000020300000C00000000000000000000000000150300006662782F636F72652E786D6C504B01021400140006080800FA5E68410B05DC1D7E0000009D0000000B00000000000000000000000000A30400006662782F636E782E786D6C504B01021400140006080800FA5E6841B0CB5E422B0100001502000031
310
000000000000000000000000004A0500006662782F33444431353137342D373835462D343933372D423144432D3133413044383542453638312F636F72652E786D6C504B01021400140006080800FA5E6841C265355253010000330300003000000000000000000000000000C40600006662782F33444431353137342D3738
310
35462D343933372D423144432D3133413044383542453638312F636E782E786D6C504B01021400140006080800FA5E6841077E98CF61070000991B00003400000000000000000000000000650800006662782F33444431353137342D373835462D343933372D423144432D3133413044383542453638312F6F626A65637473
310
2E786D6C504B01021400140006080000FA5E68410000000000000000000000003500000000000000000000000000181000006662782F33444431353137342D373835462D343933372D423144432D3133413044383542453638312F76657274696365732E62696E504B01021400140006080800FA5E6841F270F13306000000
310
0400000036000000000000000000000000006B1000006662782F33444431353137342D373835462D343933372D423144432D3133413044383542453638312F747269616E676C65732E62696E504B01021400140006080000FA5E68410000000000000000000000003700000000000000000000000000C51000006662782F33
310
444431353137342D373835462D343933372D423144432D3133413044383542453638312F617474726962757465732E62696E504B01021400140006080800FA5E6841D5987DFC8F0000004101000036000000000000000000000000001A1100006662782F33444431353137342D373835462D343933372D423144432D313341
310
3044383542453638312F6469726563746F72792E786D6C504B01021400140006080800FA5E6841BE517CA6FB000000A00100003B00000000000000000000000000FD1100006662782F33444431353137342D373835462D343933372D423144432D3133413044383542453638312F7265736F75726365732F636F72652E786D
310
6C504B0506000000000E000E0080040000511300000000
  0
XRECORD
  5
27
102
{ACAD_REACTORS
330
22
102
}
330
22
100
AcDbXrecord
280
     1
270
     1
271
     1
  0
XRECORD
  5
26
102
{ACAD_REACTORS
330
22
102
}
330
22
100
AcDbXrecord
280
     1
270
     1
271
     1
  0
XRECORD
  5
28
102
{ACAD_REACTORS
330
22
102
}
330
22
100
AcDbXrecord
280
     1
270
     1
271
     1
  0
XRECORD
  5
25
102
{ACAD_REACTORS
330
22
102
}
330
22
100
AcDbXrecord
280
     1
270
     1
271
     1
  0
XRECORD
  5
238
102
{ACAD_REACTORS
330
237
102
}
330
237
100
AcDbXrecord
280
     1
102
ACAD_ROUNDTRIP_2012_MLEADER_STYLE
298
     1
  0
CELLSTYLEMAP
  5
236
102
{ACAD_REACTORS
330
1E1
102
}
330
1E1
100
AcDbCellStyleMap
 90
        3
300
CELLSTYLE
  1
TABLEFORMAT_BEGIN
 90
        5
170
     1
 91
        0
 92
    32768
 62
   257
 93
        1
300
CONTENTFORMAT
  1
CONTENTFORMAT_BEGIN
 90
        0
 91
        0
 92
      512
 93
        0
300

 40
0.0
140
1.0
 94
        5
 62
     0
340
55
144
0.25
309
CONTENTFORMAT_END
171
     0
 94
        0
309
TABLEFORMAT_END
  1
CELLSTYLE_BEGIN
 90
        1
 91
        1
300
_TITLE
309
CELLSTYLE_END
300
CELLSTYLE
  1
TABLEFORMAT_BEGIN
 90
        5
170
     1
 91
        0
 92
        0
 62
   257
 93
        1
300
CONTENTFORMAT
  1
CONTENTFORMAT_BEGIN
 90
        0
 91
        0
 92
      512
 93
        0
300

 40
0.0
140
1.0
 94
        5
 62
     0
340
55
144
0.18
309
CONTENTFORMAT_END
171
     0
 94
        0
309
TABLEFORMAT_END
  1
CELLSTYLE_BEGIN
 90
        2
 91
        1
300
_HEADER
309
CELLSTYLE_END
300
CELLSTYLE
  1
TABLEFORMAT_BEGIN
 90
        5
170
     1
 91
        0
 92
        0
 62
   257
 93
        1
300
CONTENTFORMAT
  1
CONTENTFORMAT_BEGIN
 90
        0
 91
        0
 92
      512
 93
        0
300

 40
0.0
140
1.0
 94
        2
 62
     0
340
55
144
0.18
309
CONTENTFORMAT_END
171
     0
 94
        0
309
TABLEFORMAT_END
  1
CELLSTYLE_BEGIN
 90
        3
 91
        2
300
_DATA
309
CELLSTYLE_END
  0
XRECORD
  5
26E
102
{ACAD_REACTORS
330
1E1
102
}
330
1E1
100
AcDbXrecord
280
     1
102
ACAD_ROUNDTRIP_PRE2007_TABLESTYLE
 90
      512
 91
        0
  1

 92
      512
 93
        0
  2

 94
      512
 95
        0
  3

  0
XRECORD
  5
249
102
{ACAD_REACTORS
330
248
102
}
330
248
100
AcDbXrecord
280
     1
102
RTVSPropertyOp0
 70
     1
102
RTVSPropertyOp1
 70
     1
102
RTVSPropertyOp2
 70
     1
102
RTVSPropertyOp3
 70
     1
102
RTVSPropertyOp4
 70
     1
102
RTVSPropertyOp5
 70
     1
102
RTVSPropertyOp6
 70
     1
102
RTVSPropertyOp7
 70
     1
102
RTVSPropertyOp8
 70
     1
102
RTVSPropertyOp9
 70
     1
102
RTVSPropertyOp10
 70
     1
102
RTVSPropertyOp11
 70
     1
102
RTVSPropertyOp12
 70
     1
102
RTVSPropertyOp13
 70
     1
102
RTVSPropertyOp14
 70
     1
102
RTVSPropertyOp15
 70
     1
102
RTVSPropertyOp16
 70
     1
102
RTVSPropertyOp17
 70
     1
102
RTVSPropertyOp18
 70
     1
102
RTVSPropertyOp19
 70
     1
102
RTVSPropertyOp20
 70
     1
102
RTVSPropertyOp21
 70
     1
102
RTVSPropertyOp22
 70
     1
102
RTVSPropertyOp23
 70
     1
102
RTVSPropertyOp24
 70
     1
102
RTVSPropertyOp25
 70
     1
102
RTVSPropertyOp26
 70
     1
102
RTVSPropertyOp27
 70
     1
102
RTVSPropertyOp28
 70
     1
102
RTVSPropertyOp29
 70
     1
102
RTVSPropertyOp30
 70
     1
102
RTVSPropertyOp31
 70
     1
102
RTVSPropertyOp32
 70
     1
  0
XRECORD
  5
247
102
{ACAD_REACTORS
330
246
102
}
330
246
100
AcDbXrecord
280
     1
102
RTVSPropertyOp0
 70
     1
102
RTVSPropertyOp1
 70
     1
102
RTVSPropertyOp2
 70
     1
102
RTVSPropertyOp3
 70
     1
102
RTVSPropertyOp4
 70
     1
102
RTVSPropertyOp5
 70
     1
102
RTVSPropertyOp6
 70
     1
102
RTVSPropertyOp7
 70
     1
102
RTVSPropertyOp8
 70
     1
102
RTVSPropertyOp9
 70
     1
102
RTVSPropertyOp10
 70
     1
102
RTVSPropertyOp11
 70
     1
102
RTVSPropertyOp12
 70
     1
102
RTVSPropertyOp13
 70
     1
102
RTVSPropertyOp14
 70
     1
102
RTVSPropertyOp15
 70
     1
102
RTVSPropertyOp16
 70
     1
102
RTVSPropertyOp17
 70
     1
102
RTVSPropertyOp18
 70
     1
102
RTVSPropertyOp19
 70
     1
102
RTVSPropertyOp20
 70
     1
102
RTVSPropertyOp21
 70
     1
102
RTVSPropertyOp22
 70
     1
102
RTVSPropertyOp23
 70
     1
102
RTVSPropertyOp24
 70
     1
102
RTVSPropertyOp25
 70
     1
102
RTVSPropertyOp26
 70
     1
102
RTVSPropertyOp27
 70
     1
102
RTVSPropertyOp28
 70
     1
102
RTVSPropertyOp29
 70
     1
102
RTVSPropertyOp30
 70
     1
102
RTVSPropertyOp31
 70
     1
102
RTVSPropertyOp32
 70
     1
  0
XRECORD
  5
255
102
{ACAD_REACTORS
330
254
102
}
330
254
100
AcDbXrecord
280
     1
102
RTVSPropertyOp0
 70
     1
102
RTVSPropertyOp1
 70
     1
102
RTVSPropertyOp2
 70
     1
102
RTVSPropertyOp3
 70
     1
102
RTVSPropertyOp4
 70
     1
102
RTVSPropertyOp5
 70
     1
102
RTVSPropertyOp6
 70
     1
102
RTVSPropertyOp7
 70
     1
102
RTVSPropertyOp8
 70
     1
102
RTVSPropertyOp9
 70
     1
102
RTVSPropertyOp10
 70
     1
102
RTVSPropertyOp11
 70
     1
102
RTVSPropertyOp12
 70
     1
102
RTVSPropertyOp13
 70
     1
102
RTVSPropertyOp14
 70
     1
102
RTVSPropertyOp15
 70
     1
102
RTVSPropertyOp16
 70
     1
102
RTVSPropertyOp17
 70
     1
102
RTVSPropertyOp18
 70
     1
102
RTVSPropertyOp19
 70
     1
102
RTVSPropertyOp20
 70
     1
102
RTVSPropertyOp21
 70
     1
102
RTVSPropertyOp22
 70
     1
102
RTVSPropertyOp23
 70
     1
102
RTVSPropertyOp24
 70
     1
102
RTVSPropertyOp25
 70
     1
102
RTVSPropertyOp26
 70
     1
102
RTVSPropertyOp27
 70
     1
102
RTVSPropertyOp28
 70
     1
102
RTVSPropertyOp29
 70
     1
102
RTVSPropertyOp30
 70
     1
102
RTVSPropertyOp31
 70
     1
102
RTVSPropertyOp32
 70
     1
  0
XRECORD
  5
25D
102
{ACAD_REACTORS
330
25C
102
}
330
25C
100
AcDbXrecord
280
     1
102
RTVSPropertyOp0
 70
     1
102
RTVSPropertyOp1
 70
     1
102
RTVSPropertyOp2
 70
     1
102
RTVSPropertyOp3
 70
     1
102
RTVSPropertyOp4
 70
     1
102
RTVSPropertyOp5
 70
     1
102
RTVSPropertyOp6
 70
     1
102
RTVSPropertyOp7
 70
     1
102
RTVSPropertyOp8
 70
     1
102
RTVSPropertyOp9
 70
     1
102
RTVSPropertyOp10
 70
     1
102
RTVSPropertyOp11
 70
     1
102
RTVSPropertyOp12
 70
     1
102
RTVSPropertyOp13
 70
     1
102
RTVSPropertyOp14
 70
     1
102
RTVSPropertyOp15
 70
     1
102
RTVSPropertyOp16
 70
     1
102
RTVSPropertyOp17
 70
     1
102
RTVSPropertyOp18
 70
     1
102
RTVSPropertyOp19
 70
     1
102
RTVSPropertyOp20
 70
     1
102
RTVSPropertyOp21
 70
     1
102
RTVSPropertyOp22
 70
     1
102
RTVSPropertyOp23
 70
     1
102
RTVSPropertyOp24
 70
     1
102
RTVSPropertyOp25
 70
     1
102
RTVSPropertyOp26
 70
     1
102
RTVSPropertyOp27
 70
     1
102
RTVSPropertyOp28
 70
     1
102
RTVSPropertyOp29
 70
     1
102
RTVSPropertyOp30
 70
     1
102
RTVSPropertyOp31
 70
     1
102
RTVSPropertyOp32
 70
     1
  0
XRECORD
  5
24F
102
{ACAD_REACTORS
330
24E
102
}
330
24E
100
AcDbXrecord
280
     1
102
RTVSPropertyOp0
 70
     1
102
RTVSPropertyOp1
 70
     1
102
RTVSPropertyOp2
 70
     1
102
RTVSPropertyOp3
 70
     1
102
RTVSPropertyOp4
 70
     1
102
RTVSPropertyOp5
 70
     1
102
RTVSPropertyOp6
 70
     1
102
RTVSPropertyOp7
 70
     1
102
RTVSPropertyOp8
 70
     1
102
RTVSPropertyOp9
 70
     1
102
RTVSPropertyOp10
 70
     1
102
RTVSPropertyOp11
 70
     1
102
RTVSPropertyOp12
 70
     1
102
RTVSPropertyOp13
 70
     1
102
RTVSPropertyOp14
 70
     1
102
RTVSPropertyOp15
 70
     1
102
RTVSPropertyOp16
 70
     1
102
RTVSPropertyOp17
 70
     1
102
RTVSPropertyOp18
 70
     1
102
RTVSPropertyOp19
 70
     1
102
RTVSPropertyOp20
 70
     1
102
RTVSPropertyOp21
 70
     1
102
RTVSPropertyOp22
 70
     1
102
RTVSPropertyOp23
 70
     1
102
RTVSPropertyOp24
 70
     1
102
RTVSPropertyOp25
 70
     1
102
RTVSPropertyOp26
 70
     1
102
RTVSPropertyOp27
 70
     1
102
RTVSPropertyOp28
 70
     1
102
RTVSPropertyOp29
 70
     1
102
RTVSPropertyOp30
 70
     1
102
RTVSPropertyOp31
 70
     1
102
RTVSPropertyOp32
 70
     1
  0
XRECORD
  5
253
102
{ACAD_REACTORS
330
252
102
}
330
252
100
AcDbXrecord
280
     1
102
RTVSPropertyOp0
 70
     1
102
RTVSPropertyOp1
 70
     1
102
RTVSPropertyOp2
 70
     1
102
RTVSPropertyOp3
 70
     1
102
RTVSPropertyOp4
 70
     1
102
RTVSPropertyOp5
 70
     1
102
RTVSPropertyOp6
 70
     1
102
RTVSPropertyOp7
 70
     1
102
RTVSPropertyOp8
 70
     1
102
RTVSPropertyOp9
 70
     1
102
RTVSPropertyOp10
 70
     1
102
RTVSPropertyOp11
 70
     1
102
RTVSPropertyOp12
 70
     1
102
RTVSPropertyOp13
 70
     1
102
RTVSPropertyOp14
 70
     1
102
RTVSPropertyOp15
 70
     1
102
RTVSPropertyOp16
 70
     1
102
RTVSPropertyOp17
 70
     1
102
RTVSPropertyOp18
 70
     1
102
RTVSPropertyOp19
 70
     1
102
RTVSPropertyOp20
 70
     1
102
RTVSPropertyOp21
 70
     1
102
RTVSPropertyOp22
 70
     1
102
RTVSPropertyOp23
 70
     1
102
RTVSPropertyOp24
 70
     1
102
RTVSPropertyOp25
 70
     1
102
RTVSPropertyOp26
 70
     1
102
RTVSPropertyOp27
 70
     1
102
RTVSPropertyOp28
 70
     1
102
RTVSPropertyOp29
 70
     1
102
RTVSPropertyOp30
 70
     1
102
RTVSPropertyOp31
 70
     1
102
RTVSPropertyOp32
 70
     1
  0
XRECORD
  5
26D
102
{ACAD_REACTORS
330
26C
102
}
330
26C
100
AcDbXrecord
280
     1
102
RTVSPropertyOp0
 70
     0
102
RTVSPropertyOp1
 70
     0
102
RTVSPropertyOp2
 70
     0
102
RTVSPropertyOp3
 70
     0
102
RTVSPropertyOp4
 70
     0
102
RTVSPropertyOp5
 70
     0
102
RTVSPropertyOp6
 70
     0
102
RTVSPropertyOp7
 70
     0
102
RTVSPropertyOp8
 70
     0
102
RTVSPropertyOp9
 70
     0
102
RTVSPropertyOp10
 70
     0
102
RTVSPropertyOp11
 70
     0
102
RTVSPropertyOp12
 70
     0
102
RTVSPropertyOp13
 70
     0
102
RTVSPropertyOp14
 70
     2
102
RTVSPropertyOp15
 70
     0
102
RTVSPropertyOp16
 70
     0
102
RTVSPropertyOp17
 70
     0
102
RTVSPropertyOp18
 70
     0
102
RTVSPropertyOp19
 70
     0
102
RTVSPropertyOp20
 70
     0
102
RTVSPropertyOp21
 70
     0
102
RTVSPropertyOp22
 70
     0
102
RTVSPropertyOp23
 70
     0
102
RTVSPropertyOp24
 70
     0
102
RTVSPropertyOp25
 70
     0
102
RTVSPropertyOp26
 70
     0
102
RTVSPropertyOp27
 70
     0
102
RTVSPropertyOp28
 70
     1
102
RTVSPropertyOp29
 70
     1
102
RTVSPropertyOp30
 70
     1
102
RTVSPropertyOp31
 70
     1
102
RTVSPropertyOp32
 70
     1
  0
XRECORD
  5
25B
102
{ACAD_REACTORS
330
25A
102
}
330
25A
100
AcDbXrecord
280
     1
102
RTVSPropertyOp0
 70
     1
102
RTVSPropertyOp1
 70
     1
102
RTVSPropertyOp2
 70
     1
102
RTVSPropertyOp3
 70
     1
102
RTVSPropertyOp4
 70
     1
102
RTVSPropertyOp5
 70
     1
102
RTVSPropertyOp6
 70
     1
102
RTVSPropertyOp7
 70
     1
102
RTVSPropertyOp8
 70
     1
102
RTVSPropertyOp9
 70
     1
102
RTVSPropertyOp10
 70
     1
102
RTVSPropertyOp11
 70
     1
102
RTVSPropertyOp12
 70
     1
102
RTVSPropertyOp13
 70
     1
102
RTVSPropertyOp14
 70
     1
102
RTVSPropertyOp15
 70
     1
102
RTVSPropertyOp16
 70
     1
102
RTVSPropertyOp17
 70
     1
102
RTVSPropertyOp18
 70
     1
102
RTVSPropertyOp19
 70
     1
102
RTVSPropertyOp20
 70
     1
102
RTVSPropertyOp21
 70
     1
102
RTVSPropertyOp22
 70
     1
102
RTVSPropertyOp23
 70
     1
102
RTVSPropertyOp24
 70
     1
102
RTVSPropertyOp25
 70
     1
102
RTVSPropertyOp26
 70
     1
102
RTVSPropertyOp27
 70
     1
102
RTVSPropertyOp28
 70
     1
102
RTVSPropertyOp29
 70
     1
102
RTVSPropertyOp30
 70
     1
102
RTVSPropertyOp31
 70
     1
102
RTVSPropertyOp32
 70
     1
  0
XRECORD
  5
23F
102
{ACAD_REACTORS
330
23E
102
}
330
23E
100
AcDbXrecord
280
     1
102
RTVSPropertyOp0
 70
     1
102
RTVSPropertyOp1
 70
     1
102
RTVSPropertyOp2
 70
     1
102
RTVSPropertyOp3
 70
     1
102
RTVSPropertyOp4
 70
     1
102
RTVSPropertyOp5
 70
     1
102
RTVSPropertyOp6
 70
     1
102
RTVSPropertyOp7
 70
     1
102
RTVSPropertyOp8
 70
     1
102
RTVSPropertyOp9
 70
     1
102
RTVSPropertyOp10
 70
     1
102
RTVSPropertyOp11
 70
     1
102
RTVSPropertyOp12
 70
     1
102
RTVSPropertyOp13
 70
     1
102
RTVSPropertyOp14
 70
     1
102
RTVSPropertyOp15
 70
     1
102
RTVSPropertyOp16
 70
     1
102
RTVSPropertyOp17
 70
     1
102
RTVSPropertyOp18
 70
     1
102
RTVSPropertyOp19
 70
     1
102
RTVSPropertyOp20
 70
     1
102
RTVSPropertyOp21
 70
     1
102
RTVSPropertyOp22
 70
     1
102
RTVSPropertyOp23
 70
     1
102
RTVSPropertyOp24
 70
     1
102
RTVSPropertyOp25
 70
     1
102
RTVSPropertyOp26
 70
     1
102
RTVSPropertyOp27
 70
     1
102
RTVSPropertyOp28
 70
     1
102
RTVSPropertyOp29
 70
     1
102
RTVSPropertyOp30
 70
     1
102
RTVSPropertyOp31
 70
     1
102
RTVSPropertyOp32
 70
     1
  0
XRECORD
  5
241
102
{ACAD_REACTORS
330
240
102
}
330
240
100
AcDbXrecord
280
     1
102
RTVSPropertyOp0
 70
     1
102
RTVSPropertyOp1
 70
     1
102
RTVSPropertyOp2
 70
     1
102
RTVSPropertyOp3
 70
     1
102
RTVSPropertyOp4
 70
     1
102
RTVSPropertyOp5
 70
     1
102
RTVSPropertyOp6
 70
     1
102
RTVSPropertyOp7
 70
     1
102
RTVSPropertyOp8
 70
     1
102
RTVSPropertyOp9
 70
     1
102
RTVSPropertyOp10
 70
     1
102
RTVSPropertyOp11
 70
     1
102
RTVSPropertyOp12
 70
     1
102
RTVSPropertyOp13
 70
     1
102
RTVSPropertyOp14
 70
     1
102
RTVSPropertyOp15
 70
     1
102
RTVSPropertyOp16
 70
     1
102
RTVSPropertyOp17
 70
     1
102
RTVSPropertyOp18
 70
     1
102
RTVSPropertyOp19
 70
     1
102
RTVSPropertyOp20
 70
     1
102
RTVSPropertyOp21
 70
     1
102
RTVSPropertyOp22
 70
     1
102
RTVSPropertyOp23
 70
     1
102
RTVSPropertyOp24
 70
     1
102
RTVSPropertyOp25
 70
     1
102
RTVSPropertyOp26
 70
     1
102
RTVSPropertyOp27
 70
     1
102
RTVSPropertyOp28
 70
     1
102
RTVSPropertyOp29
 70
     1
102
RTVSPropertyOp30
 70
     1
102
RTVSPropertyOp31
 70
     1
102
RTVSPropertyOp32
 70
     1
  0
XRECORD
  5
243
102
{ACAD_REACTORS
330
242
102
}
330
242
100
AcDbXrecord
280
     1
102
RTVSPropertyOp0
 70
     1
102
RTVSPropertyOp1
 70
     1
102
RTVSPropertyOp2
 70
     1
102
RTVSPropertyOp3
 70
     1
102
RTVSPropertyOp4
 70
     1
102
RTVSPropertyOp5
 70
     1
102
RTVSPropertyOp6
 70
     1
102
RTVSPropertyOp7
 70
     1
102
RTVSPropertyOp8
 70
     1
102
RTVSPropertyOp9
 70
     1
102
RTVSPropertyOp10
 70
     1
102
RTVSPropertyOp11
 70
     1
102
RTVSPropertyOp12
 70
     1
102
RTVSPropertyOp13
 70
     1
102
RTVSPropertyOp14
 70
     1
102
RTVSPropertyOp15
 70
     1
102
RTVSPropertyOp16
 70
     1
102
RTVSPropertyOp17
 70
     1
102
RTVSPropertyOp18
 70
     1
102
RTVSPropertyOp19
 70
     1
102
RTVSPropertyOp20
 70
     1
102
RTVSPropertyOp21
 70
     1
102
RTVSPropertyOp22
 70
     1
102
RTVSPropertyOp23
 70
     1
102
RTVSPropertyOp24
 70
     1
102
RTVSPropertyOp25
 70
     1
102
RTVSPropertyOp26
 70
     1
102
RTVSPropertyOp27
 70
     1
102
RTVSPropertyOp28
 70
     1
102
RTVSPropertyOp29
 70
     1
102
RTVSPropertyOp30
 70
     1
102
RTVSPropertyOp31
 70
     1
102
RTVSPropertyOp32
 70
     1
  0
XRECORD
  5
245
102
{ACAD_REACTORS
330
244
102
}
330
244
100
AcDbXrecord
280
     1
102
RTVSPropertyOp0
 70
     1
102
RTVSPropertyOp1
 70
     1
102
RTVSPropertyOp2
 70
     1
102
RTVSPropertyOp3
 70
     1
102
RTVSPropertyOp4
 70
     1
102
RTVSPropertyOp5
 70
     1
102
RTVSPropertyOp6
 70
     1
102
RTVSPropertyOp7
 70
     1
102
RTVSPropertyOp8
 70
     1
102
RTVSPropertyOp9
 70
     1
102
RTVSPropertyOp10
 70
     1
102
RTVSPropertyOp11
 70
     1
102
RTVSPropertyOp12
 70
     1
102
RTVSPropertyOp13
 70
     1
102
RTVSPropertyOp14
 70
     1
102
RTVSPropertyOp15
 70
     1
102
RTVSPropertyOp16
 70
     1
102
RTVSPropertyOp17
 70
     1
102
RTVSPropertyOp18
 70
     1
102
RTVSPropertyOp19
 70
     1
102
RTVSPropertyOp20
 70
     1
102
RTVSPropertyOp21
 70
     1
102
RTVSPropertyOp22
 70
     1
102
RTVSPropertyOp23
 70
     1
102
RTVSPropertyOp24
 70
     1
102
RTVSPropertyOp25
 70
     1
102
RTVSPropertyOp26
 70
     1
102
RTVSPropertyOp27
 70
     1
102
RTVSPropertyOp28
 70
     1
102
RTVSPropertyOp29
 70
     1
102
RTVSPropertyOp30
 70
     1
102
RTVSPropertyOp31
 70
     1
102
RTVSPropertyOp32
 70
     1
  0
XRECORD
  5
24D
102
{ACAD_REACTORS
330
24C
102
}
330
24C
100
AcDbXrecord
280
     1
102
RTVSPropertyOp0
 70
     1
102
RTVSPropertyOp1
 70
     1
102
RTVSPropertyOp2
 70
     1
102
RTVSPropertyOp3
 70
     1
102
RTVSPropertyOp4
 70
     1
102
RTVSPropertyOp5
 70
     1
102
RTVSPropertyOp6
 70
     1
102
RTVSPropertyOp7
 70
     1
102
RTVSPropertyOp8
 70
     1
102
RTVSPropertyOp9
 70
     1
102
RTVSPropertyOp10
 70
     1
102
RTVSPropertyOp11
 70
     1
102
RTVSPropertyOp12
 70
     1
102
RTVSPropertyOp13
 70
     1
102
RTVSPropertyOp14
 70
     1
102
RTVSPropertyOp15
 70
     1
102
RTVSPropertyOp16
 70
     1
102
RTVSPropertyOp17
 70
     1
102
RTVSPropertyOp18
 70
     1
102
RTVSPropertyOp19
 70
     1
102
RTVSPropertyOp20
 70
     1
102
RTVSPropertyOp21
 70
     1
102
RTVSPropertyOp22
 70
     1
102
RTVSPropertyOp23
 70
     1
102
RTVSPropertyOp24
 70
     1
102
RTVSPropertyOp25
 70
     1
102
RTVSPropertyOp26
 70
     1
102
RTVSPropertyOp27
 70
     1
102
RTVSPropertyOp28
 70
     1
102
RTVSPropertyOp29
 70
     1
102
RTVSPropertyOp30
 70
     1
102
RTVSPropertyOp31
 70
     1
102
RTVSPropertyOp32
 70
     1
  0
XRECORD
  5
269
102
{ACAD_REACTORS
330
268
102
}
330
268
100
AcDbXrecord
280
     1
102
RTVSPropertyOp0
 70
     0
102
RTVSPropertyOp1
 70
     0
102
RTVSPropertyOp2
 70
     0
102
RTVSPropertyOp3
 70
     0
102
RTVSPropertyOp4
 70
     0
102
RTVSPropertyOp5
 70
     0
102
RTVSPropertyOp6
 70
     0
102
RTVSPropertyOp7
 70
     0
102
RTVSPropertyOp8
 70
     0
102
RTVSPropertyOp9
 70
     0
102
RTVSPropertyOp10
 70
     0
102
RTVSPropertyOp11
 70
     0
102
RTVSPropertyOp12
 70
     0
102
RTVSPropertyOp13
 70
     0
102
RTVSPropertyOp14
 70
     2
102
RTVSPropertyOp15
 70
     0
102
RTVSPropertyOp16
 70
     0
102
RTVSPropertyOp17
 70
     0
102
RTVSPropertyOp18
 70
     0
102
RTVSPropertyOp19
 70
     0
102
RTVSPropertyOp20
 70
     0
102
RTVSPropertyOp21
 70
     0
102
RTVSPropertyOp22
 70
     0
102
RTVSPropertyOp23
 70
     0
102
RTVSPropertyOp24
 70
     0
102
RTVSPropertyOp25
 70
     0
102
RTVSPropertyOp26
 70
     0
102
RTVSPropertyOp27
 70
     0
102
RTVSPropertyOp28
 70
     1
102
RTVSPropertyOp29
 70
     1
102
RTVSPropertyOp30
 70
     1
102
RTVSPropertyOp31
 70
     1
102
RTVSPropertyOp32
 70
     1
  0
XRECORD
  5
259
102
{ACAD_REACTORS
330
258
102
}
330
258
100
AcDbXrecord
280
     1
102
RTVSPropertyOp0
 70
     1
102
RTVSPropertyOp1
 70
     1
102
RTVSPropertyOp2
 70
     1
102
RTVSPropertyOp3
 70
     1
102
RTVSPropertyOp4
 70
     1
102
RTVSPropertyOp5
 70
     1
102
RTVSPropertyOp6
 70
     1
102
RTVSPropertyOp7
 70
     1
102
RTVSPropertyOp8
 70
     1
102
RTVSPropertyOp9
 70
     1
102
RTVSPropertyOp10
 70
     1
102
RTVSPropertyOp11
 70
     1
102
RTVSPropertyOp12
 70
     1
102
RTVSPropertyOp13
 70
     1
102
RTVSPropertyOp14
 70
     1
102
RTVSPropertyOp15
 70
     1
102
RTVSPropertyOp16
 70
     1
102
RTVSPropertyOp17
 70
     1
102
RTVSPropertyOp18
 70
     1
102
RTVSPropertyOp19
 70
     1
102
RTVSPropertyOp20
 70
     1
102
RTVSPropertyOp21
 70
     1
102
RTVSPropertyOp22
 70
     1
102
RTVSPropertyOp23
 70
     1
102
RTVSPropertyOp24
 70
     1
102
RTVSPropertyOp25
 70
     1
102
RTVSPropertyOp26
 70
     1
102
RTVSPropertyOp27
 70
     1
102
RTVSPropertyOp28
 70
     1
102
RTVSPropertyOp29
 70
     1
102
RTVSPropertyOp30
 70
     1
102
RTVSPropertyOp31
 70
     1
102
RTVSPropertyOp32
 70
     1
  0
XRECORD
  5
26B
102
{ACAD_REACTORS
330
26A
102
}
330
26A
100
AcDbXrecord
280
     1
102
RTVSPropertyOp0
 70
     0
102
RTVSPropertyOp1
 70
     0
102
RTVSPropertyOp2
 70
     0
102
RTVSPropertyOp3
 70
     0
102
RTVSPropertyOp4
 70
     0
102
RTVSPropertyOp5
 70
     0
102
RTVSPropertyOp6
 70
     0
102
RTVSPropertyOp7
 70
     0
102
RTVSPropertyOp8
 70
     0
102
RTVSPropertyOp9
 70
     0
102
RTVSPropertyOp10
 70
     0
102
RTVSPropertyOp11
 70
     0
102
RTVSPropertyOp12
 70
     0
102
RTVSPropertyOp13
 70
     0
102
RTVSPropertyOp14
 70
     2
102
RTVSPropertyOp15
 70
     0
102
RTVSPropertyOp16
 70
     0
102
RTVSPropertyOp17
 70
     0
102
RTVSPropertyOp18
 70
     0
102
RTVSPropertyOp19
 70
     0
102
RTVSPropertyOp20
 70
     0
102
RTVSPropertyOp21
 70
     0
102
RTVSPropertyOp22
 70
     0
102
RTVSPropertyOp23
 70
     0
102
RTVSPropertyOp24
 70
     0
102
RTVSPropertyOp25
 70
     0
102
RTVSPropertyOp26
 70
     0
102
RTVSPropertyOp27
 70
     0
102
RTVSPropertyOp28
 70
     1
102
RTVSPropertyOp29
 70
     1
102
RTVSPropertyOp30
 70
     1
102
RTVSPropertyOp31
 70
     1
102
RTVSPropertyOp32
 70
     1
  0
XRECORD
  5
251
102
{ACAD_REACTORS
330
250
102
}
330
250
100
AcDbXrecord
280
     1
102
RTVSPropertyOp0
 70
     1
102
RTVSPropertyOp1
 70
     1
102
RTVSPropertyOp2
 70
     1
102
RTVSPropertyOp3
 70
     1
102
RTVSPropertyOp4
 70
     1
102
RTVSPropertyOp5
 70
     1
102
RTVSPropertyOp6
 70
     1
102
RTVSPropertyOp7
 70
     1
102
RTVSPropertyOp8
 70
     1
102
RTVSPropertyOp9
 70
     1
102
RTVSPropertyOp10
 70
     1
102
RTVSPropertyOp11
 70
     1
102
RTVSPropertyOp12
 70
     1
102
RTVSPropertyOp13
 70
     1
102
RTVSPropertyOp14
 70
     1
102
RTVSPropertyOp15
 70
     1
102
RTVSPropertyOp16
 70
     1
102
RTVSPropertyOp17
 70
     1
102
RTVSPropertyOp18
 70
     1
102
RTVSPropertyOp19
 70
     1
102
RTVSPropertyOp20
 70
     1
102
RTVSPropertyOp21
 70
     1
102
RTVSPropertyOp22
 70
     1
102
RTVSPropertyOp23
 70
     1
102
RTVSPropertyOp24
 70
     1
102
RTVSPropertyOp25
 70
     1
102
RTVSPropertyOp26
 70
     1
102
RTVSPropertyOp27
 70
     1
102
RTVSPropertyOp28
 70
     1
102
RTVSPropertyOp29
 70
     1
102
RTVSPropertyOp30
 70
     1
102
RTVSPropertyOp31
 70
     1
102
RTVSPropertyOp32
 70
     1
  0
XRECORD
  5
267
102
{ACAD_REACTORS
330
266
102
}
330
266
100
AcDbXrecord
280
     1
102
RTVSPropertyOp0
 70
     1
102
RTVSPropertyOp1
 70
     1
102
RTVSPropertyOp2
 70
     1
102
RTVSPropertyOp3
 70
     1
102
RTVSPropertyOp4
 70
     1
102
RTVSPropertyOp5
 70
     1
102
RTVSPropertyOp6
 70
     1
102
RTVSPropertyOp7
 70
     1
102
RTVSPropertyOp8
 70
     1
102
RTVSPropertyOp9
 70
     1
102
RTVSPropertyOp10
 70
     1
102
RTVSPropertyOp11
 70
     1
102
RTVSPropertyOp12
 70
     1
102
RTVSPropertyOp13
 70
     1
102
RTVSPropertyOp14
 70
     1
102
RTVSPropertyOp15
 70
     1
102
RTVSPropertyOp16
 70
     1
102
RTVSPropertyOp17
 70
     1
102
RTVSPropertyOp18
 70
     1
102
RTVSPropertyOp19
 70
     1
102
RTVSPropertyOp20
 70
     1
102
RTVSPropertyOp21
 70
     1
102
RTVSPropertyOp22
 70
     1
102
RTVSPropertyOp23
 70
     1
102
RTVSPropertyOp24
 70
     1
102
RTVSPropertyOp25
 70
     1
102
RTVSPropertyOp26
 70
     1
102
RTVSPropertyOp27
 70
     1
102
RTVSPropertyOp28
 70
     1
102
RTVSPropertyOp29
 70
     1
102
RTVSPropertyOp30
 70
     1
102
RTVSPropertyOp31
 70
     1
102
RTVSPropertyOp32
 70
     1
  0
XRECORD
  5
265
102
{ACAD_REACTORS
330
264
102
}
330
264
100
AcDbXrecord
280
     1
102
RTVSPropertyOp0
 70
     1
102
RTVSPropertyOp1
 70
     1
102
RTVSPropertyOp2
 70
     1
102
RTVSPropertyOp3
 70
     1
102
RTVSPropertyOp4
 70
     1
102
RTVSPropertyOp5
 70
     1
102
RTVSPropertyOp6
 70
     1
102
RTVSPropertyOp7
 70
     1
102
RTVSPropertyOp8
 70
     1
102
RTVSPropertyOp9
 70
     1
102
RTVSPropertyOp10
 70
     1
102
RTVSPropertyOp11
 70
     1
102
RTVSPropertyOp12
 70
     1
102
RTVSPropertyOp13
 70
     1
102
RTVSPropertyOp14
 70
     1
102
RTVSPropertyOp15
 70
     1
102
RTVSPropertyOp16
 70
     1
102
RTVSPropertyOp17
 70
     1
102
RTVSPropertyOp18
 70
     1
102
RTVSPropertyOp19
 70
     1
102
RTVSPropertyOp20
 70
     1
102
RTVSPropertyOp21
 70
     1
102
RTVSPropertyOp22
 70
     1
102
RTVSPropertyOp23
 70
     1
102
RTVSPropertyOp24
 70
     1
102
RTVSPropertyOp25
 70
     1
102
RTVSPropertyOp26
 70
     1
102
RTVSPropertyOp27
 70
     1
102
RTVSPropertyOp28
 70
     1
102
RTVSPropertyOp29
 70
     1
102
RTVSPropertyOp30
 70
     1
102
RTVSPropertyOp31
 70
     1
102
RTVSPropertyOp32
 70
     1
  0
XRECORD
  5
25F
102
{ACAD_REACTORS
330
25E
102
}
330
25E
100
AcDbXrecord
280
     1
102
RTVSPropertyOp0
 70
     1
102
RTVSPropertyOp1
 70
     1
102
RTVSPropertyOp2
 70
     1
102
RTVSPropertyOp3
 70
     1
102
RTVSPropertyOp4
 70
     1
102
RTVSPropertyOp5
 70
     1
102
RTVSPropertyOp6
 70
     1
102
RTVSPropertyOp7
 70
     1
102
RTVSPropertyOp8
 70
     1
102
RTVSPropertyOp9
 70
     1
102
RTVSPropertyOp10
 70
     1
102
RTVSPropertyOp11
 70
     1
102
RTVSPropertyOp12
 70
     1
102
RTVSPropertyOp13
 70
     1
102
RTVSPropertyOp14
 70
     1
102
RTVSPropertyOp15
 70
     1
102
RTVSPropertyOp16
 70
     1
102
RTVSPropertyOp17
 70
     1
102
RTVSPropertyOp18
 70
     1
102
RTVSPropertyOp19
 70
     1
102
RTVSPropertyOp20
 70
     1
102
RTVSPropertyOp21
 70
     1
102
RTVSPropertyOp22
 70
     1
102
RTVSPropertyOp23
 70
     1
102
RTVSPropertyOp24
 70
     1
102
RTVSPropertyOp25
 70
     1
102
RTVSPropertyOp26
 70
     1
102
RTVSPropertyOp27
 70
     1
102
RTVSPropertyOp28
 70
     1
102
RTVSPropertyOp29
 70
     1
102
RTVSPropertyOp30
 70
     1
102
RTVSPropertyOp31
 70
     1
102
RTVSPropertyOp32
 70
     1
  0
XRECORD
  5
261
102
{ACAD_REACTORS
330
260
102
}
330
260
100
AcDbXrecord
280
     1
102
RTVSPropertyOp0
 70
     1
102
RTVSPropertyOp1
 70
     1
102
RTVSPropertyOp2
 70
     1
102
RTVSPropertyOp3
 70
     1
102
RTVSPropertyOp4
 70
     1
102
RTVSPropertyOp5
 70
     1
102
RTVSPropertyOp6
 70
     1
102
RTVSPropertyOp7
 70
     1
102
RTVSPropertyOp8
 70
     1
102
RTVSPropertyOp9
 70
     1
102
RTVSPropertyOp10
 70
     1
102
RTVSPropertyOp11
 70
     1
102
RTVSPropertyOp12
 70
     1
102
RTVSPropertyOp13
 70
     1
102
RTVSPropertyOp14
 70
     1
102
RTVSPropertyOp15
 70
     1
102
RTVSPropertyOp16
 70
     1
102
RTVSPropertyOp17
 70
     1
102
RTVSPropertyOp18
 70
     1
102
RTVSPropertyOp19
 70
     1
102
RTVSPropertyOp20
 70
     1
102
RTVSPropertyOp21
 70
     1
102
RTVSPropertyOp22
 70
     1
102
RTVSPropertyOp23
 70
     1
102
RTVSPropertyOp24
 70
     1
102
RTVSPropertyOp25
 70
     1
102
RTVSPropertyOp26
 70
     1
102
RTVSPropertyOp27
 70
     1
102
RTVSPropertyOp28
 70
     1
102
RTVSPropertyOp29
 70
     1
102
RTVSPropertyOp30
 70
     1
102
RTVSPropertyOp31
 70
     1
102
RTVSPropertyOp32
 70
     1
  0
XRECORD
  5
257
102
{ACAD_REACTORS
330
256
102
}
330
256
100
AcDbXrecord
280
     1
102
RTVSPropertyOp0
 70
     1
102
RTVSPropertyOp1
 70
     1
102
RTVSPropertyOp2
 70
     1
102
RTVSPropertyOp3
 70
     1
102
RTVSPropertyOp4
 70
     1
102
RTVSPropertyOp5
 70
     1
102
RTVSPropertyOp6
 70
     1
102
RTVSPropertyOp7
 70
     1
102
RTVSPropertyOp8
 70
     1
102
RTVSPropertyOp9
 70
     1
102
RTVSPropertyOp10
 70
     1
102
RTVSPropertyOp11
 70
     1
102
RTVSPropertyOp12
 70
     1
102
RTVSPropertyOp13
 70
     1
102
RTVSPropertyOp14
 70
     1
102
RTVSPropertyOp15
 70
     1
102
RTVSPropertyOp16
 70
     1
102
RTVSPropertyOp17
 70
     1
102
RTVSPropertyOp18
 70
     1
102
RTVSPropertyOp19
 70
     1
102
RTVSPropertyOp20
 70
     1
102
RTVSPropertyOp21
 70
     1
102
RTVSPropertyOp22
 70
     1
102
RTVSPropertyOp23
 70
     1
102
RTVSPropertyOp24
 70
     1
102
RTVSPropertyOp25
 70
     1
102
RTVSPropertyOp26
 70
     1
102
RTVSPropertyOp27
 70
     1
102
RTVSPropertyOp28
 70
     1
102
RTVSPropertyOp29
 70
     1
102
RTVSPropertyOp30
 70
     1
102
RTVSPropertyOp31
 70
     1
102
RTVSPropertyOp32
 70
     1
  0
XRECORD
  5
24B
102
{ACAD_REACTORS
330
24A
102
}
330
24A
100
AcDbXrecord
280
     1
102
RTVSPropertyOp0
 70
     1
102
RTVSPropertyOp1
 70
     1
102
RTVSPropertyOp2
 70
     1
102
RTVSPropertyOp3
 70
     1
102
RTVSPropertyOp4
 70
     1
102
RTVSPropertyOp5
 70
     1
102
RTVSPropertyOp6
 70
     1
102
RTVSPropertyOp7
 70
     1
102
RTVSPropertyOp8
 70
     1
102
RTVSPropertyOp9
 70
     1
102
RTVSPropertyOp10
 70
     1
102
RTVSPropertyOp11
 70
     1
102
RTVSPropertyOp12
 70
     1
102
RTVSPropertyOp13
 70
     1
102
RTVSPropertyOp14
 70
     1
102
RTVSPropertyOp15
 70
     1
102
RTVSPropertyOp16
 70
     1
102
RTVSPropertyOp17
 70
     1
102
RTVSPropertyOp18
 70
     1
102
RTVSPropertyOp19
 70
     1
102
RTVSPropertyOp20
 70
     1
102
RTVSPropertyOp21
 70
     1
102
RTVSPropertyOp22
 70
     1
102
RTVSPropertyOp23
 70
     1
102
RTVSPropertyOp24
 70
     1
102
RTVSPropertyOp25
 70
     1
102
RTVSPropertyOp26
 70
     1
102
RTVSPropertyOp27
 70
     1
102
RTVSPropertyOp28
 70
     1
102
RTVSPropertyOp29
 70
     1
102
RTVSPropertyOp30
 70
     1
102
RTVSPropertyOp31
 70
     1
102
RTVSPropertyOp32
 70
     1
  0
XRECORD
  5
263
102
{ACAD_REACTORS
330
262
102
}
330
262
100
AcDbXrecord
280
     1
102
RTVSPropertyOp0
 70
     1
102
RTVSPropertyOp1
 70
     1
102
RTVSPropertyOp2
 70
     1
102
RTVSPropertyOp3
 70
     1
102
RTVSPropertyOp4
 70
     1
102
RTVSPropertyOp5
 70
     1
102
RTVSPropertyOp6
 70
     1
102
RTVSPropertyOp7
 70
     1
102
RTVSPropertyOp8
 70
     1
102
RTVSPropertyOp9
 70
     1
102
RTVSPropertyOp10
 70
     1
102
RTVSPropertyOp11
 70
     1
102
RTVSPropertyOp12
 70
     1
102
RTVSPropertyOp13
 70
     1
102
RTVSPropertyOp14
 70
     1
102
RTVSPropertyOp15
 70
     1
102
RTVSPropertyOp16
 70
     1
102
RTVSPropertyOp17
 70
     1
102
RTVSPropertyOp18
 70
     1
102
RTVSPropertyOp19
 70
     1
102
RTVSPropertyOp20
 70
     1
102
RTVSPropertyOp21
 70
     1
102
RTVSPropertyOp22
 70
     1
102
RTVSPropertyOp23
 70
     1
102
RTVSPropertyOp24
 70
     1
102
RTVSPropertyOp25
 70
     1
102
RTVSPropertyOp26
 70
     1
102
RTVSPropertyOp27
 70
     1
102
RTVSPropertyOp28
 70
     1
102
RTVSPropertyOp29
 70
     1
102
RTVSPropertyOp30
 70
     1
102
RTVSPropertyOp31
 70
     1
102
RTVSPropertyOp32
 70
     1
  0
ENDSEC
  0
EOF
