  0
SECTION
  2
HEADER
  9
$ACADVER
  1
AC1015
  9
$ACADMAINTVER
 70
    20
  9
$DWGCODEPAGE
  3
ANSI_1252
  9
$INSBASE
 10
0.0
 20
0.0
 30
0.0
  9
$EXTMIN
 10
0.4999999999999984
 20
0.4999999999999984
 30
0.0
  9
$EXTMAX
 10
21.5
 20
16.49999999999999
 30
0.0
  9
$LIMMIN
 10
0.0
 20
0.0
  9
$LIMMAX
 10
22.0
 20
17.0
  9
$ORTHOMODE
 70
     0
  9
$REGENMODE
 70
     1
  9
$FILLMODE
 70
     1
  9
$QTEXTMODE
 70
     0
  9
$MIRRTEXT
 70
     0
  9
$LTSCALE
 40
1.0
  9
$ATTMODE
 70
     1
  9
$TEXTSIZE
 40
0.2
  9
$TRACEWID
 40
0.05
  9
$TEXTSTYLE
  7
Standard
  9
$CLAYER
  8
0
  9
$CELTYPE
  6
ByLayer
  9
$CECOLOR
 62
   256
  9
$CELTSCALE
 40
1.0
  9
$DISPSILH
 70
     0
  9
$DIMSCALE
 40
1.0
  9
$DIMASZ
 40
0.0708661417322835
  9
$DIMEXO
 40
0.0625
  9
$DIMDLI
 40
0.38
  9
$DIMRND
 40
0.0
  9
$DIMDLE
 40
0.0
  9
$DIMEXE
 40
0.18
  9
$DIMTP
 40
0.0
  9
$DIMTM
 40
0.0
  9
$DIMTXT
 40
0.0708661417322835
  9
$DIMCEN
 40
0.09
  9
$DIMTSZ
 40
0.0
  9
$DIMTOL
 70
     0
  9
$DIMLIM
 70
     0
  9
$DIMTIH
 70
     1
  9
$DIMTOH
 70
     1
  9
$DIMSE1
 70
     0
  9
$DIMSE2
 70
     0
  9
$DIMTAD
 70
     0
  9
$DIMZIN
 70
     0
  9
$DIMBLK
  1

  9
$DIMASO
 70
     1
  9
$DIMSHO
 70
     1
  9
$DIMPOST
  1

  9
$DIMAPOST
  1

  9
$DIMALT
 70
     0
  9
$DIMALTD
 70
     2
  9
$DIMALTF
 40
25.4
  9
$DIMLFAC
 40
1.0
  9
$DIMTOFL
 70
     0
  9
$DIMTVP
 40
0.0
  9
$DIMTIX
 70
     0
  9
$DIMSOXD
 70
     0
  9
$DIMSAH
 70
     0
  9
$DIMBLK1
  1

  9
$DIMBLK2
  1

  9
$DIMSTYLE
  2
Standard
  9
$DIMCLRD
 70
     0
  9
$DIMCLRE
 70
     0
  9
$DIMCLRT
 70
     0
  9
$DIMTFAC
 40
1.0
  9
$DIMGAP
 40
0.09
  9
$DIMJUST
 70
     0
  9
$DIMSD1
 70
     0
  9
$DIMSD2
 70
     0
  9
$DIMTOLJ
 70
     1
  9
$DIMTZIN
 70
     0
  9
$DIMALTZ
 70
     0
  9
$DIMALTTZ
 70
     0
  9
$DIMUPT
 70
     0
  9
$DIMDEC
 70
     4
  9
$DIMTDEC
 70
     4
  9
$DIMALTU
 70
     2
  9
$DIMALTTD
 70
     2
  9
$DIMTXSTY
  7
Standard
  9
$DIMAUNIT
 70
     0
  9
$DIMADEC
 70
     0
  9
$DIMALTRND
 40
0.0
  9
$DIMAZIN
 70
     0
  9
$DIMDSEP
 70
    46
  9
$DIMATFIT
 70
     3
  9
$DIMFRAC
 70
     0
  9
$DIMLDRBLK
  1

  9
$DIMLUNIT
 70
     2
  9
$DIMLWD
 70
    -2
  9
$DIMLWE
 70
    -2
  9
$DIMTMOVE
 70
     0
  9
$LUNITS
 70
     2
  9
$LUPREC
 70
     4
  9
$SKETCHINC
 40
0.1
  9
$FILLETRAD
 40
0.0
  9
$AUNITS
 70
     0
  9
$AUPREC
 70
     0
  9
$MENU
  1
.
  9
$ELEVATION
 40
0.0
  9
$PELEVATION
 40
0.0
  9
$THICKNESS
 40
0.0
  9
$LIMCHECK
 70
     0
  9
$CHAMFERA
 40
0.0
  9
$CHAMFERB
 40
0.0
  9
$CHAMFERC
 40
0.0
  9
$CHAMFERD
 40
0.0
  9
$SKPOLY
 70
     0
  9
$TDCREATE
 40
2456240.545763172
  9
$TDUCREATE
 40
2456240.879096505
  9
$TDUPDATE
 40
2456240.546878808
  9
$TDUUPDATE
 40
2456240.880212142
  9
$TDINDWG
 40
0.0004067940
  9
$TDUSRTIMER
 40
0.0004067940
  9
$USRTIMER
 70
     1
  9
$ANGBASE
 50
0.0
  9
$ANGDIR
 70
     0
  9
$PDMODE
 70
     0
  9
$PDSIZE
 40
0.0
  9
$PLINEWID
 40
0.0
  9
$SPLFRAME
 70
     0
  9
$SPLINETYPE
 70
     6
  9
$SPLINESEGS
 70
     8
  9
$HANDSEED
  5
285
  9
$SURFTAB1
 70
     6
  9
$SURFTAB2
 70
     6
  9
$SURFTYPE
 70
     6
  9
$SURFU
 70
     6
  9
$SURFV
 70
     6
  9
$UCSBASE
  2

  9
$UCSNAME
  2

  9
$UCSORG
 10
0.0
 20
0.0
 30
0.0
  9
$UCSXDIR
 10
1.0
 20
0.0
 30
0.0
  9
$UCSYDIR
 10
0.0
 20
1.0
 30
0.0
  9
$UCSORTHOREF
  2

  9
$UCSORTHOVIEW
 70
     0
  9
$UCSORGTOP
 10
0.0
 20
0.0
 30
0.0
  9
$UCSORGBOTTOM
 10
0.0
 20
0.0
 30
0.0
  9
$UCSORGLEFT
 10
0.0
 20
0.0
 30
0.0
  9
$UCSORGRIGHT
 10
0.0
 20
0.0
 30
0.0
  9
$UCSORGFRONT
 10
0.0
 20
0.0
 30
0.0
  9
$UCSORGBACK
 10
0.0
 20
0.0
 30
0.0
  9
$PUCSBASE
  2

  9
$PUCSNAME
  2

  9
$PUCSORG
 10
0.0
 20
0.0
 30
0.0
  9
$PUCSXDIR
 10
1.0
 20
0.0
 30
0.0
  9
$PUCSYDIR
 10
0.0
 20
1.0
 30
0.0
  9
$PUCSORTHOREF
  2

  9
$PUCSORTHOVIEW
 70
     0
  9
$PUCSORGTOP
 10
0.0
 20
0.0
 30
0.0
  9
$PUCSORGBOTTOM
 10
0.0
 20
0.0
 30
0.0
  9
$PUCSORGLEFT
 10
0.0
 20
0.0
 30
0.0
  9
$PUCSORGRIGHT
 10
0.0
 20
0.0
 30
0.0
  9
$PUCSORGFRONT
 10
0.0
 20
0.0
 30
0.0
  9
$PUCSORGBACK
 10
0.0
 20
0.0
 30
0.0
  9
$USERI1
 70
     0
  9
$USERI2
 70
     0
  9
$USERI3
 70
     0
  9
$USERI4
 70
     0
  9
$USERI5
 70
     0
  9
$USERR1
 40
0.0
  9
$USERR2
 40
0.0
  9
$USERR3
 40
0.0
  9
$USERR4
 40
0.0
  9
$USERR5
 40
0.0
  9
$WORLDVIEW
 70
     1
  9
$SHADEDGE
 70
     3
  9
$SHADEDIF
 70
    70
  9
$TILEMODE
 70
     1
  9
$MAXACTVP
 70
    64
  9
$PINSBASE
 10
0.0
 20
0.0
 30
0.0
  9
$PLIMCHECK
 70
     0
  9
$PEXTMIN
 10
0.0
 20
0.0
 30
0.0
  9
$PEXTMAX
 10
22.0
 20
17.0
 30
0.0
  9
$PLIMMIN
 10
0.0
 20
0.0
  9
$PLIMMAX
 10
22.0
 20
17.0
  9
$UNITMODE
 70
     0
  9
$VISRETAIN
 70
     1
  9
$PLINEGEN
 70
     0
  9
$PSLTSCALE
 70
     1
  9
$TREEDEPTH
 70
  3020
  9
$CMLSTYLE
  2
Standard
  9
$CMLJUST
 70
     0
  9
$CMLSCALE
 40
1.0
  9
$PROXYGRAPHICS
 70
     1
  9
$MEASUREMENT
 70
     0
  9
$CELWEIGHT
370
    -1
  9
$ENDCAPS
280
     0
  9
$JOINSTYLE
280
     0
  9
$LWDISPLAY
290
     0
  9
$INSUNITS
 70
     1
  9
$HYPERLINKBASE
  1

  9
$STYLESHEET
  1

  9
$XEDIT
290
     1
  9
$CEPSNTYPE
380
     0
  9
$PSTYLEMODE
290
     1
  9
$FINGERPRINTGUID
  2
{0666F188-BB37-4D3C-B3BC-0D75B4F7D014}
  9
$VERSIONGUID
  2
{90C99CB8-13DC-42C5-ADD8-38AC662961AC}
  9
$EXTNAMES
290
     1
  9
$PSVPSCALE
 40
0.0
  9
$OLESTARTUP
290
     0
  0
ENDSEC
  0
SECTION
  2
CLASSES
  0
CLASS
  1
ACDBDICTIONARYWDFLT
  2
AcDbDictionaryWithDefault
  3
ObjectDBX Classes
 90
        0
280
     0
281
     0
  0
CLASS
  1
MATERIAL
  2
AcDbMaterial
  3
ObjectDBX Classes
 90
     1153
280
     0
281
     0
  0
CLASS
  1
VISUALSTYLE
  2
AcDbVisualStyle
  3
ObjectDBX Classes
 90
     4095
280
     0
281
     0
  0
CLASS
  1
SCALE
  2
AcDbScale
  3
ObjectDBX Classes
 90
     1153
280
     0
281
     0
  0
CLASS
  1
TABLESTYLE
  2
AcDbTableStyle
  3
ObjectDBX Classes
 90
     4095
280
     0
281
     0
  0
CLASS
  1
MLEADERSTYLE
  2
AcDbMLeaderStyle
  3
ACDB_MLEADERSTYLE_CLASS
 90
     4095
280
     0
281
     0
  0
CLASS
  1
DICTIONARYVAR
  2
AcDbDictionaryVar
  3
ObjectDBX Classes
 90
        0
280
     0
281
     0
  0
CLASS
  1
CELLSTYLEMAP
  2
AcDbCellStyleMap
  3
ObjectDBX Classes
 90
     1152
280
     0
281
     0
  0
CLASS
  1
ACDBPLACEHOLDER
  2
AcDbPlaceHolder
  3
ObjectDBX Classes
 90
        0
280
     0
281
     0
  0
CLASS
  1
LAYOUT
  2
AcDbLayout
  3
ObjectDBX Classes
 90
        0
280
     0
281
     0
  0
ENDSEC
  0
SECTION
  2
TABLES
  0
TABLE
  2
VPORT
  5
8
102
{ACAD_XDICTIONARY
360
1F7
102
}
330
0
100
AcDbSymbolTable
 70
     1
  0
VPORT
  5
57
330
8
100
AcDbSymbolTableRecord
100
AcDbViewportTableRecord
  2
*Active
 70
     0
 10
0.0
 20
0.0
 11
1.0
 21
1.0
 12
15.71486538587633
 22
6.033348008322844
 13
0.0
 23
0.0
 14
1.0
 24
1.0
 15
0.0
 25
0.0
 16
0.0
 26
0.0
 36
1.0
 17
0.0
 27
0.0
 37
0.0
 40
25.86996113962499
 41
2.135099337748344
 42
50.0
 43
0.0
 44
0.0
 50
0.0
 51
0.0
 71
     0
 72
   100
 73
     1
 74
     1
 75
     0
 76
     0
 77
     0
 78
     0
281
     0
 65
     1
110
0.0
120
0.0
130
0.0
111
1.0
121
0.0
131
0.0
112
0.0
122
1.0
132
0.0
 79
     0
146
0.0
1001
ACAD_NAV_VCDISPLAY
1070
     3
  0
ENDTAB
  0
TABLE
  2
LTYPE
  5
5
330
0
100
AcDbSymbolTable
 70
    59
  0
LTYPE
  5
5B
330
5
100
AcDbSymbolTableRecord
100
AcDbLinetypeTableRecord
  2
ByBlock
 70
     0
  3

 72
    65
 73
     0
 40
0.0
  0
LTYPE
  5
5C
330
5
100
AcDbSymbolTableRecord
100
AcDbLinetypeTableRecord
  2
ByLayer
 70
     0
  3

 72
    65
 73
     0
 40
0.0
  0
LTYPE
  5
5D
330
5
100
AcDbSymbolTableRecord
100
AcDbLinetypeTableRecord
  2
Continuous
 70
     0
  3
Solid line
 72
    65
 73
     0
 40
0.0
  0
LTYPE
  5
7C
330
5
100
AcDbSymbolTableRecord
100
AcDbLinetypeTableRecord
  2
BY_STANDARD
 70
     0
  3
By Standard ____________    ____    ____   _
 72
    65
 73
     6
 40
1.240299999999999
 49
0.6614
 74
     0
 49
-0.0827
 74
     0
 49
0.1654
 74
     0
 49
-0.0827
 74
     0
 49
0.1654
 74
     0
 49
-0.0827
 74
     0
  0
LTYPE
  5
7D
330
5
100
AcDbSymbolTableRecord
100
AcDbLinetypeTableRecord
  2
CHAIN
 70
     0
  3
Chain ____ _ ____ _ ____ _ ____ _ ____ _ ____
 72
    65
 73
     4
 40
0.7087
 49
0.4724000000000001
 74
     0
 49
-0.0591
 74
     0
 49
0.1181
 74
     0
 49
-0.0591
 74
     0
  0
LTYPE
  5
7E
330
5
100
AcDbSymbolTableRecord
100
AcDbLinetypeTableRecord
  2
DASH_DOT
 70
     0
  3
Dash dot __ . __ . __ . __ . __ . __ . __ . __
 72
    65
 73
     4
 40
0.37
 49
0.24
 74
     0
 49
-0.06
 74
     0
 49
0.01
 74
     0
 49
-0.06
 74
     0
  0
LTYPE
  5
7F
330
5
100
AcDbSymbolTableRecord
100
AcDbLinetypeTableRecord
  2
DOUBLE_DASH_DOT
 70
     0
  3
Double-Dash Dot __ __ . __ __ . __ __ . __ _
 72
    65
 73
     6
 40
0.4398
 49
0.24
 74
     0
 49
-0.06
 74
     0
 49
0.0098
 74
     0
 49
-0.06
 74
     0
 49
0.01
 74
     0
 49
-0.06
 74
     0
  0
LTYPE
  5
80
330
5
100
AcDbSymbolTableRecord
100
AcDbLinetypeTableRecord
  2
DASH_TRIPLE_DOT
 70
     0
  3
Dash Triple-Dot _ . . . _ . . . _ . . . _
 72
    65
 73
     8
 40
0.51
 49
0.24
 74
     0
 49
-0.06
 74
     0
 49
0.01
 74
     0
 49
-0.06
 74
     0
 49
0.01
 74
     0
 49
-0.06
 74
     0
 49
0.01
 74
     0
 49
-0.06
 74
     0
  0
LTYPE
  5
81
330
5
100
AcDbSymbolTableRecord
100
AcDbLinetypeTableRecord
  2
DASHED
 70
     0
  3
Dashed __ __ __ __ __ __ __ __ __ __ __ __ __ _
 72
    65
 73
     2
 40
0.2067
 49
0.1654
 74
     0
 49
-0.0413
 74
     0
  0
LTYPE
  5
82
330
5
100
AcDbSymbolTableRecord
100
AcDbLinetypeTableRecord
  2
DASH_DOUBLE_DOT
 70
     0
  3
Dash Double-Dot __ . . __ . . __ . . __ . .
 72
    65
 73
     6
 40
0.4398
 49
0.24
 74
     0
 49
-0.06
 74
     0
 49
0.0098
 74
     0
 49
-0.06
 74
     0
 49
0.01
 74
     0
 49
-0.06
 74
     0
  0
LTYPE
  5
83
330
5
100
AcDbSymbolTableRecord
100
AcDbLinetypeTableRecord
  2
DASHED_SPACE
 70
     0
  3
Dashed Space __ __ __ __ __ __ __ __ __ __ __ _
 72
    65
 73
     2
 40
0.2067
 49
0.1654
 74
     0
 49
-0.0413
 74
     0
  0
LTYPE
  5
84
330
5
100
AcDbSymbolTableRecord
100
AcDbLinetypeTableRecord
  2
DOTTED
 70
     0
  3
Dotted . . . . . . . . . . . . . . . . . . . . 
 72
    65
 73
     2
 40
0.0482
 49
0.0069
 74
     0
 49
-0.0413
 74
     0
  0
LTYPE
  5
85
330
5
100
AcDbSymbolTableRecord
100
AcDbLinetypeTableRecord
  2
DOUBLE_DASH_CHAIN
 70
     0
  3
Double-Dash Chain ______  __  __  ______  __  _
 72
    65
 73
     6
 40
1.240299999999999
 49
0.6614
 74
     0
 49
-0.0827
 74
     0
 49
0.1654
 74
     0
 49
-0.0827
 74
     0
 49
0.1654
 74
     0
 49
-0.0827
 74
     0
  0
LTYPE
  5
87
330
5
100
AcDbSymbolTableRecord
100
AcDbLinetypeTableRecord
  2
DOUBLE_DASH_DOUBLE_DOT
 70
     0
  3
Double-Dash Double-dot _ _ . . _ _ . . _
 72
    65
 73
     8
 40
0.7400000000000001
 49
0.24
 74
     0
 49
-0.06
 74
     0
 49
0.24
 74
     0
 49
-0.06
 74
     0
 49
0.01
 74
     0
 49
-0.06
 74
     0
 49
0.01
 74
     0
 49
-0.06
 74
     0
  0
LTYPE
  5
88
330
5
100
AcDbSymbolTableRecord
100
AcDbLinetypeTableRecord
  2
DOUBLE_DASH_TRIPLE_DOT
 70
     0
  3
Double Dash Triple Dot __ __ . . . __ __ . .
 72
    65
 73
    10
 40
0.8100000000000001
 49
0.24
 74
     0
 49
-0.06
 74
     0
 49
0.24
 74
     0
 49
-0.06
 74
     0
 49
0.01
 74
     0
 49
-0.06
 74
     0
 49
0.01
 74
     0
 49
-0.06
 74
     0
 49
0.01
 74
     0
 49
-0.06
 74
     0
  0
LTYPE
  5
89
330
5
100
AcDbSymbolTableRecord
100
AcDbLinetypeTableRecord
  2
LONG_DASH_DOTTED
 70
     0
  3
Long Dash Dotted ____ . ____ . ____ . ____ . _
 72
    65
 73
     4
 40
0.3543
 49
0.2362
 74
     0
 49
-0.0295
 74
     0
 49
0.0591
 74
     0
 49
-0.0295
 74
     0
  0
LTYPE
  5
8A
330
5
100
AcDbSymbolTableRecord
100
AcDbLinetypeTableRecord
  2
LONG_DASH_DOUBLE_DOT
 70
     0
  3
Long Dash Double Dot ________  .  .  ________  
 72
    65
 73
     6
 40
0.6799999999999999
 49
0.48
 74
     0
 49
-0.06
 74
     0
 49
0.01
 74
     0
 49
-0.06
 74
     0
 49
0.01
 74
     0
 49
-0.06
 74
     0
  0
LTYPE
  5
8B
330
5
100
AcDbSymbolTableRecord
100
AcDbLinetypeTableRecord
  2
LONG_DASH_TRIPLE_DOT
 70
     0
  3
Long Dash Triple Dot ____ ... ____ ... ____
 72
    65
 73
     8
 40
0.3689
 49
0.2362
 74
     0
 49
-0.0295
 74
     0
 49
0.0049
 74
     0
 49
-0.0295
 74
     0
 49
0.0049
 74
     0
 49
-0.0295
 74
     0
 49
0.0049
 74
     0
 49
-0.0295
 74
     0
  0
LTYPE
  5
8C
330
5
100
AcDbSymbolTableRecord
100
AcDbLinetypeTableRecord
  2
BORDER
 70
     0
  3
Border __ __ . __ __ . __ __ . __ __ . __ __ .
 72
    65
 73
     6
 40
1.75
 49
0.5
 74
     0
 49
-0.25
 74
     0
 49
0.5
 74
     0
 49
-0.25
 74
     0
 49
0.0
 74
     0
 49
-0.25
 74
     0
  0
LTYPE
  5
8D
330
5
100
AcDbSymbolTableRecord
100
AcDbLinetypeTableRecord
  2
BORDER2
 70
     0
  3
Border (.5x) __.__.__.__.__.__.__.__.__.__.__.
 72
    65
 73
     6
 40
0.875
 49
0.25
 74
     0
 49
-0.125
 74
     0
 49
0.25
 74
     0
 49
-0.125
 74
     0
 49
0.0
 74
     0
 49
-0.125
 74
     0
  0
LTYPE
  5
8E
330
5
100
AcDbSymbolTableRecord
100
AcDbLinetypeTableRecord
  2
BORDERX2
 70
     0
  3
Border (2x) ____  ____  .  ____  ____  .  ___
 72
    65
 73
     6
 40
3.5
 49
1.0
 74
     0
 49
-0.5
 74
     0
 49
1.0
 74
     0
 49
-0.5
 74
     0
 49
0.0
 74
     0
 49
-0.5
 74
     0
  0
LTYPE
  5
8F
330
5
100
AcDbSymbolTableRecord
100
AcDbLinetypeTableRecord
  2
CENTER
 70
     0
  3
Center ____ _ ____ _ ____ _ ____ _ ____ _ ____
 72
    65
 73
     4
 40
2.0
 49
1.25
 74
     0
 49
-0.25
 74
     0
 49
0.25
 74
     0
 49
-0.25
 74
     0
  0
LTYPE
  5
90
330
5
100
AcDbSymbolTableRecord
100
AcDbLinetypeTableRecord
  2
CENTER2
 70
     0
  3
Center (.5x) ___ _ ___ _ ___ _ ___ _ ___ _ ___
 72
    65
 73
     4
 40
1.125
 49
0.75
 74
     0
 49
-0.125
 74
     0
 49
0.125
 74
     0
 49
-0.125
 74
     0
  0
LTYPE
  5
91
330
5
100
AcDbSymbolTableRecord
100
AcDbLinetypeTableRecord
  2
CENTERX2
 70
     0
  3
Center (2x) ________  __  ________  __  _____
 72
    65
 73
     4
 40
4.0
 49
2.5
 74
     0
 49
-0.5
 74
     0
 49
0.5
 74
     0
 49
-0.5
 74
     0
  0
LTYPE
  5
92
330
5
100
AcDbSymbolTableRecord
100
AcDbLinetypeTableRecord
  2
DASHDOT2
 70
     0
  3
Dash dot (.5x) _._._._._._._._._._._._._._._.
 72
    65
 73
     4
 40
0.5
 49
0.25
 74
     0
 49
-0.125
 74
     0
 49
0.0
 74
     0
 49
-0.125
 74
     0
  0
LTYPE
  5
93
330
5
100
AcDbSymbolTableRecord
100
AcDbLinetypeTableRecord
  2
DASHDOTX2
 70
     0
  3
Dash dot (2x) ____  .  ____  .  ____  .  ___
 72
    65
 73
     4
 40
2.0
 49
1.0
 74
     0
 49
-0.5
 74
     0
 49
0.0
 74
     0
 49
-0.5
 74
     0
  0
LTYPE
  5
95
330
5
100
AcDbSymbolTableRecord
100
AcDbLinetypeTableRecord
  2
DASHED2
 70
     0
  3
Dashed (.5x) _ _ _ _ _ _ _ _ _ _ _ _ _ _ _ _ _
 72
    65
 73
     2
 40
0.375
 49
0.25
 74
     0
 49
-0.125
 74
     0
  0
LTYPE
  5
96
330
5
100
AcDbSymbolTableRecord
100
AcDbLinetypeTableRecord
  2
DASHEDX2
 70
     0
  3
Dashed (2x) ____  ____  ____  ____  ____  ___
 72
    65
 73
     2
 40
1.5
 49
1.0
 74
     0
 49
-0.5
 74
     0
  0
LTYPE
  5
97
330
5
100
AcDbSymbolTableRecord
100
AcDbLinetypeTableRecord
  2
DIVIDE
 70
     0
  3
Divide ____ . . ____ . . ____ . . ____ . . ____
 72
    65
 73
     6
 40
1.25
 49
0.5
 74
     0
 49
-0.25
 74
     0
 49
0.0
 74
     0
 49
-0.25
 74
     0
 49
0.0
 74
     0
 49
-0.25
 74
     0
  0
LTYPE
  5
98
330
5
100
AcDbSymbolTableRecord
100
AcDbLinetypeTableRecord
  2
DIVIDE2
 70
     0
  3
Divide (.5x) __..__..__..__..__..__..__..__.._
 72
    65
 73
     6
 40
0.625
 49
0.25
 74
     0
 49
-0.125
 74
     0
 49
0.0
 74
     0
 49
-0.125
 74
     0
 49
0.0
 74
     0
 49
-0.125
 74
     0
  0
LTYPE
  5
99
330
5
100
AcDbSymbolTableRecord
100
AcDbLinetypeTableRecord
  2
DIVIDEX2
 70
     0
  3
Divide (2x) ________  .  .  ________  .  .  _
 72
    65
 73
     6
 40
2.5
 49
1.0
 74
     0
 49
-0.5
 74
     0
 49
0.0
 74
     0
 49
-0.5
 74
     0
 49
0.0
 74
     0
 49
-0.5
 74
     0
  0
LTYPE
  5
9A
330
5
100
AcDbSymbolTableRecord
100
AcDbLinetypeTableRecord
  2
DOT
 70
     0
  3
Dot . . . . . . . . . . . . . . . . . . . . . .
 72
    65
 73
     2
 40
0.25
 49
0.0
 74
     0
 49
-0.25
 74
     0
  0
LTYPE
  5
9B
330
5
100
AcDbSymbolTableRecord
100
AcDbLinetypeTableRecord
  2
DOT2
 70
     0
  3
Dot (.5x) .....................................
 72
    65
 73
     2
 40
0.125
 49
0.0
 74
     0
 49
-0.125
 74
     0
  0
LTYPE
  5
9C
330
5
100
AcDbSymbolTableRecord
100
AcDbLinetypeTableRecord
  2
DOTX2
 70
     0
  3
Dot (2x) .  .  .  .  .  .  .  .  .  .  .  .  . 
 72
    65
 73
     2
 40
0.5
 49
0.0
 74
     0
 49
-0.5
 74
     0
  0
LTYPE
  5
9D
330
5
100
AcDbSymbolTableRecord
100
AcDbLinetypeTableRecord
  2
HIDDEN
 70
     0
  3
Hidden __ __ __ __ __ __ __ __ __ __ __ __ __ _
 72
    65
 73
     2
 40
0.375
 49
0.25
 74
     0
 49
-0.125
 74
     0
  0
LTYPE
  5
9E
330
5
100
AcDbSymbolTableRecord
100
AcDbLinetypeTableRecord
  2
HIDDEN2
 70
     0
  3
Hidden (.5x) _ _ _ _ _ _ _ _ _ _ _ _ _ _ _ _ _
 72
    65
 73
     2
 40
0.1875
 49
0.125
 74
     0
 49
-0.0625
 74
     0
  0
LTYPE
  5
9F
330
5
100
AcDbSymbolTableRecord
100
AcDbLinetypeTableRecord
  2
HIDDENX2
 70
     0
  3
Hidden (2x) ____ ____ ____ ____ ____ ____ ____
 72
    65
 73
     2
 40
0.75
 49
0.5
 74
     0
 49
-0.25
 74
     0
  0
LTYPE
  5
A0
330
5
100
AcDbSymbolTableRecord
100
AcDbLinetypeTableRecord
  2
PHANTOM
 70
     0
  3
Phantom ______  __  __  ______  __  __  ______
 72
    65
 73
     6
 40
2.5
 49
1.25
 74
     0
 49
-0.25
 74
     0
 49
0.25
 74
     0
 49
-0.25
 74
     0
 49
0.25
 74
     0
 49
-0.25
 74
     0
  0
LTYPE
  5
A1
330
5
100
AcDbSymbolTableRecord
100
AcDbLinetypeTableRecord
  2
PHANTOM2
 70
     0
  3
Phantom (.5x) ___ _ _ ___ _ _ ___ _ _ ___ _ _
 72
    65
 73
     6
 40
1.25
 49
0.625
 74
     0
 49
-0.125
 74
     0
 49
0.125
 74
     0
 49
-0.125
 74
     0
 49
0.125
 74
     0
 49
-0.125
 74
     0
  0
LTYPE
  5
A2
330
5
100
AcDbSymbolTableRecord
100
AcDbLinetypeTableRecord
  2
PHANTOMX2
 70
     0
  3
Phantom (2x) ____________    ____    ____   _
 72
    65
 73
     6
 40
5.0
 49
2.5
 74
     0
 49
-0.5
 74
     0
 49
0.5
 74
     0
 49
-0.5
 74
     0
 49
0.5
 74
     0
 49
-0.5
 74
     0
  0
LTYPE
  5
A3
330
5
100
AcDbSymbolTableRecord
100
AcDbLinetypeTableRecord
  2
ACAD_ISO02W100
 70
     0
  3
ISO dash __ __ __ __ __ __ __ __ __ __ __ __ __
 72
    65
 73
     2
 40
0.59
 49
0.47
 74
     0
 49
-0.12
 74
     0
  0
LTYPE
  5
A4
330
5
100
AcDbSymbolTableRecord
100
AcDbLinetypeTableRecord
  2
ACAD_ISO03W100
 70
     0
  3
ISO dash space __    __    __    __    __    __
 72
    65
 73
     2
 40
1.179999999999999
 49
0.47
 74
     0
 49
-0.71
 74
     0
  0
LTYPE
  5
A5
330
5
100
AcDbSymbolTableRecord
100
AcDbLinetypeTableRecord
  2
ACAD_ISO04W100
 70
     0
  3
ISO long-dash dot ____ . ____ . ____ . ____ . _
 72
    65
 73
     4
 40
1.179999999999999
 49
0.9399999999999998
 74
     0
 49
-0.12
 74
     0
 49
0.0
 74
     0
 49
-0.12
 74
     0
  0
LTYPE
  5
A6
330
5
100
AcDbSymbolTableRecord
100
AcDbLinetypeTableRecord
  2
ACAD_ISO05W100
 70
     0
  3
ISO long-dash double-dot ____ .. ____ .. ____ .
 72
    65
 73
     6
 40
1.299999999999999
 49
0.9399999999999998
 74
     0
 49
-0.12
 74
     0
 49
0.0
 74
     0
 49
-0.12
 74
     0
 49
0.0
 74
     0
 49
-0.12
 74
     0
  0
LTYPE
  5
A7
330
5
100
AcDbSymbolTableRecord
100
AcDbLinetypeTableRecord
  2
ACAD_ISO06W100
 70
     0
  3
ISO long-dash triple-dot ____ ... ____ ... ____
 72
    65
 73
     8
 40
1.419999999999999
 49
0.9399999999999998
 74
     0
 49
-0.12
 74
     0
 49
0.0
 74
     0
 49
-0.12
 74
     0
 49
0.0
 74
     0
 49
-0.12
 74
     0
 49
0.0
 74
     0
 49
-0.12
 74
     0
  0
LTYPE
  5
A8
330
5
100
AcDbSymbolTableRecord
100
AcDbLinetypeTableRecord
  2
ACAD_ISO07W100
 70
     0
  3
ISO dot . . . . . . . . . . . . . . . . . . . .
 72
    65
 73
     2
 40
0.12
 49
0.0
 74
     0
 49
-0.12
 74
     0
  0
LTYPE
  5
A9
330
5
100
AcDbSymbolTableRecord
100
AcDbLinetypeTableRecord
  2
ACAD_ISO08W100
 70
     0
  3
ISO long-dash short-dash ____ __ ____ __ ____ _
 72
    65
 73
     4
 40
0.95
 49
0.47
 74
     0
 49
-0.12
 74
     0
 49
0.24
 74
     0
 49
-0.12
 74
     0
  0
LTYPE
  5
AA
330
5
100
AcDbSymbolTableRecord
100
AcDbLinetypeTableRecord
  2
ACAD_ISO09W100
 70
     0
  3
ISO long-dash double-short-dash ____ __ __ ____
 72
    65
 73
     6
 40
1.31
 49
0.47
 74
     0
 49
-0.12
 74
     0
 49
0.24
 74
     0
 49
-0.12
 74
     0
 49
0.24
 74
     0
 49
-0.12
 74
     0
  0
LTYPE
  5
AB
330
5
100
AcDbSymbolTableRecord
100
AcDbLinetypeTableRecord
  2
ACAD_ISO10W100
 70
     0
  3
ISO dash dot __ . __ . __ . __ . __ . __ . __ .
 72
    65
 73
     4
 40
0.71
 49
0.47
 74
     0
 49
-0.12
 74
     0
 49
0.0
 74
     0
 49
-0.12
 74
     0
  0
LTYPE
  5
AC
330
5
100
AcDbSymbolTableRecord
100
AcDbLinetypeTableRecord
  2
ACAD_ISO11W100
 70
     0
  3
ISO double-dash dot __ __ . __ __ . __ __ . __ 
 72
    65
 73
     6
 40
1.299999999999999
 49
0.47
 74
     0
 49
-0.12
 74
     0
 49
0.47
 74
     0
 49
-0.12
 74
     0
 49
0.0
 74
     0
 49
-0.12
 74
     0
  0
LTYPE
  5
AD
330
5
100
AcDbSymbolTableRecord
100
AcDbLinetypeTableRecord
  2
ACAD_ISO12W100
 70
     0
  3
ISO dash double-dot __ . . __ . . __ . . __ . .
 72
    65
 73
     6
 40
0.8299999999999998
 49
0.47
 74
     0
 49
-0.12
 74
     0
 49
0.0
 74
     0
 49
-0.12
 74
     0
 49
0.0
 74
     0
 49
-0.12
 74
     0
  0
LTYPE
  5
AE
330
5
100
AcDbSymbolTableRecord
100
AcDbLinetypeTableRecord
  2
ACAD_ISO13W100
 70
     0
  3
ISO double-dash double-dot __ __ . . __ __ . . 
 72
    65
 73
     8
 40
1.419999999999999
 49
0.47
 74
     0
 49
-0.12
 74
     0
 49
0.47
 74
     0
 49
-0.12
 74
     0
 49
0.0
 74
     0
 49
-0.12
 74
     0
 49
0.0
 74
     0
 49
-0.12
 74
     0
  0
LTYPE
  5
AF
330
5
100
AcDbSymbolTableRecord
100
AcDbLinetypeTableRecord
  2
ACAD_ISO14W100
 70
     0
  3
ISO dash triple-dot __ . . . __ . . . __ . . . 
 72
    65
 73
     8
 40
0.95
 49
0.47
 74
     0
 49
-0.12
 74
     0
 49
0.0
 74
     0
 49
-0.12
 74
     0
 49
0.0
 74
     0
 49
-0.12
 74
     0
 49
0.0
 74
     0
 49
-0.12
 74
     0
  0
LTYPE
  5
B0
330
5
100
AcDbSymbolTableRecord
100
AcDbLinetypeTableRecord
  2
ACAD_ISO15W100
 70
     0
  3
ISO double-dash triple-dot __ __ . . . __ __ . 
 72
    65
 73
    10
 40
1.539999999999999
 49
0.47
 74
     0
 49
-0.12
 74
     0
 49
0.47
 74
     0
 49
-0.12
 74
     0
 49
0.0
 74
     0
 49
-0.12
 74
     0
 49
0.0
 74
     0
 49
-0.12
 74
     0
 49
0.0
 74
     0
 49
-0.12
 74
     0
  0
LTYPE
  5
B3
330
5
100
AcDbSymbolTableRecord
100
AcDbLinetypeTableRecord
  2
FENCELINE1
 70
     0
  3
Fenceline circle ----0-----0----0-----0----0---
 72
    65
 73
     4
 40
1.45
 49
0.25
 74
     0
 49
-0.1
 74
     4
 75
   133
340
B2
 46
0.1
 50
0.0
 44
-0.1
 45
0.0
 49
-0.1
 74
     0
 49
1.0
 74
     0
  0
LTYPE
  5
B4
330
5
100
AcDbSymbolTableRecord
100
AcDbLinetypeTableRecord
  2
FENCELINE2
 70
     0
  3
Fenceline square ----[]-----[]----[]-----[]----
 72
    65
 73
     4
 40
1.45
 49
0.25
 74
     0
 49
-0.1
 74
     4
 75
   132
340
B2
 46
0.1
 50
0.0
 44
-0.1
 45
0.0
 49
-0.1
 74
     0
 49
1.0
 74
     0
  0
LTYPE
  5
B5
330
5
100
AcDbSymbolTableRecord
100
AcDbLinetypeTableRecord
  2
TRACKS
 70
     0
  3
Tracks -|-|-|-|-|-|-|-|-|-|-|-|-|-|-|-|-|-|-|-|
 72
    65
 73
     2
 40
0.3
 49
0.15
 74
     4
 75
   130
340
B2
 46
0.25
 50
0.0
 44
0.0
 45
0.0
 49
0.15
 74
     0
  0
LTYPE
  5
B6
330
5
100
AcDbSymbolTableRecord
100
AcDbLinetypeTableRecord
  2
BATTING
 70
     0
  3
Batting SSSSSSSSSSSSSSSSSSSSSSSSSSSSSSSSSSSSSSS
 72
    65
 73
     4
 40
0.4001000000000001
 49
0.0001
 74
     0
 49
-0.1
 74
     4
 75
   134
340
B2
 46
0.1
 50
0.0
 44
-0.1
 45
0.0
 49
-0.2
 74
     4
 75
   134
340
B2
 46
0.1
 50
180.0
 44
0.1
 45
0.0
 49
-0.1
 74
     0
  0
LTYPE
  5
B7
330
5
100
AcDbSymbolTableRecord
100
AcDbLinetypeTableRecord
  2
HOT_WATER_SUPPLY
 70
     0
  3
Hot water supply ---- HW ---- HW ---- HW ----
 72
    65
 73
     3
 40
0.9
 49
0.5
 74
     0
 49
-0.2
 74
     2
 75
     0
340
55
 46
0.1
 50
0.0
 44
-0.1
 45
-0.05
  9
HW
 49
-0.2
 74
     0
  0
LTYPE
  5
B8
330
5
100
AcDbSymbolTableRecord
100
AcDbLinetypeTableRecord
  2
GAS_LINE
 70
     0
  3
Gas line ----GAS----GAS----GAS----GAS----GAS---
 72
    65
 73
     3
 40
0.95
 49
0.5
 74
     0
 49
-0.2
 74
     2
 75
     0
340
55
 46
0.1
 50
0.0
 44
-0.1
 45
-0.05
  9
GAS
 49
-0.25
 74
     0
  0
LTYPE
  5
B9
330
5
100
AcDbSymbolTableRecord
100
AcDbLinetypeTableRecord
  2
ZIGZAG
 70
     0
  3
Zig zag /\/\/\/\/\/\/\/\/\/\/\/\/\/\/\/\/\/\/\/
 72
    65
 73
     4
 40
0.8001000000000001
 49
0.0001
 74
     0
 49
-0.2
 74
     4
 75
   131
340
B2
 46
0.2
 50
0.0
 44
-0.2
 45
0.0
 49
-0.4
 74
     4
 75
   131
340
B2
 46
0.2
 50
180.0
 44
0.2
 45
0.0
 49
-0.2
 74
     0
  0
ENDTAB
  0
TABLE
  2
LAYER
  5
2
330
0
100
AcDbSymbolTable
 70
     3
  0
LAYER
  5
54
330
2
100
AcDbSymbolTableRecord
100
AcDbLayerTableRecord
  2
0
 70
     0
 62
     7
  6
Continuous
370
    -3
390
F
  0
LAYER
  5
BE
330
2
100
AcDbSymbolTableRecord
100
AcDbLayerTableRecord
  2
Border (ANSI)
 70
     0
 62
     7
  6
Continuous
370
    25
390
F
  0
LAYER
  5
D0
330
2
100
AcDbSymbolTableRecord
100
AcDbLayerTableRecord
  2
Visible (ANSI)
 70
     0
 62
     7
  6
Continuous
370
    18
390
F
  0
ENDTAB
  0
TABLE
  2
STYLE
  5
3
330
0
100
AcDbSymbolTable
 70
     5
  0
STYLE
  5
55
330
3
100
AcDbSymbolTableRecord
100
AcDbTextStyleTableRecord
  2
Standard
 70
     0
 40
0.0
 41
0.899999976158142
 50
0.0
 71
     0
 42
0.2
  3
txt
  4

  0
STYLE
  5
5A
330
3
100
AcDbSymbolTableRecord
100
AcDbTextStyleTableRecord
  2
Annotative
 70
     0
 40
0.0
 41
1.0
 50
0.0
 71
     0
 42
0.2
  3
txt
  4

1001
AcadAnnotative
1000
AnnotativeData
1002
{
1070
     1
1070
     1
1002
}
  0
STYLE
  5
B2
330
3
100
AcDbSymbolTableRecord
100
AcDbTextStyleTableRecord
  2

 70
     1
 40
0.0
 41
1.0
 50
0.0
 71
     0
 42
0.2
  3
ltypeshp.shx
  4

  0
STYLE
  5
D5
330
3
100
AcDbSymbolTableRecord
100
AcDbTextStyleTableRecord
  2
Label Text (ANSI)
 70
     0
 40
0.0
 41
0.899999976158142
 50
0.0
 71
     0
 42
0.2
  3
txt_IV25.ttf
  4

1001
ACAD
1000
Txt_IV25
1071
      256
  0
STYLE
  5
D6
330
3
100
AcDbSymbolTableRecord
100
AcDbTextStyleTableRecord
  2
Note Text (ANSI)
 70
     0
 40
0.0
 41
0.899999976158142
 50
0.0
 71
     0
 42
0.2
  3
txt_IV25.ttf
  4

1001
ACAD
1000
Txt_IV25
1071
      256
  0
ENDTAB
  0
TABLE
  2
VIEW
  5
6
330
0
100
AcDbSymbolTable
 70
     0
  0
ENDTAB
  0
TABLE
  2
UCS
  5
7
330
0
100
AcDbSymbolTable
 70
     0
  0
ENDTAB
  0
TABLE
  2
APPID
  5
9
330
0
100
AcDbSymbolTable
 70
     4
  0
APPID
  5
56
330
9
100
AcDbSymbolTableRecord
100
AcDbRegAppTableRecord
  2
ACAD
 70
     0
  0
APPID
  5
5E
330
9
100
AcDbSymbolTableRecord
100
AcDbRegAppTableRecord
  2
AcadAnnotative
 70
     0
  0
APPID
  5
22D
330
9
100
AcDbSymbolTableRecord
100
AcDbRegAppTableRecord
  2
ACAD_MLEADERVER
 70
     0
  0
APPID
  5
245
330
9
100
AcDbSymbolTableRecord
100
AcDbRegAppTableRecord
  2
ACAD_NAV_VCDISPLAY
 70
     0
  0
ENDTAB
  0
TABLE
  2
DIMSTYLE
  5
A
330
0
100
AcDbSymbolTable
 70
    17
100
AcDbDimStyleTable
 71
     0
  0
DIMSTYLE
105
58
330
A
100
AcDbSymbolTableRecord
100
AcDbDimStyleTableRecord
  2
Standard
 70
     0
340
55
  0
DIMSTYLE
105
59
330
A
100
AcDbSymbolTableRecord
100
AcDbDimStyleTableRecord
  2
Annotative
 70
     0
340
55
1001
AcadAnnotative
1000
AnnotativeData
1002
{
1070
     1
1070
     1
1002
}
  0
DIMSTYLE
105
D7
330
A
100
AcDbSymbolTableRecord
100
AcDbDimStyleTableRecord
  2
Architectural (ANSI)
 70
     0
 41
0.0984251946210861
 43
0.2362204724409449
 44
0.125
 45
0.00000001
 46
0.3937007874015748
 78
     3
 79
     3
140
0.0899999961256981
146
1.333333492279052
147
0.031496062992126
171
     1
176
   256
177
   256
178
     5
272
     2
274
     1
276
     2
277
     4
284
    12
285
     4
286
    12
340
D6
371
    -1
372
    -1
  0
DIMSTYLE
105
D8
330
A
100
AcDbSymbolTableRecord
100
AcDbDimStyleTableRecord
  2
Architectural (ANSI)$7
 70
     0
 41
0.0984251946210861
 43
0.2362204724409449
 44
0.125
 45
0.00000001
 46
0.3937007874015748
 78
     3
 79
     3
140
0.0899999961256981
146
1.333333492279052
147
0.031496062992126
171
     1
176
     5
177
   256
178
     5
272
     2
274
     1
276
     2
277
     4
284
    12
285
     4
286
    12
340
D6
371
    -1
372
    -1
  0
DIMSTYLE
105
D9
330
A
100
AcDbSymbolTableRecord
100
AcDbDimStyleTableRecord
  2
Default - Fraction (ANSI)
 70
     0
 41
0.0984251946210861
 43
0.2362204724409449
 44
0.125
 45
0.00000001
 46
0.3937007874015748
 79
     3
140
0.0899999961256981
146
1.333333492279052
147
0.031496062992126
171
     1
176
   256
177
   256
178
     5
272
     2
274
     1
276
     2
277
     5
284
    12
285
     4
286
    12
340
D6
371
    -1
372
    -1
  0
DIMSTYLE
105
DA
330
A
100
AcDbSymbolTableRecord
100
AcDbDimStyleTableRecord
  2
Default - Fraction (ANSI)$7
 70
     0
 41
0.0984251946210861
 43
0.2362204724409449
 44
0.125
 45
0.00000001
 46
0.3937007874015748
 79
     3
140
0.0899999961256981
146
1.333333492279052
147
0.031496062992126
171
     1
176
     5
177
   256
178
     5
272
     2
274
     1
276
     2
277
     5
284
    12
285
     4
286
    12
340
D6
371
    -1
372
    -1
  0
DIMSTYLE
105
DB
330
A
100
AcDbSymbolTableRecord
100
AcDbDimStyleTableRecord
  2
Default - mm (ANSI)
 70
     0
 41
0.0984251946210861
 42
0.063
 43
0.2362204724409449
 44
0.125
 45
0.00000001
 46
0.3937007874015748
 73
     0
 78
     4
 79
     1
140
0.0899999961256981
143
1.0
144
25.4
146
1.333333492279052
147
0.031496062992126
171
     1
176
   256
177
   256
178
     5
179
     1
271
     2
272
     2
274
     1
284
     4
285
     4
340
D6
371
    -1
372
    -1
  0
DIMSTYLE
105
DC
330
A
100
AcDbSymbolTableRecord
100
AcDbDimStyleTableRecord
  2
Default - mm (ANSI)$7
 70
     0
 41
0.0984251946210861
 42
0.063
 43
0.2362204724409449
 44
0.125
 45
0.00000001
 46
0.3937007874015748
 73
     0
 78
     4
 79
     1
140
0.0899999961256981
143
1.0
144
25.4
146
1.333333492279052
147
0.031496062992126
171
     1
176
     5
177
   256
178
     5
179
     1
271
     2
272
     2
274
     1
284
     4
285
     4
340
D6
371
    -1
372
    -1
  0
DIMSTYLE
105
DD
330
A
100
AcDbSymbolTableRecord
100
AcDbDimStyleTableRecord
  2
Default - mm [in] (ANSI)
 70
     0
  4
 in
 41
0.0984251946210861
 42
0.063
 43
0.25
 44
0.125
 45
0.00000001
 46
0.3937007874015748
 73
     0
 78
     4
 79
     1
140
0.0899999961256981
143
0.03937
144
25.4
146
1.333333492279052
147
0.031496062992126
170
     1
171
     3
176
   256
177
   256
178
     5
179
     1
271
     2
272
     2
274
     3
284
     4
285
     4
286
     4
340
D6
371
    -1
372
    -1
  0
DIMSTYLE
105
DE
330
A
100
AcDbSymbolTableRecord
100
AcDbDimStyleTableRecord
  2
Default - mm [in] (ANSI)$7
 70
     0
  4
 in
 41
0.0984251946210861
 42
0.063
 43
0.25
 44
0.125
 45
0.00000001
 46
0.3937007874015748
 73
     0
 78
     4
 79
     1
140
0.0899999961256981
143
0.03937
144
25.4
146
1.333333492279052
147
0.031496062992126
170
     1
171
     3
176
     5
177
   256
178
     5
179
     1
271
     2
272
     2
274
     3
284
     4
285
     4
286
     4
340
D6
371
    -1
372
    -1
  0
DIMSTYLE
105
DF
330
A
100
AcDbSymbolTableRecord
100
AcDbDimStyleTableRecord
  2
Default (ANSI)
 70
     0
 41
0.0984251946210861
 43
0.2362204724409449
 44
0.125
 45
0.00000001
 46
0.3937007874015748
 78
     4
 79
     1
140
0.0899999961256981
146
1.333333492279052
147
0.031496062992126
171
     1
176
   256
177
   256
178
     5
271
     2
272
     2
274
     1
284
     4
285
     4
340
D6
371
    -1
372
    -1
  0
DIMSTYLE
105
E0
330
A
100
AcDbSymbolTableRecord
100
AcDbDimStyleTableRecord
  2
Default (ANSI)$7
 70
     0
 41
0.0984251946210861
 43
0.2362204724409449
 44
0.125
 45
0.00000001
 46
0.3937007874015748
 78
     4
 79
     1
140
0.0899999961256981
146
1.333333492279052
147
0.031496062992126
171
     1
176
     5
177
   256
178
     5
271
     2
272
     2
274
     1
284
     4
285
     4
340
D6
371
    -1
372
    -1
  0
DIMSTYLE
105
E1
330
A
100
AcDbSymbolTableRecord
100
AcDbDimStyleTableRecord
  2
SST-STANDARD DIMENSIONS - DECIMAL
 70
     0
 41
0.0984251946210861
 43
0.2362204724409449
 44
0.062
 45
0.00000001
 46
0.3937007874015748
140
0.0899999961256981
147
0.031496062992126
171
     1
176
     5
177
     5
178
     5
179
     1
271
     3
272
     3
274
     1
286
    12
340
D6
371
     9
372
     9
  0
DIMSTYLE
105
E2
330
A
100
AcDbSymbolTableRecord
100
AcDbDimStyleTableRecord
  2
SST-STANDARD DIMENSIONS - DECIMAL$7
 70
     0
 41
0.0984251946210861
 43
0.2362204724409449
 44
0.062
 45
0.00000001
 46
0.3937007874015748
140
0.0899999961256981
147
0.031496062992126
171
     1
176
     5
177
     5
178
     5
179
     1
271
     3
272
     3
274
     1
286
    12
340
D6
371
    -1
372
     9
  0
DIMSTYLE
105
E3
330
A
100
AcDbSymbolTableRecord
100
AcDbDimStyleTableRecord
  2
Alternate (ANSI)
 70
     0
 41
0.0979999974370003
340
55
342
E4
  0
DIMSTYLE
105
F6
330
A
100
AcDbSymbolTableRecord
100
AcDbDimStyleTableRecord
  2
Datum (ANSI)
 70
     0
 41
0.0979999974370003
340
55
342
E4
  0
DIMSTYLE
105
105
330
A
100
AcDbSymbolTableRecord
100
AcDbDimStyleTableRecord
  2
Large (ANSI)
 70
     0
 41
0.1959999948740005
340
55
342
E4
  0
ENDTAB
  0
TABLE
  2
BLOCK_RECORD
  5
1
330
0
100
AcDbSymbolTable
 70
     5
  0
BLOCK_RECORD
  5
6C
330
1
100
AcDbSymbolTableRecord
100
AcDbBlockTableRecord
  2
*Model_Space
340
6F
  0
BLOCK_RECORD
  5
68
330
1
100
AcDbSymbolTableRecord
100
AcDbBlockTableRecord
  2
*Paper_Space
340
6B
  0
BLOCK_RECORD
  5
70
330
1
100
AcDbSymbolTableRecord
100
AcDbBlockTableRecord
  2
*Paper_Space0
340
73
  0
BLOCK_RECORD
  5
E4
330
1
100
AcDbSymbolTableRecord
100
AcDbBlockTableRecord
  2
_Closed
340
0
  0
BLOCK_RECORD
  5
EB
330
1
100
AcDbSymbolTableRecord
100
AcDbBlockTableRecord
  2
DatumFilled45
340
0
  0
BLOCK_RECORD
  5
F7
330
1
100
AcDbSymbolTableRecord
100
AcDbBlockTableRecord
  2
Filled-1
340
0
  0
BLOCK_RECORD
  5
106
330
1
100
AcDbSymbolTableRecord
100
AcDbBlockTableRecord
  2
Borders SST-LAND
340
0
102
{BLKREFS
331
10D
102
}
  0
ENDTAB
  0
ENDSEC
  0
SECTION
  2
BLOCKS
  0
BLOCK
  5
6D
330
6C
100
AcDbEntity
  8
0
100
AcDbBlockBegin
  2
*Model_Space
 70
     0
 10
0.0
 20
0.0
 30
0.0
  3
*Model_Space
  1

  0
ENDBLK
  5
6E
330
6C
100
AcDbEntity
  8
0
100
AcDbBlockEnd
  0
BLOCK
  5
69
330
68
100
AcDbEntity
 67
     1
  8
0
100
AcDbBlockBegin
  2
*Paper_Space
 70
     0
 10
0.0
 20
0.0
 30
0.0
  3
*Paper_Space
  1

  0
ENDBLK
  5
6A
330
68
100
AcDbEntity
 67
     1
  8
0
100
AcDbBlockEnd
  0
BLOCK
  5
71
330
70
100
AcDbEntity
 67
     1
  8
0
100
AcDbBlockBegin
  2
*Paper_Space0
 70
     0
 10
0.0
 20
0.0
 30
0.0
  3
*Paper_Space0
  1

  0
ENDBLK
  5
72
330
70
100
AcDbEntity
 67
     1
  8
0
100
AcDbBlockEnd
  0
BLOCK
  5
E9
330
E4
100
AcDbEntity
  8
0
100
AcDbBlockBegin
  2
_Closed
 70
     0
 10
0.0
 20
0.0
 30
0.0
  3
_Closed
  1

  0
LINE
  5
E5
330
E4
100
AcDbEntity
  8
0
  6
ByBlock
 62
     0
370
    -2
100
AcDbLine
 10
-1.0
 20
0.1666666666666666
 30
0.0
 11
0.0
 21
0.0
 31
0.0
  0
LINE
  5
E6
330
E4
100
AcDbEntity
  8
0
  6
ByBlock
 62
     0
370
    -2
100
AcDbLine
 10
0.0
 20
0.0
 30
0.0
 11
-1.0
 21
-0.1666666666666666
 31
0.0
  0
LINE
  5
E7
330
E4
100
AcDbEntity
  8
0
  6
ByBlock
 62
     0
370
    -2
100
AcDbLine
 10
-1.0
 20
0.1666666666666666
 30
0.0
 11
-1.0
 21
-0.1666666666666666
 31
0.0
  0
LINE
  5
E8
330
E4
100
AcDbEntity
  8
0
  6
ByBlock
 62
     0
370
    -2
100
AcDbLine
 10
0.0
 20
0.0
 30
0.0
 11
-1.0
 21
0.0
 31
0.0
  0
ENDBLK
  5
EA
330
E4
100
AcDbEntity
  8
0
100
AcDbBlockEnd
  0
BLOCK
  5
EC
330
EB
100
AcDbEntity
  8
0
100
AcDbBlockBegin
  2
DatumFilled45
 70
     0
 10
0.0
 20
0.0
 30
0.0
  3
DatumFilled45
  1

  0
POLYLINE
  5
EE
330
EB
100
AcDbEntity
  8
0
 62
     0
100
AcDb2dPolyline
 66
     1
 10
0.0
 20
0.0
 30
0.0
 70
   128
  0
VERTEX
  5
EF
330
EE
100
AcDbEntity
  8
0
 62
     0
100
AcDbVertex
100
AcDb2dVertex
 10
0.0
 20
0.9999999999999998
 30
0.0
  0
VERTEX
  5
F0
330
EE
100
AcDbEntity
  8
0
 62
     0
100
AcDbVertex
100
AcDb2dVertex
 10
0.0
 20
-0.9999999999999998
 30
0.0
  0
VERTEX
  5
F2
330
EE
100
AcDbEntity
  8
0
 62
     0
100
AcDbVertex
100
AcDb2dVertex
 10
-0.9999999999999998
 20
0.0
 30
0.0
  0
VERTEX
  5
F3
330
EE
100
AcDbEntity
  8
0
 62
     0
100
AcDbVertex
100
AcDb2dVertex
 10
0.0
 20
0.9999999999999998
 30
0.0
  0
SEQEND
  5
F1
330
EE
100
AcDbEntity
  8
0
 62
     0
  0
SOLID
  5
F5
330
EB
100
AcDbEntity
  8
0
 62
     0
100
AcDbTrace
 10
0.0
 20
0.9999999999999998
 30
0.0
 11
0.0
 21
-0.9999999999999998
 31
0.0
 12
-0.9999999999999998
 22
0.0
 32
0.0
 13
0.0
 23
0.9999999999999998
 33
0.0
  0
ENDBLK
  5
ED
330
EB
100
AcDbEntity
  8
0
100
AcDbBlockEnd
  0
BLOCK
  5
F8
330
F7
100
AcDbEntity
  8
0
100
AcDbBlockBegin
  2
Filled-1
 70
     0
 10
0.0
 20
0.0
 30
0.0
  3
Filled-1
  1

  0
LINE
  5
FA
330
F7
100
AcDbEntity
  8
0
 62
     0
100
AcDbLine
 10
-0.9999999999999998
 20
0.0
 30
0.0
 11
0.0
 21
0.0
 31
0.0
  0
POLYLINE
  5
FB
330
F7
100
AcDbEntity
  8
0
 62
     0
100
AcDb2dPolyline
 66
     1
 10
0.0
 20
0.0
 30
0.0
 70
   128
  0
VERTEX
  5
FC
330
FB
100
AcDbEntity
  8
0
 62
     0
100
AcDbVertex
100
AcDb2dVertex
 10
-0.9999999999999998
 20
-0.0994897959183674
 30
0.0
  0
VERTEX
  5
FD
330
FB
100
AcDbEntity
  8
0
 62
     0
100
AcDbVertex
100
AcDb2dVertex
 10
0.0
 20
0.0
 30
0.0
  0
VERTEX
  5
FF
330
FB
100
AcDbEntity
  8
0
 62
     0
100
AcDbVertex
100
AcDb2dVertex
 10
-0.9999999999999998
 20
0.0994897959183674
 30
0.0
  0
VERTEX
  5
100
330
FB
100
AcDbEntity
  8
0
 62
     0
100
AcDbVertex
100
AcDb2dVertex
 10
-0.9999999999999998
 20
-0.0994897959183674
 30
0.0
  0
SEQEND
  5
FE
330
FB
100
AcDbEntity
  8
0
 62
     0
  0
SOLID
  5
101
330
F7
100
AcDbEntity
  8
0
 62
     0
100
AcDbTrace
 10
-0.9999999999999998
 20
-0.0994897959183674
 30
0.0
 11
0.0
 21
0.0
 31
0.0
 12
-0.9999999999999998
 22
0.0994897959183674
 32
0.0
 13
-0.9999999999999998
 23
-0.0994897959183674
 33
0.0
  0
LINE
  5
102
330
F7
100
AcDbEntity
  8
0
 62
     0
100
AcDbLine
 10
-0.9999999999999998
 20
-0.0994897959183674
 30
0.0
 11
0.0
 21
0.0
 31
0.0
  0
LINE
  5
103
330
F7
100
AcDbEntity
  8
0
 62
     0
100
AcDbLine
 10
0.0
 20
0.0
 30
0.0
 11
-0.9999999999999998
 21
0.0994897959183674
 31
0.0
  0
LINE
  5
104
330
F7
100
AcDbEntity
  8
0
 62
     0
100
AcDbLine
 10
-0.9999999999999998
 20
0.0994897959183674
 30
0.0
 11
-0.9999999999999998
 21
-0.0994897959183674
 31
0.0
  0
ENDBLK
  5
F9
330
F7
100
AcDbEntity
  8
0
100
AcDbBlockEnd
  0
BLOCK
  5
107
330
106
100
AcDbEntity
  8
0
100
AcDbBlockBegin
  2
Borders SST-LAND
 70
     0
 10
0.0
 20
0.0
 30
0.0
  3
Borders SST-LAND
  1

  0
LINE
  5
109
330
106
100
AcDbEntity
  8
Border (ANSI)
 62
     7
370
    50
100
AcDbLine
 10
0.4999999999999999
 20
16.49999999999999
 30
0.0
 11
0.500000000000005
 21
0.4999999999999984
 31
0.0
  0
LINE
  5
10A
330
106
100
AcDbEntity
  8
Border (ANSI)
 62
     7
370
    50
100
AcDbLine
 10
21.5
 20
16.49999999999999
 30
0.0
 11
0.4999999999999984
 21
16.49999999999999
 31
0.0
  0
LINE
  5
10B
330
106
100
AcDbEntity
  8
Border (ANSI)
 62
     7
370
    50
100
AcDbLine
 10
21.5
 20
0.4999999999999999
 30
0.0
 11
21.5
 21
16.49999999999999
 31
0.0
  0
LINE
  5
10C
330
106
100
AcDbEntity
  8
Border (ANSI)
 62
     7
370
    50
100
AcDbLine
 10
0.500000000000005
 20
0.4999999999999999
 30
0.0
 11
21.5
 21
0.4999999999999999
 31
0.0
  0
ENDBLK
  5
108
330
106
100
AcDbEntity
  8
0
100
AcDbBlockEnd
  0
ENDSEC
  0
SECTION
  2
ENTITIES
  0
INSERT
  5
10D
330
6C
100
AcDbEntity
  8
0
100
AcDbBlockReference
  2
Borders SST-LAND
 10
0.0
 20
0.0
 30
0.0
  0
LINE
  5
10E
330
6C
100
AcDbEntity
  8
Visible (ANSI)
100
AcDbLine
 10
16.02615165330337
 20
4.039655170732303
 30
0.0
 11
16.18240165330337
 21
4.039655170732303
 31
0.0
  0
LINE
  5
10F
330
6C
100
AcDbEntity
  8
Visible (ANSI)
100
AcDbLine
 10
16.18240165330337
 20
13.03965517073228
 30
0.0
 11
16.02615165330337
 21
13.03965517073229
 31
0.0
  0
LINE
  5
110
330
6C
100
AcDbEntity
  8
Visible (ANSI)
100
AcDbLine
 10
15.80179311956284
 20
13.03965517073228
 30
0.0
 11
16.02615165330337
 21
13.03965517073229
 31
0.0
  0
LINE
  5
113
330
6C
100
AcDbEntity
  8
Visible (ANSI)
100
AcDbLine
 10
6.826434585822282
 20
13.03965517073228
 30
0.0
 11
7.050793119562822
 21
13.03965517073228
 31
0.0
  0
LINE
  5
114
330
6C
100
AcDbEntity
  8
Visible (ANSI)
100
AcDbLine
 10
7.050793119562822
 20
4.03965517073229
 30
0.0
 11
6.826434585822283
 21
4.03965517073229
 31
0.0
  0
LINE
  5
117
330
6C
100
AcDbEntity
  8
Visible (ANSI)
100
AcDbLine
 10
16.02615165330337
 20
4.039655170732306
 30
0.0
 11
15.80179311956284
 21
4.03965517073229
 31
0.0
  0
LINE
  5
118
330
6C
100
AcDbEntity
  8
Visible (ANSI)
100
AcDbLine
 10
7.051293119562823
 20
13.03265517073229
 30
0.0
 11
15.80129311956283
 21
13.03265517073229
 31
0.0
  0
LINE
  5
119
330
6C
100
AcDbEntity
  8
Visible (ANSI)
100
AcDbLine
 10
15.80129311956283
 20
13.13515517073229
 30
0.0
 11
15.80129311956283
 21
13.03265517073229
 31
0.0
  0
LINE
  5
11A
330
6C
100
AcDbEntity
  8
Visible (ANSI)
100
AcDbLine
 10
15.80129311956283
 20
13.13515517073229
 30
0.0
 11
7.051293119562823
 21
13.13515517073229
 31
0.0
  0
LINE
  5
11B
330
6C
100
AcDbEntity
  8
Visible (ANSI)
100
AcDbLine
 10
7.051293119562823
 20
13.13515517073229
 30
0.0
 11
7.051293119562823
 21
13.03265517073229
 31
0.0
  0
LINE
  5
11C
330
6C
100
AcDbEntity
  8
Visible (ANSI)
100
AcDbLine
 10
15.80129311956283
 20
4.046655170732289
 30
0.0
 11
7.05129311956283
 21
4.046655170732289
 31
0.0
  0
LINE
  5
11D
330
6C
100
AcDbEntity
  8
Visible (ANSI)
100
AcDbLine
 10
7.05129311956283
 20
3.944155170732289
 30
0.0
 11
7.05129311956283
 21
4.046655170732289
 31
0.0
  0
LINE
  5
11E
330
6C
100
AcDbEntity
  8
Visible (ANSI)
100
AcDbLine
 10
7.05129311956283
 20
3.944155170732289
 30
0.0
 11
15.80129311956283
 21
3.944155170732288
 31
0.0
  0
LINE
  5
11F
330
6C
100
AcDbEntity
  8
Visible (ANSI)
100
AcDbLine
 10
15.80129311956283
 20
3.944155170732288
 30
0.0
 11
15.80129311956283
 21
4.046655170732289
 31
0.0
  0
LINE
  5
120
330
6C
100
AcDbEntity
  8
Visible (ANSI)
100
AcDbLine
 10
6.567684585822282
 20
4.039655170732304
 30
0.0
 11
6.670184585822282
 21
4.039655170732304
 31
0.0
  0
LINE
  5
121
330
6C
100
AcDbEntity
  8
Visible (ANSI)
100
AcDbLine
 10
6.670184585822278
 20
12.85265517073228
 30
0.0
 11
6.67018458582228
 21
13.03965517073228
 31
0.0
  0
LINE
  5
122
330
6C
100
AcDbEntity
  8
Visible (ANSI)
100
AcDbLine
 10
6.567684585822279
 20
13.03965517073228
 30
0.0
 11
6.67018458582228
 21
13.03965517073228
 31
0.0
  0
LINE
  5
123
330
6C
100
AcDbEntity
  8
Visible (ANSI)
100
AcDbLine
 10
6.567684585822279
 20
13.03965517073228
 30
0.0
 11
6.567684585822279
 21
12.85265517073228
 31
0.0
  0
LINE
  5
124
330
6C
100
AcDbEntity
  8
Visible (ANSI)
100
AcDbLine
 10
6.567684585822279
 20
12.85265517073228
 30
0.0
 11
6.670184585822278
 21
12.85265517073228
 31
0.0
  0
LINE
  5
125
330
6C
100
AcDbEntity
  8
Visible (ANSI)
100
AcDbLine
 10
6.67018458582228
 20
4.226655170732305
 30
0.0
 11
6.670184585822278
 21
12.85265517073228
 31
0.0
  0
LINE
  5
126
330
6C
100
AcDbEntity
  8
Visible (ANSI)
100
AcDbLine
 10
6.567684585822279
 20
12.85265517073228
 30
0.0
 11
6.567684585822282
 21
4.226655170732305
 31
0.0
  0
LINE
  5
127
330
6C
100
AcDbEntity
  8
Visible (ANSI)
100
AcDbLine
 10
6.567684585822282
 20
4.226655170732305
 30
0.0
 11
6.67018458582228
 21
4.226655170732305
 31
0.0
  0
LINE
  5
128
330
6C
100
AcDbEntity
  8
Visible (ANSI)
100
AcDbLine
 10
6.670184585822282
 20
4.039655170732304
 30
0.0
 11
6.67018458582228
 21
4.226655170732305
 31
0.0
  0
LINE
  5
129
330
6C
100
AcDbEntity
  8
Visible (ANSI)
100
AcDbLine
 10
6.567684585822282
 20
4.226655170732305
 30
0.0
 11
6.567684585822282
 21
4.039655170732304
 31
0.0
  0
LINE
  5
12A
330
6C
100
AcDbEntity
  8
Visible (ANSI)
100
AcDbLine
 10
16.18240165330337
 20
4.226655170732257
 30
0.0
 11
16.18240165330337
 21
4.039655170732258
 31
0.0
  0
LINE
  5
12B
330
6C
100
AcDbEntity
  8
Visible (ANSI)
100
AcDbLine
 10
16.28490165330337
 20
4.039655170732258
 30
0.0
 11
16.18240165330337
 21
4.039655170732258
 31
0.0
  0
LINE
  5
12C
330
6C
100
AcDbEntity
  8
Visible (ANSI)
100
AcDbLine
 10
16.28490165330337
 20
4.039655170732258
 30
0.0
 11
16.28490165330337
 21
4.226655170732257
 31
0.0
  0
LINE
  5
12D
330
6C
100
AcDbEntity
  8
Visible (ANSI)
100
AcDbLine
 10
16.28490165330337
 20
4.226655170732257
 30
0.0
 11
16.18240165330337
 21
4.226655170732257
 31
0.0
  0
LINE
  5
12E
330
6C
100
AcDbEntity
  8
Visible (ANSI)
100
AcDbLine
 10
16.18240165330337
 20
12.85265517073228
 30
0.0
 11
16.18240165330337
 21
4.226655170732257
 31
0.0
  0
LINE
  5
12F
330
6C
100
AcDbEntity
  8
Visible (ANSI)
100
AcDbLine
 10
16.28490165330337
 20
4.226655170732257
 30
0.0
 11
16.28490165330337
 21
12.85265517073228
 31
0.0
  0
LINE
  5
130
330
6C
100
AcDbEntity
  8
Visible (ANSI)
100
AcDbLine
 10
16.28490165330337
 20
12.85265517073228
 30
0.0
 11
16.18240165330337
 21
12.85265517073228
 31
0.0
  0
LINE
  5
131
330
6C
100
AcDbEntity
  8
Visible (ANSI)
100
AcDbLine
 10
16.18240165330337
 20
13.03965517073228
 30
0.0
 11
16.18240165330337
 21
12.85265517073228
 31
0.0
  0
LINE
  5
132
330
6C
100
AcDbEntity
  8
Visible (ANSI)
100
AcDbLine
 10
16.28490165330337
 20
12.85265517073228
 30
0.0
 11
16.28490165330337
 21
13.03965517073228
 31
0.0
  0
LINE
  5
133
330
6C
100
AcDbEntity
  8
Visible (ANSI)
100
AcDbLine
 10
16.28490165330337
 20
13.03965517073228
 30
0.0
 11
16.18240165330337
 21
13.03965517073228
 31
0.0
  0
LINE
  5
13C
330
6C
100
AcDbEntity
  8
Visible (ANSI)
100
AcDbLine
 10
6.826434585822281
 20
13.03965517073228
 30
0.0
 11
6.670184585822282
 21
13.03965517073228
 31
0.0
  0
LINE
  5
13D
330
6C
100
AcDbEntity
  8
Visible (ANSI)
100
AcDbLine
 10
6.670184585822285
 20
4.039655170732299
 30
0.0
 11
6.826434585822283
 21
4.03965517073229
 31
0.0
  0
SPLINE
  5
142
330
6C
100
AcDbEntity
  8
Visible (ANSI)
100
AcDbSpline
210
0.0
220
0.0
230
1.0
 70
     8
 71
     3
 72
    10
 73
     6
 74
     0
 42
0.0000000001
 43
0.0000000001
 40
0.0
 40
0.0
 40
0.0
 40
0.0
 40
0.0941668376053523
 40
0.0941668376053523
 40
0.1883314096296751
 40
0.1883314096296751
 40
0.1883314096296751
 40
0.1883314096296751
 10
8.953432497852993
 20
4.204540120295588
 30
0.0
 10
8.941187685956505
 20
4.204540120295588
 30
0.0
 10
8.929045601892054
 20
4.206135633314513
 30
0.0
 10
8.905344579321823
 20
4.212486844835978
 30
0.0
 10
8.894035599290996
 20
4.217174860296291
 30
0.0
 10
8.883432497852993
 20
4.223296563765767
 30
0.0
  0
LINE
  5
143
330
6C
100
AcDbEntity
  8
Visible (ANSI)
100
AcDbLine
 10
8.953432497852993
 20
4.243740120295586
 30
0.0
 11
8.953432497852993
 21
4.204540120295588
 31
0.0
  0
LINE
  5
144
330
6C
100
AcDbEntity
  8
Visible (ANSI)
100
AcDbLine
 10
8.953432497852993
 20
4.274540120295587
 30
0.0
 11
8.953432497852993
 21
4.243740120295586
 31
0.0
  0
SPLINE
  5
145
330
6C
100
AcDbEntity
  8
Visible (ANSI)
100
AcDbSpline
210
0.0
220
0.0
230
1.0
 70
     8
 71
     3
 72
    12
 73
     8
 74
     0
 42
0.0000000001
 43
0.0000000001
 40
0.0
 40
0.0
 40
0.0
 40
0.0
 40
0.0240013933946242
 40
0.0240013933946242
 40
0.0595864904019255
 40
0.0595864904019255
 40
0.0871237424083781
 40
0.0871237424083781
 40
0.0871237424083781
 40
0.0871237424083781
 10
8.918432497852995
 20
4.283918342030677
 30
0.0
 10
8.921060750118904
 20
4.282400919877455
 30
0.0
 10
8.923775426827207
 20
4.281058024616361
 30
0.0
 10
8.930850869123791
 20
4.278124812861109
 30
0.0
 10
8.935267561471954
 20
4.276781235044542
 30
0.0
 10
8.943284198591785
 20
4.275187931526417
 30
0.0
 10
8.947878125092397
 20
4.274540120295587
 30
0.0
 10
8.953432497852993
 20
4.274540120295587
 30
0.0
  0
LINE
  5
146
330
6C
100
AcDbEntity
  8
Visible (ANSI)
100
AcDbLine
 10
8.903085618052344
 20
4.257336766478297
 30
0.0
 11
8.918432497852995
 21
4.283918342030677
 31
0.0
  0
LINE
  5
147
330
6C
100
AcDbEntity
  8
Visible (ANSI)
100
AcDbLine
 10
8.883432497852995
 20
4.223296563765767
 30
0.0
 11
8.903085618052344
 21
4.257336766478297
 31
0.0
  0
LINE
  5
148
330
6C
100
AcDbEntity
  8
Visible (ANSI)
100
AcDbLine
 10
9.029044993009671
 20
4.274540120295588
 30
0.0
 11
8.953432497852995
 21
4.274540120295588
 31
0.0
  0
LINE
  5
149
330
6C
100
AcDbEntity
  8
Visible (ANSI)
100
AcDbLine
 10
13.89915374127266
 20
4.274540120295588
 30
0.0
 11
13.82354024611598
 21
4.274540120295588
 31
0.0
  0
LINE
  5
14A
330
6C
100
AcDbEntity
  8
Visible (ANSI)
100
AcDbLine
 10
9.029044993009671
 20
4.204540120295588
 30
0.0
 11
8.953432497852995
 21
4.204540120295588
 31
0.0
  0
LINE
  5
14B
330
6C
100
AcDbEntity
  8
Visible (ANSI)
100
AcDbLine
 10
13.89915374127266
 20
4.204540120295588
 30
0.0
 11
13.82354024611598
 21
4.204540120295588
 31
0.0
  0
ARC
  5
14C
330
6C
100
AcDbEntity
  8
Visible (ANSI)
100
AcDbCircle
 10
13.92529267384191
 20
4.287655170732301
 30
0.0
 40
0.1404999999999997
100
AcDbArc
 50
31.30361043758594
 51
159.6389019071425
  0
ARC
  5
14D
330
6C
100
AcDbEntity
  8
Visible (ANSI)
100
AcDbCircle
 10
8.927292565283742
 20
4.287655170732302
 30
0.0
 40
0.1404999999999991
100
AcDbArc
 50
20.36109809285594
 51
148.6963895624145
  0
LINE
  5
14E
330
6C
100
AcDbEntity
  8
Visible (ANSI)
100
AcDbLine
 10
14.04533953969021
 20
4.360655170732303
 30
0.0
 11
15.16066811956282
 21
4.360655170732303
 31
0.0
  0
LINE
  5
14F
330
6C
100
AcDbEntity
  8
Visible (ANSI)
100
AcDbLine
 10
15.16066811956282
 20
4.360655170732303
 30
0.0
 11
15.78566811956281
 21
4.9856551707323
 31
0.0
  0
LINE
  5
150
330
6C
100
AcDbEntity
  8
Visible (ANSI)
100
AcDbLine
 10
15.78566811956281
 20
4.9856551707323
 30
0.0
 11
15.78566811956281
 21
5.916399418665692
 31
0.0
  0
ARC
  5
151
330
6C
100
AcDbEntity
  8
Visible (ANSI)
100
AcDbCircle
 10
15.85029311956281
 20
6.041154616453196
 30
0.0
 40
0.1404999999999997
100
AcDbArc
 50
92.40057967077978
 51
242.6151888495341
  0
ARC
  5
152
330
6C
100
AcDbEntity
  8
Visible (ANSI)
100
AcDbCircle
 10
15.85029311956281
 20
11.03815572501138
 30
0.0
 40
0.1404999999999994
100
AcDbArc
 50
117.3848111504647
 51
267.5994203292213
  0
LINE
  5
153
330
6C
100
AcDbEntity
  8
Visible (ANSI)
100
AcDbLine
 10
15.78566811956281
 20
11.16291092279888
 30
0.0
 11
15.78566811956281
 21
12.09365517073228
 31
0.0
  0
LINE
  5
154
330
6C
100
AcDbEntity
  8
Visible (ANSI)
100
AcDbLine
 10
15.78566811956281
 20
12.09365517073228
 30
0.0
 11
15.16066811956282
 21
12.71865517073227
 31
0.0
  0
LINE
  5
155
330
6C
100
AcDbEntity
  8
Visible (ANSI)
100
AcDbLine
 10
15.16066811956282
 20
12.71865517073227
 30
0.0
 11
14.04533953969021
 21
12.71865517073227
 31
0.0
  0
ARC
  5
156
330
6C
100
AcDbEntity
  8
Visible (ANSI)
100
AcDbCircle
 10
13.92529267384191
 20
12.79165517073227
 30
0.0
 40
0.1404999999999995
100
AcDbArc
 50
200.361098092857
 51
328.6963895624134
  0
ARC
  5
157
330
6C
100
AcDbEntity
  8
Visible (ANSI)
100
AcDbCircle
 10
8.927292565283742
 20
12.79165517073227
 30
0.0
 40
0.1404999999999993
100
AcDbArc
 50
211.3036104375843
 51
339.6389019071443
  0
LINE
  5
158
330
6C
100
AcDbEntity
  8
Visible (ANSI)
100
AcDbLine
 10
8.807245699435444
 20
12.71865517073228
 30
0.0
 11
7.691918119562843
 21
12.71865517073228
 31
0.0
  0
LINE
  5
159
330
6C
100
AcDbEntity
  8
Visible (ANSI)
100
AcDbLine
 10
7.691918119562843
 20
12.71865517073228
 30
0.0
 11
7.066918119562844
 21
12.09365517073227
 31
0.0
  0
LINE
  5
15A
330
6C
100
AcDbEntity
  8
Visible (ANSI)
100
AcDbLine
 10
7.066918119562844
 20
12.09365517073227
 30
0.0
 11
7.066918119562844
 21
11.16291092279888
 31
0.0
  0
ARC
  5
15B
330
6C
100
AcDbEntity
  8
Visible (ANSI)
100
AcDbCircle
 10
7.002293119562844
 20
11.03815572501138
 30
0.0
 40
0.1404999999999993
100
AcDbArc
 50
272.4005796707792
 51
62.61518884953567
  0
ARC
  5
15C
330
6C
100
AcDbEntity
  8
Visible (ANSI)
100
AcDbCircle
 10
7.002293119562844
 20
6.0411546164532
 30
0.0
 40
0.1404999999999992
100
AcDbArc
 50
297.3848111504647
 51
87.5994203292225
  0
LINE
  5
15D
330
6C
100
AcDbEntity
  8
Visible (ANSI)
100
AcDbLine
 10
7.066918119562844
 20
5.916399418665693
 30
0.0
 11
7.066918119562844
 21
4.985655170732303
 31
0.0
  0
LINE
  5
15E
330
6C
100
AcDbEntity
  8
Visible (ANSI)
100
AcDbLine
 10
7.066918119562844
 20
4.985655170732303
 30
0.0
 11
7.691918119562843
 21
4.360655170732303
 31
0.0
  0
LINE
  5
15F
330
6C
100
AcDbEntity
  8
Visible (ANSI)
100
AcDbLine
 10
7.691918119562843
 20
4.360655170732303
 30
0.0
 11
8.807245699435442
 21
4.360655170732303
 31
0.0
  0
LINE
  5
160
330
6C
100
AcDbEntity
  8
Visible (ANSI)
100
AcDbLine
 10
8.951338102750602
 20
12.80477022116899
 30
0.0
 11
9.029044993009671
 21
12.80477022116899
 31
0.0
  0
LINE
  5
161
330
6C
100
AcDbEntity
  8
Visible (ANSI)
100
AcDbLine
 10
8.951338102750602
 20
12.87477022116899
 30
0.0
 11
9.029044993009671
 21
12.87477022116899
 31
0.0
  0
LINE
  5
162
330
6C
100
AcDbEntity
  8
Visible (ANSI)
100
AcDbLine
 10
13.82354024611598
 20
12.80477022116899
 30
0.0
 11
13.90124813637505
 21
12.80477022116899
 31
0.0
  0
LINE
  5
163
330
6C
100
AcDbEntity
  8
Visible (ANSI)
100
AcDbLine
 10
13.82354024611598
 20
12.87477022116898
 30
0.0
 11
13.90124813637505
 21
12.87477022116898
 31
0.0
  0
LINE
  5
164
330
6C
100
AcDbEntity
  8
Visible (ANSI)
100
AcDbLine
 10
15.86034958003233
 20
6.036951349008544
 30
0.0
 11
15.84511287313159
 21
6.031405641228437
 31
0.0
  0
LINE
  5
165
330
6C
100
AcDbEntity
  8
Visible (ANSI)
100
AcDbLine
 10
15.86905428316439
 20
5.965627157773425
 30
0.0
 11
15.84511287313159
 21
6.031405641228438
 31
0.0
  0
LINE
  5
166
330
6C
100
AcDbEntity
  8
Visible (ANSI)
100
AcDbLine
 10
15.88429099006512
 20
5.971172865553531
 30
0.0
 11
15.86905428316439
 21
5.965627157773425
 31
0.0
  0
LINE
  5
167
330
6C
100
AcDbEntity
  8
Visible (ANSI)
100
AcDbLine
 10
15.84511287313159
 20
6.031405641228438
 30
0.0
 11
15.72097631270833
 21
5.986223628250182
 31
0.0
  0
LINE
  5
168
330
6C
100
AcDbEntity
  8
Visible (ANSI)
100
AcDbLine
 10
15.86905428316439
 20
5.965627157773425
 30
0.0
 11
15.76656849111523
 21
5.928325380032336
 31
0.0
  0
LINE
  5
169
330
6C
100
AcDbEntity
  8
Visible (ANSI)
100
AcDbLine
 10
15.72097631270833
 20
11.09308671321439
 30
0.0
 11
15.8451128731316
 21
11.04790470023614
 31
0.0
  0
LINE
  5
16A
330
6C
100
AcDbEntity
  8
Visible (ANSI)
100
AcDbLine
 10
15.86905428316439
 20
11.11368318369115
 30
0.0
 11
15.8451128731316
 21
11.04790470023614
 31
0.0
  0
LINE
  5
16B
330
6C
100
AcDbEntity
  8
Visible (ANSI)
100
AcDbLine
 10
15.76656849111524
 20
11.15098496143224
 30
0.0
 11
15.86905428316439
 21
11.11368318369115
 31
0.0
  0
LINE
  5
16C
330
6C
100
AcDbEntity
  8
Visible (ANSI)
100
AcDbLine
 10
15.8690542831644
 20
11.11368318369115
 30
0.0
 11
15.88429099006512
 21
11.10813747591105
 31
0.0
  0
LINE
  5
16D
330
6C
100
AcDbEntity
  8
Visible (ANSI)
100
AcDbLine
 10
15.8451128731316
 20
11.04790470023614
 30
0.0
 11
15.86034958003233
 21
11.04235899245603
 31
0.0
  0
LINE
  5
16E
330
6C
100
AcDbEntity
  8
Visible (ANSI)
100
AcDbLine
 10
6.963031410207139
 20
11.10550685685034
 30
0.0
 11
6.982860321560904
 21
11.11272399036101
 31
0.0
  0
LINE
  5
16F
330
6C
100
AcDbEntity
  8
Visible (ANSI)
100
AcDbLine
 10
6.982860321560904
 20
11.11272399036101
 30
0.0
 11
7.086661390192873
 21
11.15050448962807
 31
0.0
  0
LINE
  5
170
330
6C
100
AcDbEntity
  8
Visible (ANSI)
100
AcDbLine
 10
7.0068017315937
 20
11.046945506906
 30
0.0
 11
7.131871363406749
 21
11.09246713009658
 31
0.0
  0
LINE
  5
171
330
6C
100
AcDbEntity
  8
Visible (ANSI)
100
AcDbLine
 10
6.982860321560904
 20
11.11272399036101
 30
0.0
 11
7.0068017315937
 21
11.046945506906
 31
0.0
  0
LINE
  5
172
330
6C
100
AcDbEntity
  8
Visible (ANSI)
100
AcDbLine
 10
6.986972820239937
 20
11.03972837339532
 30
0.0
 11
7.006801731593704
 21
11.046945506906
 31
0.0
  0
LINE
  5
173
330
6C
100
AcDbEntity
  8
Visible (ANSI)
100
AcDbLine
 10
7.131871363406746
 20
5.986843211367991
 30
0.0
 11
7.006801731593697
 21
6.032364834558574
 31
0.0
  0
LINE
  5
174
330
6C
100
AcDbEntity
  8
Visible (ANSI)
100
AcDbLine
 10
6.9828603215609
 20
5.966586351103562
 30
0.0
 11
7.006801731593697
 21
6.032364834558574
 31
0.0
  0
LINE
  5
175
330
6C
100
AcDbEntity
  8
Visible (ANSI)
100
AcDbLine
 10
7.08666139019287
 20
5.928805851836502
 30
0.0
 11
6.9828603215609
 21
5.966586351103562
 31
0.0
  0
LINE
  5
176
330
6C
100
AcDbEntity
  8
Visible (ANSI)
100
AcDbLine
 10
6.9828603215609
 20
5.966586351103562
 30
0.0
 11
6.963031410207136
 21
5.973803484614235
 31
0.0
  0
LINE
  5
177
330
6C
100
AcDbEntity
  8
Visible (ANSI)
100
AcDbLine
 10
7.006801731593697
 20
6.032364834558575
 30
0.0
 11
6.986972820239935
 21
6.039581968069247
 31
0.0
  0
LINE
  5
178
330
6C
100
AcDbEntity
  8
Visible (ANSI)
100
AcDbLine
 10
13.93224813637506
 20
12.79646379620362
 30
0.0
 11
14.01442321430078
 21
12.74901999284253
 31
0.0
  0
LINE
  5
179
330
6C
100
AcDbEntity
  8
Visible (ANSI)
100
AcDbLine
 10
14.04942321430078
 20
12.80964177110744
 30
0.0
 11
14.01442321430078
 21
12.74901999284253
 31
0.0
  0
LINE
  5
17A
330
6C
100
AcDbEntity
  8
Visible (ANSI)
100
AcDbLine
 10
13.96724813637505
 20
12.85708557446853
 30
0.0
 11
14.04942321430078
 21
12.80964177110744
 31
0.0
  0
LINE
  5
17B
330
6C
100
AcDbEntity
  8
Visible (ANSI)
100
AcDbLine
 10
14.04942321430078
 20
12.80964177110744
 30
0.0
 11
14.20701662895853
 21
12.71865517073227
 31
0.0
  0
LINE
  5
17C
330
6C
100
AcDbEntity
  8
Visible (ANSI)
100
AcDbLine
 10
14.01442321430078
 20
12.74901999284253
 30
0.0
 11
14.06701662895853
 21
12.71865517073227
 31
0.0
  0
LINE
  5
17D
330
6C
100
AcDbEntity
  8
Visible (ANSI)
100
AcDbLine
 10
8.785569610167119
 20
12.71865517073228
 30
0.0
 11
8.838162158799477
 21
12.74901949284253
 31
0.0
  0
LINE
  5
17E
330
6C
100
AcDbEntity
  8
Visible (ANSI)
100
AcDbLine
 10
8.803162158799477
 20
12.80964127110745
 30
0.0
 11
8.838162158799477
 21
12.74901949284253
 31
0.0
  0
LINE
  5
17F
330
6C
100
AcDbEntity
  8
Visible (ANSI)
100
AcDbLine
 10
8.645569610167118
 20
12.71865517073228
 30
0.0
 11
8.803162158799477
 21
12.80964127110745
 31
0.0
  0
LINE
  5
180
330
6C
100
AcDbEntity
  8
Visible (ANSI)
100
AcDbLine
 10
8.838162158799478
 20
12.74901949284253
 30
0.0
 11
8.920338102750603
 21
12.79646379620363
 31
0.0
  0
LINE
  5
181
330
6C
100
AcDbEntity
  8
Visible (ANSI)
100
AcDbLine
 10
8.803162158799477
 20
12.80964127110745
 30
0.0
 11
8.885338102750599
 21
12.85708557446854
 31
0.0
  0
LINE
  5
182
330
6C
100
AcDbEntity
  8
Visible (ANSI)
100
AcDbLine
 10
14.01451501983415
 20
4.330314947840576
 30
0.0
 11
13.93415374127266
 21
4.283918342030677
 31
0.0
  0
LINE
  5
183
330
6C
100
AcDbEntity
  8
Visible (ANSI)
100
AcDbLine
 10
14.06706582739558
 20
4.360655170732303
 30
0.0
 11
14.01451501983415
 21
4.330314947840575
 31
0.0
  0
LINE
  5
184
330
6C
100
AcDbEntity
  8
Visible (ANSI)
100
AcDbLine
 10
14.04951501983415
 20
4.269693169575665
 30
0.0
 11
14.01451501983415
 21
4.330314947840575
 31
0.0
  0
LINE
  5
185
330
6C
100
AcDbEntity
  8
Visible (ANSI)
100
AcDbLine
 10
14.20706582739558
 20
4.360655170732303
 30
0.0
 11
14.04951501983415
 21
4.269693169575665
 31
0.0
  0
LINE
  5
186
330
6C
100
AcDbEntity
  8
Visible (ANSI)
100
AcDbLine
 10
14.04951501983415
 20
4.269693169575666
 30
0.0
 11
13.96915374127266
 21
4.223296563765767
 31
0.0
  0
LINE
  5
187
330
6C
100
AcDbEntity
  8
Visible (ANSI)
100
AcDbLine
 10
8.838070353266104
 20
4.330315447840574
 30
0.0
 11
8.785520411730072
 21
4.360655170732303
 31
0.0
  0
LINE
  5
188
330
6C
100
AcDbEntity
  8
Visible (ANSI)
100
AcDbLine
 10
8.803070353266104
 20
4.269693669575664
 30
0.0
 11
8.645520411730069
 21
4.360655170732303
 31
0.0
  0
LINE
  5
189
330
6C
100
AcDbEntity
  8
Visible (ANSI)
100
AcDbLine
 10
8.803070353266104
 20
4.269693669575664
 30
0.0
 11
8.838070353266104
 21
4.330315447840574
 31
0.0
  0
LINE
  5
18A
330
6C
100
AcDbEntity
  8
Visible (ANSI)
100
AcDbLine
 10
8.918432497852995
 20
4.283918342030677
 30
0.0
 11
8.838070353266104
 21
4.330315447840574
 31
0.0
  0
LINE
  5
18B
330
6C
100
AcDbEntity
  8
Visible (ANSI)
100
AcDbLine
 10
8.883432497852997
 20
4.223296563765767
 30
0.0
 11
8.803070353266104
 21
4.269693669575664
 31
0.0
  0
LINE
  5
18C
330
6C
100
AcDbEntity
  8
Visible (ANSI)
100
AcDbLine
 10
9.029044993009673
 20
4.204540120295588
 30
0.0
 11
9.029044993009673
 21
4.244429536622948
 31
0.0
  0
LINE
  5
18D
330
6C
100
AcDbEntity
  8
Visible (ANSI)
100
AcDbLine
 10
9.029044993009673
 20
4.244429536622948
 30
0.0
 11
9.029044993009673
 21
4.274540120295588
 31
0.0
  0
LINE
  5
18E
330
6C
100
AcDbEntity
  8
Visible (ANSI)
100
AcDbLine
 10
13.82354024611598
 20
4.204540120295588
 30
0.0
 11
9.029044993009673
 21
4.204540120295588
 31
0.0
  0
LINE
  5
18F
330
6C
100
AcDbEntity
  8
Visible (ANSI)
100
AcDbLine
 10
13.82354024611598
 20
4.274540120295588
 30
0.0
 11
13.82354024611598
 21
4.244429536622956
 31
0.0
  0
LINE
  5
190
330
6C
100
AcDbEntity
  8
Visible (ANSI)
100
AcDbLine
 10
13.82354024611598
 20
4.244429536622956
 30
0.0
 11
13.82354024611598
 21
4.204540120295588
 31
0.0
  0
SPLINE
  5
191
330
6C
100
AcDbEntity
  8
Visible (ANSI)
100
AcDbSpline
210
0.0
220
0.0
230
1.0
 70
     8
 71
     3
 72
    18
 73
    14
 74
     0
 42
0.0000000001
 43
0.0000000001
 40
0.0
 40
0.0
 40
0.0
 40
0.0
 40
0.0463207571304404
 40
0.0463207571304404
 40
0.1157911957626123
 40
0.1157911957626123
 40
0.1821423663504913
 40
0.1821423663504913
 40
0.2467684427687855
 40
0.2467684427687855
 40
0.2771222946568108
 40
0.2771222946568108
 40
0.3075316189092152
 40
0.3075316189092152
 40
0.3075316189092152
 40
0.3075316189092152
 10
13.82354024611598
 20
4.204540120295588
 30
0.0
 10
13.82017675072752
 20
4.204540120295588
 30
0.0
 10
13.81532626185043
 20
4.204782871019887
 30
0.0
 10
13.80290502324492
 20
4.209114680083134
 30
0.0
 10
13.7972836851826
 20
4.214396985746355
 30
0.0
 10
13.78919161646047
 20
4.230505264646168
 30
0.0
 10
13.78670237673232
 20
4.240852189433259
 30
0.0
 10
13.78440360104704
 20
4.265390328554646
 30
0.0
 10
13.78455507906318
 20
4.279183584396673
 30
0.0
 10
13.78667874038174
 20
4.300850893145624
 30
0.0
 10
13.78764164235356
 20
4.307929256963776
 30
0.0
 10
13.7901612865489
 20
4.322227925073915
 30
0.0
 10
13.7917039312254
 20
4.329344791068799
 30
0.0
 10
13.79357133272289
 20
4.336540120295587
 30
0.0
  0
SPLINE
  5
192
330
6C
100
AcDbEntity
  8
Visible (ANSI)
100
AcDbSpline
210
0.0
220
0.0
230
1.0
 70
     8
 71
     3
 72
    14
 73
    10
 74
     0
 42
0.0000000001
 43
0.0000000001
 40
0.1214005681298871
 40
0.1214005681298871
 40
0.1214005681298871
 40
0.1214005681298871
 40
0.165322417512308
 40
0.165322417512308
 40
0.2184850279651738
 40
0.2184850279651738
 40
0.2463872432247554
 40
0.2463872432247554
 40
0.2837815477723094
 40
0.2837815477723094
 40
0.2837815477723094
 40
0.2837815477723094
 10
13.78611011117633
 20
4.29502676696693
 30
0.0
 10
13.78726053311663
 20
4.290885518089774
 30
0.0
 10
13.78912604039437
 20
4.287417076453833
 30
0.0
 10
13.79463563983723
 20
4.281204311602819
 30
0.0
 10
13.79865547457646
 20
4.278659494636134
 30
0.0
 10
13.80662269340966
 20
4.276115059969684
 30
0.0
 10
13.80957224764656
 20
4.275520010241351
 30
0.0
 10
13.81684384726149
 20
4.274619930316818
 30
0.0
 10
13.82072146396364
 20
4.274540120295588
 30
0.0
 10
13.82354024611598
 20
4.274540120295588
 30
0.0
  0
SPLINE
  5
193
330
6C
100
AcDbEntity
  8
Visible (ANSI)
100
AcDbSpline
210
0.0
220
0.0
230
1.0
 70
     8
 71
     3
 72
    18
 73
    14
 74
     0
 42
0.0000000001
 43
0.0000000001
 40
0.0
 40
0.0
 40
0.0
 40
0.0
 40
0.0620230107299532
 40
0.0620230107299532
 40
0.1837535745295689
 40
0.1837535745295689
 40
0.3039232809933684
 40
0.3039232809933684
 40
0.4264916256442615
 40
0.4264916256442615
 40
0.4899131265969898
 40
0.4899131265969898
 40
0.5722117100995145
 40
0.5722117100995145
 40
0.5722117100995145
 40
0.5722117100995145
 10
9.059013906402768
 20
4.336540120295587
 30
0.0
 10
9.061058609842167
 20
4.328661624729719
 30
0.0
 10
9.062713566701207
 20
4.320874502803096
 30
0.0
 10
9.066620503742207
 20
4.297716392992753
 30
0.0
 10
9.067851774039604
 20
4.282821989682969
 30
0.0
 10
9.067729861809795
 20
4.255803549073011
 30
0.0
 10
9.066410752772732
 20
4.243959605094199
 30
0.0
 10
9.061065081255344
 20
4.224326620606815
 30
0.0
 10
9.057054403797042
 20
4.216872419227238
 30
0.0
 10
9.048638754108873
 20
4.209394118134968
 30
0.0
 10
9.045380955102954
 20
4.20754396788679
 30
0.0
 10
9.036906026577133
 20
4.204765329547867
 30
0.0
 10
9.032275176511856
 20
4.204540120295588
 30
0.0
 10
9.029044993009673
 20
4.204540120295588
 30
0.0
  0
SPLINE
  5
194
330
6C
100
AcDbEntity
  8
Visible (ANSI)
100
AcDbSpline
210
0.0
220
0.0
230
1.0
 70
     8
 71
     3
 72
    14
 73
    10
 74
     0
 42
0.0000000001
 43
0.0000000001
 40
0.0
 40
0.0
 40
0.0
 40
0.0
 40
0.0308681539787327
 40
0.0308681539787327
 40
0.0737298502182389
 40
0.0737298502182389
 40
0.1087580748777137
 40
0.1087580748777137
 40
0.1122969189762518
 40
0.1122969189762518
 40
0.1122969189762518
 40
0.1122969189762518
 10
9.029044993009673
 20
4.274540120295588
 30
0.0
 10
9.032355915301302
 20
4.274540120295588
 30
0.0
 10
9.037143455457862
 20
4.274640058430017
 30
0.0
 10
9.049165125712177
 20
4.276597739171204
 30
0.0
 10
9.054573308562195
 20
4.278854664606184
 30
0.0
 10
9.0619596567479
 20
4.285157197068571
 30
0.0
 10
9.064476715538322
 20
4.288880008688411
 30
0.0
 10
9.066191848292206
 20
4.294053451198996
 30
0.0
 10
9.066338790096654
 20
4.294536233769949
 30
0.0
 10
9.066475244568408
 20
4.29502686171505
 30
0.0
  0
SPLINE
  5
195
330
6C
100
AcDbEntity
  8
Visible (ANSI)
100
AcDbSpline
210
0.0
220
0.0
230
1.0
 70
     8
 71
     3
 72
    10
 73
     6
 74
     0
 42
0.0000000001
 43
0.0000000001
 40
0.0
 40
0.0
 40
0.0
 40
0.0
 40
0.0941903114288604
 40
0.0941903114288604
 40
0.1883828983551291
 40
0.1883828983551291
 40
0.1883828983551291
 40
0.1883828983551291
 10
13.96915374127267
 20
4.22329656376577
 30
0.0
 10
13.95855064225167
 20
4.217174861691749
 30
0.0
 10
13.94724167054321
 20
4.212486848803317
 30
0.0
 10
13.92354064852367
 20
4.206135635250424
 30
0.0
 10
13.91139855603856
 20
4.204540120295588
 30
0.0
 10
13.89915374127266
 20
4.204540120295588
 30
0.0
  0
LINE
  5
196
330
6C
100
AcDbEntity
  8
Visible (ANSI)
100
AcDbLine
 10
13.94950061924467
 20
4.257336769645602
 30
0.0
 11
13.96915374127266
 21
4.223296563765767
 31
0.0
  0
LINE
  5
197
330
6C
100
AcDbEntity
  8
Visible (ANSI)
100
AcDbLine
 10
13.93415374127266
 20
4.283918342030677
 30
0.0
 11
13.94950061924467
 21
4.257336769645602
 31
0.0
  0
SPLINE
  5
198
330
6C
100
AcDbEntity
  8
Visible (ANSI)
100
AcDbSpline
210
0.0
220
0.0
230
1.0
 70
     8
 71
     3
 72
    12
 73
     8
 74
     0
 42
0.0000000001
 43
0.0000000001
 40
0.0
 40
0.0
 40
0.0
 40
0.0
 40
0.0239739502168358
 40
0.0239739502168358
 40
0.0595399672300437
 40
0.0595399672300437
 40
0.0871668035964014
 40
0.0871668035964014
 40
0.0871668035964014
 40
0.0871668035964014
 10
13.89915374127266
 20
4.274540120295587
 30
0.0
 10
13.90218930395385
 20
4.274540120295587
 30
0.0
 10
13.90521338991581
 20
4.274734690397314
 30
0.0
 10
13.91280985517778
 20
4.275732730217761
 30
0.0
 10
13.91730668063733
 20
4.276778169495296
 30
0.0
 10
13.9250549397285
 20
4.27941004774652
 30
0.0
 10
13.9293521884966
 20
4.28114616424289
 30
0.0
 10
13.93415374127267
 20
4.283918342030681
 30
0.0
  0
LINE
  5
199
330
6C
100
AcDbEntity
  8
Visible (ANSI)
100
AcDbLine
 10
13.89915374127266
 20
4.243740120295588
 30
0.0
 11
13.89915374127266
 21
4.274540120295587
 31
0.0
  0
LINE
  5
19A
330
6C
100
AcDbEntity
  8
Visible (ANSI)
100
AcDbLine
 10
13.89915374127266
 20
4.204540120295588
 30
0.0
 11
13.89915374127266
 21
4.243740120295588
 31
0.0
  0
SPLINE
  5
19B
330
6C
100
AcDbEntity
  8
Visible (ANSI)
100
AcDbSpline
210
0.0
220
0.0
230
1.0
 70
     8
 71
     3
 72
    10
 73
     6
 74
     0
 42
0.0000000001
 43
0.0000000001
 40
0.0
 40
0.0
 40
0.0
 40
0.0
 40
0.0886138656315985
 40
0.0886138656315985
 40
0.1772298498127189
 40
0.1772298498127189
 40
0.1772298498127189
 40
0.1772298498127189
 10
8.885338102750601
 20
12.85708557446854
 30
0.0
 10
8.895331919193868
 20
12.86285550708229
 30
0.0
 10
8.906003541863723
 20
12.86727908866263
 30
0.0
 10
8.928339817425444
 20
12.8732645342999
 30
0.0
 10
8.939796941113435
 20
12.87477022116899
 30
0.0
 10
8.9513381027506
 20
12.87477022116899
 30
0.0
  0
LINE
  5
19C
330
6C
100
AcDbEntity
  8
Visible (ANSI)
100
AcDbLine
 10
8.904982850090201
 20
12.8230598739745
 30
0.0
 11
8.885338102750599
 21
12.85708557446854
 31
0.0
  0
LINE
  5
19D
330
6C
100
AcDbEntity
  8
Visible (ANSI)
100
AcDbLine
 10
8.920338102750601
 20
12.79646379620363
 30
0.0
 11
8.904982850090201
 21
12.8230598739745
 31
0.0
  0
SPLINE
  5
19E
330
6C
100
AcDbEntity
  8
Visible (ANSI)
100
AcDbSpline
210
0.0
220
0.0
230
1.0
 70
     8
 71
     3
 72
    12
 73
     8
 74
     0
 42
0.0000000001
 43
0.0000000001
 40
0.0
 40
0.0
 40
0.0
 40
0.0
 40
0.0211807967753299
 40
0.0211807967753299
 40
0.0526235523624816
 40
0.0526235523624816
 40
0.0770927150420214
 40
0.0770927150420214
 40
0.0770927150420214
 40
0.0770927150420214
 10
8.9513381027506
 20
12.80477022116899
 30
0.0
 10
8.948647771090117
 20
12.80477022116899
 30
0.0
 10
8.945966399849824
 20
12.80459741398082
 30
0.0
 10
8.939239732674289
 20
12.80371332994811
 30
0.0
 10
8.935259608810264
 20
12.80278774929189
 30
0.0
 10
8.928395019044122
 20
12.80045627875092
 30
0.0
 10
8.924588142182502
 20
12.7989175576137
 30
0.0
 10
8.920338102750584
 20
12.79646379620362
 30
0.0
  0
LINE
  5
19F
330
6C
100
AcDbEntity
  8
Visible (ANSI)
100
AcDbLine
 10
8.951338102750602
 20
12.83557022116899
 30
0.0
 11
8.9513381027506
 21
12.80477022116899
 31
0.0
  0
LINE
  5
1A0
330
6C
100
AcDbEntity
  8
Visible (ANSI)
100
AcDbLine
 10
8.9513381027506
 20
12.87477022116899
 30
0.0
 11
8.951338102750602
 21
12.83557022116899
 31
0.0
  0
LINE
  5
1A1
330
6C
100
AcDbEntity
  8
Visible (ANSI)
100
AcDbLine
 10
9.029044993009669
 20
12.80477022116899
 30
0.0
 11
9.029044993009669
 21
12.83488080484162
 31
0.0
  0
LINE
  5
1A2
330
6C
100
AcDbEntity
  8
Visible (ANSI)
100
AcDbLine
 10
9.029044993009669
 20
12.83488080484162
 30
0.0
 11
9.029044993009669
 21
12.87477022116899
 31
0.0
  0
LINE
  5
1A3
330
6C
100
AcDbEntity
  8
Visible (ANSI)
100
AcDbLine
 10
9.029044993009669
 20
12.87477022116899
 30
0.0
 11
13.82354024611598
 21
12.87477022116898
 31
0.0
  0
LINE
  5
1A4
330
6C
100
AcDbEntity
  8
Visible (ANSI)
100
AcDbLine
 10
13.82354024611598
 20
12.87477022116898
 30
0.0
 11
13.82354024611598
 21
12.83488080484157
 31
0.0
  0
LINE
  5
1A5
330
6C
100
AcDbEntity
  8
Visible (ANSI)
100
AcDbLine
 10
13.82354024611598
 20
12.83488080484157
 30
0.0
 11
13.82354024611598
 21
12.80477022116899
 31
0.0
  0
SPLINE
  5
1A6
330
6C
100
AcDbEntity
  8
Visible (ANSI)
100
AcDbSpline
210
0.0
220
0.0
230
1.0
 70
     8
 71
     3
 72
    18
 73
    14
 74
     0
 42
0.0000000001
 43
0.0000000001
 40
0.0
 40
0.0
 40
0.0
 40
0.0
 40
0.0463207571309485
 40
0.0463207571309485
 40
0.1157911957642307
 40
0.1157911957642307
 40
0.1821423663529776
 40
0.1821423663529776
 40
0.2467684427721877
 40
0.2467684427721877
 40
0.2771222946606678
 40
0.2771222946606678
 40
0.3075316189135009
 40
0.3075316189135009
 40
0.3075316189135009
 40
0.3075316189135009
 10
9.029044993009669
 20
12.87477022116899
 30
0.0
 10
9.032408488398171
 20
12.87477022116899
 30
0.0
 10
9.037258977275241
 20
12.87452747044469
 30
0.0
 10
9.049680215880743
 20
12.87019566138145
 30
0.0
 10
9.055301553943063
 20
12.86491335571821
 30
0.0
 10
9.063393622665172
 20
12.84880507681842
 30
0.0
 10
9.065882862393319
 20
12.83845815203135
 30
0.0
 10
9.068181638078613
 20
12.81392001291002
 30
0.0
 10
9.06803016006248
 20
12.80012675706803
 30
0.0
 10
9.065906498743926
 20
12.77845944831904
 30
0.0
 10
9.064943596772106
 20
12.77138108450089
 30
0.0
 10
9.062423952576761
 20
12.7570824163907
 30
0.0
 10
9.060881307900261
 20
12.7499655503958
 30
0.0
 10
9.059013906402773
 20
12.74277022116899
 30
0.0
  0
SPLINE
  5
1A7
330
6C
100
AcDbEntity
  8
Visible (ANSI)
100
AcDbSpline
210
0.0
220
0.0
230
1.0
 70
     8
 71
     3
 72
    14
 73
    10
 74
     0
 42
0.0000000001
 43
0.0000000001
 40
0.1214005681295256
 40
0.1214005681295256
 40
0.1214005681295256
 40
0.1214005681295256
 40
0.1653224175117744
 40
0.1653224175117744
 40
0.218485027965362
 40
0.218485027965362
 40
0.2463872432255664
 40
0.2463872432255664
 40
0.2837815477740185
 40
0.2837815477740185
 40
0.2837815477740185
 40
0.2837815477740185
 10
9.066475127949329
 20
12.78428357449765
 30
0.0
 10
9.065324706009022
 20
12.78842482337481
 30
0.0
 10
9.063459198731278
 20
12.79189326501076
 30
0.0
 10
9.057949599288344
 20
12.79810602986185
 30
0.0
 10
9.053929764549049
 20
12.8006508468285
 30
0.0
 10
9.045962545715926
 20
12.80319528149491
 30
0.0
 10
9.043012991479038
 20
12.80379033122324
 30
0.0
 10
9.035741391864123
 20
12.80469041114776
 30
0.0
 10
9.03186377516198
 20
12.80477022116899
 30
0.0
 10
9.029044993009671
 20
12.80477022116899
 30
0.0
  0
SPLINE
  5
1A8
330
6C
100
AcDbEntity
  8
Visible (ANSI)
100
AcDbSpline
210
0.0
220
0.0
230
1.0
 70
     8
 71
     3
 72
    18
 73
    14
 74
     0
 42
0.0000000001
 43
0.0000000001
 40
0.0
 40
0.0
 40
0.0
 40
0.0
 40
0.0620230107299972
 40
0.0620230107299972
 40
0.183753574529261
 40
0.183753574529261
 40
0.3039232809927504
 40
0.3039232809927504
 40
0.4264916256435943
 40
0.4264916256435943
 40
0.4899131265964823
 40
0.4899131265964823
 40
0.5722117100991825
 40
0.5722117100991825
 40
0.5722117100991825
 40
0.5722117100991825
 10
13.79357133272289
 20
12.74277022116898
 30
0.0
 10
13.79152662928349
 20
12.75064871673486
 30
0.0
 10
13.78987167242445
 20
12.75843583866148
 30
0.0
 10
13.78596473538346
 20
12.78159394847176
 30
0.0
 10
13.78473346508606
 20
12.79648835178154
 30
0.0
 10
13.78485537731585
 20
12.82350679239144
 30
0.0
 10
13.78617448635291
 20
12.83535073637024
 30
0.0
 10
13.79152015787027
 20
12.85498372085766
 30
0.0
 10
13.79553083532857
 20
12.86243792223727
 30
0.0
 10
13.80394648501672
 20
12.86991622332956
 30
0.0
 10
13.80720428402264
 20
12.87176637357776
 30
0.0
 10
13.81567921254849
 20
12.8745450119167
 30
0.0
 10
13.8203100626138
 20
12.87477022116898
 30
0.0
 10
13.82354024611598
 20
12.87477022116898
 30
0.0
  0
SPLINE
  5
1A9
330
6C
100
AcDbEntity
  8
Visible (ANSI)
100
AcDbSpline
210
0.0
220
0.0
230
1.0
 70
     8
 71
     3
 72
    14
 73
    10
 74
     0
 42
0.0000000001
 43
0.0000000001
 40
0.0
 40
0.0
 40
0.0
 40
0.0
 40
0.030868153974032
 40
0.030868153974032
 40
0.0737298502023902
 40
0.0737298502023902
 40
0.1087580748509656
 40
0.1087580748509656
 40
0.1122969189483808
 40
0.1122969189483808
 40
0.1122969189483808
 40
0.1122969189483808
 10
13.82354024611598
 20
12.80477022116899
 30
0.0
 10
13.82022932382486
 20
12.80477022116899
 30
0.0
 10
13.81544178366809
 20
12.8046702830346
 30
0.0
 10
13.80342011341383
 20
12.80271260229343
 30
0.0
 10
13.79801193056365
 20
12.80045567685856
 30
0.0
 10
13.79062558237775
 20
12.794153144396
 30
0.0
 10
13.78810852358733
 20
12.79043033277615
 30
0.0
 10
13.78639339083345
 20
12.78525689026557
 30
0.0
 10
13.786246449029
 20
12.78477410769462
 30
0.0
 10
13.78610999455724
 20
12.78428347974952
 30
0.0
  0
SPLINE
  5
1AA
330
6C
100
AcDbEntity
  8
Visible (ANSI)
100
AcDbSpline
210
0.0
220
0.0
230
1.0
 70
     8
 71
     3
 72
    10
 73
     6
 74
     0
 42
0.0000000001
 43
0.0000000001
 40
0.0
 40
0.0
 40
0.0
 40
0.0
 40
0.088595717599463
 40
0.088595717599463
 40
0.177189308790083
 40
0.177189308790083
 40
0.177189308790083
 40
0.177189308790083
 10
13.90124813637505
 20
12.87477022116898
 30
0.0
 10
13.91278930063576
 20
12.87477022116898
 30
0.0
 10
13.92424643117124
 20
12.87326453267869
 30
0.0
 10
13.94658270626871
 20
12.86727908533235
 30
0.0
 10
13.95725432214442
 20
12.86285550580482
 30
0.0
 10
13.9672481363751
 20
12.8570855744685
 30
0.0
  0
LINE
  5
1AB
330
6C
100
AcDbEntity
  8
Visible (ANSI)
100
AcDbLine
 10
13.90124813637505
 20
12.83557022116899
 30
0.0
 11
13.90124813637505
 21
12.87477022116898
 31
0.0
  0
LINE
  5
1AC
330
6C
100
AcDbEntity
  8
Visible (ANSI)
100
AcDbLine
 10
13.90124813637505
 20
12.80477022116899
 30
0.0
 11
13.90124813637505
 21
12.83557022116899
 31
0.0
  0
SPLINE
  5
1AD
330
6C
100
AcDbEntity
  8
Visible (ANSI)
100
AcDbSpline
210
0.0
220
0.0
230
1.0
 70
     8
 71
     3
 72
    12
 73
     8
 74
     0
 42
0.0000000001
 43
0.0000000001
 40
0.0
 40
0.0
 40
0.0
 40
0.0
 40
0.0212051465407833
 40
0.0212051465407833
 40
0.0526644946346956
 40
0.0526644946346956
 40
0.0769222682827208
 40
0.0769222682827208
 40
0.0769222682827208
 40
0.0769222682827208
 10
13.9322481363751
 20
12.79646379620359
 30
0.0
 10
13.92991874883376
 20
12.79780866872763
 30
0.0
 10
13.92751149330392
 20
12.79899916493673
 30
0.0
 10
13.92124593724961
 20
12.80159626110404
 30
0.0
 10
13.91733658366046
 20
12.80278521427881
 30
0.0
 10
13.91025111732381
 20
12.80419365725067
 30
0.0
 10
13.9061789075371
 20
12.80477022116899
 30
0.0
 10
13.90124813637505
 20
12.80477022116899
 30
0.0
  0
LINE
  5
1AE
330
6C
100
AcDbEntity
  8
Visible (ANSI)
100
AcDbLine
 10
13.94760338734206
 20
12.82305987104144
 30
0.0
 11
13.93224813637506
 21
12.79646379620362
 31
0.0
  0
LINE
  5
1AF
330
6C
100
AcDbEntity
  8
Visible (ANSI)
100
AcDbLine
 10
13.96724813637505
 20
12.85708557446853
 30
0.0
 11
13.94760338734206
 21
12.82305987104144
 31
0.0
  0
LINE
  5
1B0
330
6C
100
AcDbEntity
  8
Visible (ANSI)
100
AcDbLine
 10
6.922294756503354
 20
6.054286672106337
 30
0.0
 11
6.915737683903718
 21
6.05428667210634
 31
0.0
  0
LINE
  5
1B1
330
6C
100
AcDbEntity
  8
Visible (ANSI)
100
AcDbLine
 10
6.915737683903718
 20
6.05428667210634
 30
0.0
 11
6.915378069126124
 21
6.054286672106337
 31
0.0
  0
LINE
  5
1B2
330
6C
100
AcDbEntity
  8
Visible (ANSI)
100
AcDbLine
 10
6.915378069126124
 20
6.054286672106337
 30
0.0
 11
6.883571271189799
 21
6.054286672106341
 31
0.0
  0
ARC
  5
1B3
330
6C
100
AcDbEntity
  8
Visible (ANSI)
100
AcDbCircle
 10
7.008178069126113
 20
6.09784291055797
 30
0.0
 40
0.1319999999999878
100
AcDbArc
 50
199.2670458749094
 51
206.8921189088803
  0
LINE
  5
1B4
330
6C
100
AcDbEntity
  8
Visible (ANSI)
100
AcDbLine
 10
6.922294756503354
 20
6.054286672106337
 30
0.0
 11
6.890452581596796
 21
6.038137721621152
 31
0.0
  0
LINE
  5
1B5
330
6C
100
AcDbEntity
  8
Visible (ANSI)
100
AcDbLine
 10
6.9528827643775
 20
6.069799564239164
 30
0.0
 11
6.946188130995183
 21
6.06640434066148
 31
0.0
  0
ARC
  5
1B6
330
6C
100
AcDbEntity
  8
Visible (ANSI)
100
AcDbCircle
 10
7.008178069126127
 20
6.097842910557976
 30
0.0
 40
0.0620000000000032
100
AcDbArc
 50
185.4808888756894
 51
206.8921189088793
  0
SPLINE
  5
1B7
330
6C
100
AcDbEntity
  8
Visible (ANSI)
100
AcDbSpline
210
0.0
220
0.0
230
1.0
 70
     8
 71
     3
 72
    12
 73
     8
 74
     0
 42
0.0000000001
 43
0.0000000001
 40
0.0
 40
0.0
 40
0.0
 40
0.0
 40
0.0430310869543731
 40
0.0430310869543731
 40
0.0963149875354558
 40
0.0963149875354558
 40
0.149543791433186
 40
0.149543791433186
 40
0.149543791433186
 40
0.149543791433186
 10
6.963031410207137
 20
5.973803484614236
 30
0.0
 10
6.95796161263964
 20
5.97564874002256
 30
0.0
 10
6.950421367725992
 20
5.978723395317662
 30
0.0
 10
6.930957093182465
 20
5.990064260982023
 30
0.0
 10
6.921003334331366
 20
5.9979134251473
 30
0.0
 10
6.903556742644497
 20
6.016360513636305
 30
0.0
 10
6.896201148747714
 20
6.026802812838718
 30
0.0
 10
6.890452581596796
 20
6.038137721621152
 30
0.0
  0
LINE
  5
1B8
330
6C
100
AcDbEntity
  8
Visible (ANSI)
100
AcDbLine
 10
6.976524307647657
 20
6.010874915655083
 30
0.0
 11
6.963031410207136
 21
5.973803484614235
 31
0.0
  0
LINE
  5
1B9
330
6C
100
AcDbEntity
  8
Visible (ANSI)
100
AcDbLine
 10
6.986972820239934
 20
6.039581968069247
 30
0.0
 11
6.976524307647657
 21
6.010874915655083
 31
0.0
  0
SPLINE
  5
1BA
330
6C
100
AcDbEntity
  8
Visible (ANSI)
100
AcDbSpline
210
0.0
220
0.0
230
1.0
 70
     8
 71
     3
 72
    12
 73
     8
 74
     0
 42
0.0000000001
 43
0.0000000001
 40
0.0
 40
0.0
 40
0.0
 40
0.0
 40
0.0447844537739673
 40
0.0447844537739673
 40
0.0837814961006823
 40
0.0837814961006823
 40
0.1366049009199828
 40
0.1366049009199828
 40
0.1366049009199828
 40
0.1366049009199828
 10
6.9528827643775
 20
6.069799564239164
 30
0.0
 10
6.955515274731973
 20
6.064608833409483
 30
0.0
 10
6.958874227547022
 20
6.059805199909606
 30
0.0
 10
6.966285089327592
 20
6.051858581463296
 30
0.0
 10
6.970085716737753
 20
6.048692892549093
 30
0.0
 10
6.9794642474872
 20
6.042514246056031
 30
0.0
 10
6.984137475819065
 20
6.040613949042335
 30
0.0
 10
6.986972820239964
 20
6.039581968069237
 30
0.0
  0
LINE
  5
1BB
330
6C
100
AcDbEntity
  8
Visible (ANSI)
100
AcDbLine
 10
6.883571271189799
 20
6.054286672106341
 30
0.0
 11
6.876178069126125
 21
6.05428667210634
 31
0.0
  0
LINE
  5
1BC
330
6C
100
AcDbEntity
  8
Visible (ANSI)
100
AcDbLine
 10
6.876178069126125
 20
6.05428667210634
 30
0.0
 11
6.876178069126125
 21
6.097842910557974
 31
0.0
  0
LINE
  5
1BD
330
6C
100
AcDbEntity
  8
Visible (ANSI)
100
AcDbLine
 10
6.946178069126125
 20
6.05428667210634
 30
0.0
 11
6.922294756503354
 21
6.054286672106337
 31
0.0
  0
LINE
  5
1BE
330
6C
100
AcDbEntity
  8
Visible (ANSI)
100
AcDbLine
 10
6.876178069126125
 20
6.097842910557974
 30
0.0
 11
6.876178069126128
 21
10.9814674309066
 31
0.0
  0
SPLINE
  5
1BF
330
6C
100
AcDbEntity
  8
Visible (ANSI)
100
AcDbSpline
210
0.0
220
0.0
230
1.0
 70
     8
 71
     3
 72
    18
 73
    14
 74
     0
 42
0.0000000001
 43
0.0000000001
 40
0.0
 40
0.0
 40
0.0
 40
0.0
 40
0.0825085194092507
 40
0.0825085194092507
 40
0.1675381341389686
 40
0.1675381341389686
 40
0.2693387279903901
 40
0.2693387279903901
 40
0.374394066003397
 40
0.374394066003397
 40
0.4661749579255999
 40
0.4661749579255999
 40
0.5577143937407123
 40
0.5577143937407123
 40
0.5577143937407123
 40
0.5577143937407123
 10
6.876178069126125
 20
6.05428667210634
 30
0.0
 10
6.876178069126125
 20
6.065018289203869
 30
0.0
 10
6.876128609032188
 20
6.076528167859378
 30
0.0
 10
6.877112077708022
 20
6.100453649232427
 30
0.0
 10
6.878206916892509
 20
6.111344068556783
 30
0.0
 10
6.883662761265702
 20
6.132736158337666
 30
0.0
 10
6.888544261630132
 20
6.142374788550693
 30
0.0
 10
6.903884593628915
 20
6.158855059133348
 30
0.0
 10
6.914233358162609
 20
6.165295389604883
 30
0.0
 10
6.938234637652753
 20
6.174502223238777
 30
0.0
 10
6.951017532779987
 20
6.177515390462517
 30
0.0
 10
6.978758027419659
 20
6.1812649905109
 30
0.0
 10
6.993410637535763
 20
6.181967158211959
 30
0.0
 10
7.008178069126125
 20
6.181531314550275
 30
0.0
  0
SPLINE
  5
1C0
330
6C
100
AcDbEntity
  8
Visible (ANSI)
100
AcDbSpline
210
0.0
220
0.0
230
1.0
 70
     8
 71
     3
 72
    18
 73
    14
 74
     0
 42
0.0000000001
 43
0.0000000001
 40
0.0136459065777249
 40
0.0136459065777249
 40
0.0136459065777249
 40
0.0136459065777249
 40
0.0437974267573149
 40
0.0437974267573149
 40
0.0907018522358021
 40
0.0907018522358021
 40
0.144497773897534
 40
0.144497773897534
 40
0.2103288059396452
 40
0.2103288059396452
 40
0.2698796928579882
 40
0.2698796928579882
 40
0.3539803553841344
 40
0.3539803553841344
 40
0.3539803553841344
 40
0.3539803553841344
 10
7.002834546710252
 20
6.181639978899037
 30
0.0
 10
6.998917350170701
 20
6.18155162712803
 30
0.0
 10
6.995051883651047
 20
6.181092286129193
 30
0.0
 10
6.985492114171131
 20
6.178988389568094
 30
0.0
 10
6.980190995856276
 20
6.176873922127155
 30
0.0
 10
6.970134546142667
 20
6.170793854552742
 30
0.0
 10
6.965418106587662
 20
6.166518488476102
 30
0.0
 10
6.956648365489449
 20
6.154318820034711
 30
0.0
 10
6.953160750765576
 20
6.146030094102356
 30
0.0
 10
6.948678376192364
 20
6.126633168370094
 30
0.0
 10
6.947534549818605
 20
6.116179946524382
 30
0.0
 10
6.946046100264936
 20
6.087389921758298
 30
0.0
 10
6.946178069126125
 20
6.070143017738812
 30
0.0
 10
6.946178069126125
 20
6.05428667210634
 30
0.0
  0
SPLINE
  5
1C1
330
6C
100
AcDbEntity
  8
Visible (ANSI)
100
AcDbSpline
210
0.0
220
0.0
230
1.0
 70
     8
 71
     3
 72
    18
 73
    14
 74
     0
 42
0.0000000001
 43
0.0000000001
 40
0.0
 40
0.0
 40
0.0
 40
0.0
 40
0.1188717060401955
 40
0.1188717060401955
 40
0.2392425706074543
 40
0.2392425706074543
 40
0.3659231536326863
 40
0.3659231536326863
 40
0.5064326660666984
 40
0.5064326660666984
 40
0.5889497790166139
 40
0.5889497790166139
 40
0.6971691953585825
 40
0.6971691953585825
 40
0.6971691953585825
 40
0.6971691953585825
 10
7.008178069126128
 20
10.8977790269143
 30
0.0
 10
6.992584897573403
 20
10.89731881249278
 30
0.0
 10
6.977129718281446
 20
10.89812504790861
 30
0.0
 10
6.947919063267644
 20
10.90237999689608
 30
0.0
 10
6.93454978344907
 20
10.90580852262101
 30
0.0
 10
6.910971172879417
 20
10.91587399664899
 30
0.0
 10
6.901323039089781
 20
10.92251701569469
 30
0.0
 10
6.886160475415146
 20
10.94048361562682
 30
0.0
 10
6.881680655284996
 20
10.95169056891231
 30
0.0
 10
6.877781471318404
 20
10.97270711854454
 30
0.0
 10
6.877036849997336
 20
10.98115971766899
 30
0.0
 10
6.876124073652847
 20
11.00231173032017
 30
0.0
 10
6.876178069126128
 20
11.01405755142318
 30
0.0
 10
6.876178069126128
 20
11.0250236693582
 30
0.0
  0
SPLINE
  5
1C2
330
6C
100
AcDbEntity
  8
Visible (ANSI)
100
AcDbSpline
210
0.0
220
0.0
230
1.0
 70
     8
 71
     3
 72
    18
 73
    14
 74
     0
 42
0.0000000001
 43
0.0000000001
 40
0.0
 40
0.0
 40
0.0
 40
0.0
 40
0.074537733156995
 40
0.074537733156995
 40
0.1898407362050077
 40
0.1898407362050077
 40
0.2759942848164561
 40
0.2759942848164561
 40
0.3449741476319495
 40
0.3449741476319495
 40
0.3928422727361139
 40
0.3928422727361139
 40
0.4221650287355835
 40
0.4221650287355835
 40
0.4221650287355835
 40
0.4221650287355835
 10
6.94617806912613
 20
11.0250236693582
 30
0.0
 10
6.94617806912613
 20
11.01526107520882
 30
0.0
 10
6.946132642389633
 20
11.00333877357513
 30
0.0
 10
6.946801190718891
 20
10.97026054830443
 30
0.0
 10
6.947987471050564
 20
10.95333911060875
 30
0.0
 10
6.954727593640273
 20
10.92891552557779
 30
0.0
 10
6.958959752013006
 20
10.92071510927381
 30
0.0
 10
6.969186734405854
 20
10.90919320170469
 30
0.0
 10
6.974533277842439
 20
10.9053626962767
 30
0.0
 10
6.984617321108143
 20
10.90074656287367
 30
0.0
 10
6.989113476337124
 20
10.89936045808949
 30
0.0
 10
6.996826246432535
 20
10.89802775059797
 30
0.0
 10
6.999817238988929
 20
10.89773920535752
 30
0.0
 10
7.002834530323873
 20
10.89767080300669
 30
0.0
  0
ARC
  5
1C3
330
6C
100
AcDbEntity
  8
Visible (ANSI)
100
AcDbCircle
 10
7.008178069126109
 20
10.9814674309066
 30
0.0
 40
0.0619999999999805
100
AcDbArc
 50
153.1078810911368
 51
174.5191111243071
  0
LINE
  5
1C4
330
6C
100
AcDbEntity
  8
Visible (ANSI)
100
AcDbLine
 10
6.952882764377493
 20
11.00951077722539
 30
0.0
 11
6.946188130995188
 21
11.01290600080307
 31
0.0
  0
SPLINE
  5
1C5
330
6C
100
AcDbEntity
  8
Visible (ANSI)
100
AcDbSpline
210
0.0
220
0.0
230
1.0
 70
     8
 71
     3
 72
    12
 73
     8
 74
     0
 42
0.0000000001
 43
0.0000000001
 40
0.0
 40
0.0
 40
0.0
 40
0.0
 40
0.1195541800790786
 40
0.1195541800790786
 40
0.1877678317403692
 40
0.1877678317403692
 40
0.2766736471331273
 40
0.2766736471331273
 40
0.2766736471331273
 40
0.2766736471331273
 10
6.890452581596779
 20
11.04117261984338
 30
0.0
 10
6.897533759689357
 20
11.05513514400713
 30
0.0
 10
6.907059440302635
 20
11.06773460842515
 30
0.0
 10
6.925024293572183
 20
11.08436815198261
 30
0.0
 10
6.932105552352053
 20
11.08969781497403
 30
0.0
 10
6.949357587704469
 20
11.10018847335234
 30
0.0
 10
6.957706722605053
 20
11.10356882905642
 30
0.0
 10
6.963031410207253
 20
11.10550685685038
 30
0.0
  0
LINE
  5
1C6
330
6C
100
AcDbEntity
  8
Visible (ANSI)
100
AcDbLine
 10
6.922294756503347
 20
11.0250236693582
 30
0.0
 11
6.890452581596775
 21
11.04117261984338
 31
0.0
  0
SPLINE
  5
1C7
330
6C
100
AcDbEntity
  8
Visible (ANSI)
100
AcDbSpline
210
0.0
220
0.0
230
1.0
 70
     8
 71
     3
 72
    14
 73
    10
 74
     0
 42
0.0000000001
 43
0.0000000001
 40
0.0
 40
0.0
 40
0.0
 40
0.0
 40
0.0194037065101429
 40
0.0194037065101429
 40
0.0473160650259598
 40
0.0473160650259598
 40
0.0612772440338388
 40
0.0612772440338388
 40
0.0752159922643262
 40
0.0752159922643262
 40
0.0752159922643262
 40
0.0752159922643262
 10
6.986972820240023
 20
11.03972837339536
 30
0.0
 10
6.984974558322005
 20
11.03900106553694
 30
0.0
 10
6.981990684127631
 20
11.03780990674171
 30
0.0
 10
6.973363206915009
 20
11.03309648476705
 30
0.0
 10
6.968433874730998
 20
11.02947151229972
 30
0.0
 10
6.961777955116119
 20
11.02271103391858
 30
0.0
 10
6.95971623148667
 20
11.02027113077273
 30
0.0
 10
6.955975629896871
 20
11.01507024586495
 30
0.0
 10
6.95431898427477
 20
11.012342686656
 30
0.0
 10
6.952882764377493
 20
11.00951077722539
 30
0.0
  0
LINE
  5
1C8
330
6C
100
AcDbEntity
  8
Visible (ANSI)
100
AcDbLine
 10
6.976524307647608
 20
11.06843542580964
 30
0.0
 11
6.986972820239937
 21
11.03972837339533
 31
0.0
  0
LINE
  5
1C9
330
6C
100
AcDbEntity
  8
Visible (ANSI)
100
AcDbLine
 10
6.96303141020714
 20
11.10550685685034
 30
0.0
 11
6.976524307647608
 21
11.06843542580964
 31
0.0
  0
LINE
  5
1CA
330
6C
100
AcDbEntity
  8
Visible (ANSI)
100
AcDbLine
 10
6.915378069126129
 20
11.0250236693582
 30
0.0
 11
6.922294756503347
 21
11.0250236693582
 31
0.0
  0
ARC
  5
1CB
330
6C
100
AcDbEntity
  8
Visible (ANSI)
100
AcDbCircle
 10
7.008178069126177
 20
10.98146743090658
 30
0.0
 40
0.1320000000000522
100
AcDbArc
 50
153.1078810911434
 51
160.7329541251017
  0
LINE
  5
1CC
330
6C
100
AcDbEntity
  8
Visible (ANSI)
100
AcDbLine
 10
6.883571271189794
 20
11.02502366935821
 30
0.0
 11
6.915378069126129
 21
11.0250236693582
 31
0.0
  0
LINE
  5
1CD
330
6C
100
AcDbEntity
  8
Visible (ANSI)
100
AcDbLine
 10
6.876178069126128
 20
10.9814674309066
 30
0.0
 11
6.876178069126128
 21
11.0250236693582
 31
0.0
  0
LINE
  5
1CE
330
6C
100
AcDbEntity
  8
Visible (ANSI)
100
AcDbLine
 10
6.876178069126128
 20
11.0250236693582
 30
0.0
 11
6.883571271189794
 21
11.02502366935821
 31
0.0
  0
LINE
  5
1CF
330
6C
100
AcDbEntity
  8
Visible (ANSI)
100
AcDbLine
 10
6.922294756503347
 20
11.0250236693582
 30
0.0
 11
6.946178069126127
 21
11.0250236693582
 31
0.0
  0
LINE
  5
1D0
330
6C
100
AcDbEntity
  8
Visible (ANSI)
100
AcDbLine
 10
15.92932560540569
 20
11.02502366935821
 30
0.0
 11
15.9368485552217
 21
11.02502366935821
 31
0.0
  0
LINE
  5
1D1
330
6C
100
AcDbEntity
  8
Visible (ANSI)
100
AcDbLine
 10
15.9368485552217
 20
11.02502366935821
 30
0.0
 11
15.93720816999953
 21
11.02502366935821
 31
0.0
  0
LINE
  5
1D2
330
6C
100
AcDbEntity
  8
Visible (ANSI)
100
AcDbLine
 10
15.93720816999953
 20
11.02502366935821
 30
0.0
 11
15.96775983620368
 21
11.02502366935821
 31
0.0
  0
ARC
  5
1D3
330
6C
100
AcDbEntity
  8
Visible (ANSI)
100
AcDbCircle
 10
15.83640816999969
 20
10.97658050900109
 30
0.0
 40
0.1399999999998201
100
AcDbArc
 50
20.2442299806297
 51
27.53560153514693
  0
LINE
  5
1D4
330
6C
100
AcDbEntity
  8
Visible (ANSI)
100
AcDbLine
 10
15.92932560540569
 20
11.02502366935821
 30
0.0
 11
15.96054949471865
 21
11.04130246429428
 31
0.0
  0
LINE
  5
1D5
330
6C
100
AcDbEntity
  8
Visible (ANSI)
100
AcDbLine
 10
15.89847883235909
 20
11.00894148664765
 30
0.0
 11
15.90639846557875
 21
11.01307044328914
 31
0.0
  0
ARC
  5
1D6
330
6C
100
AcDbEntity
  8
Visible (ANSI)
100
AcDbCircle
 10
15.83640816999953
 20
10.97658050900102
 30
0.0
 40
0.0699999999999979
100
AcDbArc
 50
5.981098083490048
 51
27.53560153514211
  0
SPLINE
  5
1D7
330
6C
100
AcDbEntity
  8
Visible (ANSI)
100
AcDbSpline
210
0.0
220
0.0
230
1.0
 70
     8
 71
     3
 72
    12
 73
     8
 74
     0
 42
0.0000000001
 43
0.0000000001
 40
0.0
 40
0.0
 40
0.0
 40
0.0
 40
0.0442721432798396
 40
0.0442721432798396
 40
0.099129781521382
 40
0.099129781521382
 40
0.1538959890937536
 40
0.1538959890937536
 40
0.1538959890937536
 40
0.1538959890937536
 10
15.88429099006512
 20
11.10813747591105
 30
0.0
 10
15.88944402780734
 20
11.10626192355683
 30
0.0
 10
15.89725028288321
 20
11.10310511023242
 30
0.0
 10
15.91761590947163
 20
11.09136098773688
 30
0.0
 10
15.92809781910648
 20
11.08321371466926
 30
0.0
 10
15.94655583393351
 20
11.06401352800325
 30
0.0
 10
15.95438269469427
 20
11.05313082641398
 30
0.0
 10
15.96054949471865
 20
11.04130246429428
 30
0.0
  0
LINE
  5
1D8
330
6C
100
AcDbEntity
  8
Visible (ANSI)
100
AcDbLine
 10
15.87078501014113
 20
11.07103010104228
 30
0.0
 11
15.88429099006512
 21
11.10813747591105
 31
0.0
  0
LINE
  5
1D9
330
6C
100
AcDbEntity
  8
Visible (ANSI)
100
AcDbLine
 10
15.86034958003233
 20
11.04235899245603
 30
0.0
 11
15.87078501014113
 21
11.07103010104228
 31
0.0
  0
SPLINE
  5
1DA
330
6C
100
AcDbEntity
  8
Visible (ANSI)
100
AcDbSpline
210
0.0
220
0.0
230
1.0
 70
     8
 71
     3
 72
    12
 73
     8
 74
     0
 42
0.0000000001
 43
0.0000000001
 40
0.0
 40
0.0
 40
0.0
 40
0.0
 40
0.049326400793712
 40
0.049326400793712
 40
0.0931915111499907
 40
0.0931915111499907
 40
0.1538342684501953
 40
0.1538342684501953
 40
0.1538342684501953
 40
0.1538342684501953
 10
15.89847883235909
 20
11.00894148664765
 30
0.0
 10
15.89551318047548
 20
11.01462981840182
 30
0.0
 10
15.89176197228376
 20
11.01990236494161
 30
0.0
 10
15.88348857530928
 20
11.0286930995739
 30
0.0
 10
15.87921464589515
 20
11.03222193903435
 30
0.0
 10
15.86860003306461
 20
11.03917358526461
 30
0.0
 10
15.86335334171725
 20
11.04126571261189
 30
0.0
 10
15.86034958003233
 20
11.04235899245603
 30
0.0
  0
LINE
  5
1DB
330
6C
100
AcDbEntity
  8
Visible (ANSI)
100
AcDbLine
 10
15.96775983620368
 20
11.02502366935821
 30
0.0
 11
15.97640816999953
 21
11.02502366935821
 31
0.0
  0
LINE
  5
1DC
330
6C
100
AcDbEntity
  8
Visible (ANSI)
100
AcDbLine
 10
15.97640816999953
 20
11.02502366935821
 30
0.0
 11
15.97640816999953
 21
10.97658050900102
 31
0.0
  0
LINE
  5
1DD
330
6C
100
AcDbEntity
  8
Visible (ANSI)
100
AcDbLine
 10
15.90640816999953
 20
11.02502366935821
 30
0.0
 11
15.92932560540569
 21
11.02502366935821
 31
0.0
  0
LINE
  5
1DE
330
6C
100
AcDbEntity
  8
Visible (ANSI)
100
AcDbLine
 10
15.97640816999953
 20
10.97658050900102
 30
0.0
 11
15.97640816999953
 21
6.102729832463556
 31
0.0
  0
SPLINE
  5
1DF
330
6C
100
AcDbEntity
  8
Visible (ANSI)
100
AcDbSpline
210
0.0
220
0.0
230
1.0
 70
     8
 71
     3
 72
    18
 73
    14
 74
     0
 42
0.0000000001
 43
0.0000000001
 40
0.0
 40
0.0
 40
0.0
 40
0.0
 40
0.0825085194170737
 40
0.0825085194170737
 40
0.167538134160044
 40
0.167538134160044
 40
0.2693387280273644
 40
0.2693387280273644
 40
0.3743940660568077
 40
0.3743940660568077
 40
0.4661749579929319
 40
0.4661749579929319
 40
0.5577143938219501
 40
0.5577143938219501
 40
0.5577143938219501
 40
0.5577143938219501
 10
15.97640816999953
 20
11.02502366935821
 30
0.0
 10
15.97640816999953
 20
11.01429205225967
 30
0.0
 10
15.97645763009343
 20
11.00278217360414
 30
0.0
 10
15.9754741614176
 20
10.97885669223179
 30
0.0
 10
15.97437932223308
 20
10.96796627290743
 30
0.0
 10
15.96892347785984
 20
10.94657418312663
 30
0.0
 10
15.96404197749537
 20
10.93693555291364
 30
0.0
 10
15.94870164549648
 20
10.92045528233103
 30
0.0
 10
15.93835288096273
 20
10.91401495185953
 30
0.0
 10
15.91435160147256
 20
10.90480811822571
 30
0.0
 10
15.90156870634537
 20
10.90179495100201
 30
0.0
 10
15.87382821170584
 20
10.89804535095367
 30
0.0
 10
15.85917560158982
 20
10.89734318325263
 30
0.0
 10
15.84440816999953
 20
10.8977790269143
 30
0.0
  0
SPLINE
  5
1E0
330
6C
100
AcDbEntity
  8
Visible (ANSI)
100
AcDbSpline
210
0.0
220
0.0
230
1.0
 70
     8
 71
     3
 72
    18
 73
    14
 74
     0
 42
0.0000000001
 43
0.0000000001
 40
0.0136459065778807
 40
0.0136459065778807
 40
0.0136459065778807
 40
0.0136459065778807
 40
0.0437974267578415
 40
0.0437974267578415
 40
0.0907018522366689
 40
0.0907018522366689
 40
0.1444977738977117
 40
0.1444977738977117
 40
0.2103288059361785
 40
0.2103288059361785
 40
0.2698796928493594
 40
0.2698796928493594
 40
0.353980355369486
 40
0.353980355369486
 40
0.353980355369486
 40
0.353980355369486
 10
15.84975169241546
 20
10.89767036256554
 30
0.0
 10
15.85366888895505
 20
10.89775871433655
 30
0.0
 10
15.85753435547473
 20
10.8982180553354
 30
0.0
 10
15.86709412495467
 20
10.90032195189653
 30
0.0
 10
15.87239524326952
 20
10.90243641933749
 30
0.0
 10
15.882451692983
 20
10.90851648691186
 30
0.0
 10
15.88716813253803
 20
10.91279185298848
 30
0.0
 10
15.89593787363623
 20
10.92499152142996
 30
0.0
 10
15.89942548836013
 20
10.9332802473623
 30
0.0
 10
15.90390786293334
 20
10.9526771730949
 30
0.0
 10
15.90505168930708
 20
10.96313039494055
 30
0.0
 10
15.90654013886072
 20
10.99192041970676
 30
0.0
 10
15.90640816999953
 20
11.0091673237261
 30
0.0
 10
15.90640816999953
 20
11.02502366935821
 30
0.0
  0
SPLINE
  5
1E1
330
6C
100
AcDbEntity
  8
Visible (ANSI)
100
AcDbSpline
210
0.0
220
0.0
230
1.0
 70
     8
 71
     3
 72
    18
 73
    14
 74
     0
 42
0.0000000001
 43
0.0000000001
 40
0.0
 40
0.0
 40
0.0
 40
0.0
 40
0.118871706040399
 40
0.118871706040399
 40
0.2392425706077677
 40
0.2392425706077677
 40
0.3659231536332943
 40
0.3659231536332943
 40
0.5064326660676148
 40
0.5064326660676148
 40
0.5889497790174005
 40
0.5889497790174005
 40
0.6971691953583071
 40
0.6971691953583071
 40
0.6971691953583071
 40
0.6971691953583071
 10
15.84440816999953
 20
6.181531314550273
 30
0.0
 10
15.86000134155228
 20
6.181991528971796
 30
0.0
 10
15.87545652084425
 20
6.181185293555966
 30
0.0
 10
15.90466717585807
 20
6.176930344568481
 30
0.0
 10
15.91803645567664
 20
6.173501818843546
 30
0.0
 10
15.94161506624631
 20
6.163436344815541
 30
0.0
 10
15.95126320003596
 20
6.156793325769807
 30
0.0
 10
15.96642576371054
 20
6.138826725837696
 30
0.0
 10
15.97090558384069
 20
6.127619772552168
 30
0.0
 10
15.97480476780726
 20
6.106603222919924
 30
0.0
 10
15.97554938912832
 20
6.098150623795481
 30
0.0
 10
15.9764621654728
 20
6.07699861114443
 30
0.0
 10
15.97640816999953
 20
6.065252790041434
 30
0.0
 10
15.97640816999953
 20
6.054286672106355
 30
0.0
  0
SPLINE
  5
1E2
330
6C
100
AcDbEntity
  8
Visible (ANSI)
100
AcDbSpline
210
0.0
220
0.0
230
1.0
 70
     8
 71
     3
 72
    18
 73
    14
 74
     0
 42
0.0000000001
 43
0.0000000001
 40
0.0
 40
0.0
 40
0.0
 40
0.0
 40
0.0745377331564043
 40
0.0745377331564043
 40
0.1898407362021732
 40
0.1898407362021732
 40
0.2759942848151897
 40
0.2759942848151897
 40
0.344974147633946
 40
0.344974147633946
 40
0.3928422727384401
 40
0.3928422727384401
 40
0.4221650287382051
 40
0.4221650287382051
 40
0.4221650287382051
 40
0.4221650287382051
 10
15.90640816999953
 20
6.054286672106355
 30
0.0
 10
15.90640816999953
 20
6.064049266255655
 30
0.0
 10
15.90645359673602
 20
6.075971567889259
 30
0.0
 10
15.90578504840679
 20
6.109049793159448
 30
0.0
 10
15.90459876807522
 20
6.12597123085525
 30
0.0
 10
15.89785864548525
 20
6.150394815887334
 30
0.0
 10
15.89362648711234
 20
6.158595232191077
 30
0.0
 10
15.88339950472008
 20
6.170117139759604
 30
0.0
 10
15.87805296128354
 20
6.173947645187713
 30
0.0
 10
15.86796891801761
 20
6.178563778590866
 30
0.0
 10
15.86347276278861
 20
6.17994988337507
 30
0.0
 10
15.85575999269314
 20
6.181282590866598
 30
0.0
 10
15.85276900013673
 20
6.181571136107054
 30
0.0
 10
15.84975170880176
 20
6.181639538457885
 30
0.0
  0
ARC
  5
1E3
330
6C
100
AcDbEntity
  8
Visible (ANSI)
100
AcDbCircle
 10
15.83640816999952
 20
6.102729832463561
 30
0.0
 40
0.070000000000015
100
AcDbArc
 50
332.4643984648525
 51
354.0189019164965
  0
LINE
  5
1E4
330
6C
100
AcDbEntity
  8
Visible (ANSI)
100
AcDbLine
 10
15.89847883235908
 20
6.070368854816921
 30
0.0
 11
15.90639846557875
 21
6.066239898175431
 31
0.0
  0
SPLINE
  5
1E5
330
6C
100
AcDbEntity
  8
Visible (ANSI)
100
AcDbSpline
210
0.0
220
0.0
230
1.0
 70
     8
 71
     3
 72
    14
 73
    10
 74
     0
 42
0.0000000001
 43
0.0000000001
 40
0.0
 40
0.0
 40
0.0
 40
0.0
 40
0.0619576122475979
 40
0.0619576122475979
 40
0.1650109035897181
 40
0.1650109035897181
 40
0.2165629748250552
 40
0.2165629748250552
 40
0.2682010484743906
 40
0.2682010484743906
 40
0.2682010484743906
 40
0.2682010484743906
 10
15.96054949471864
 20
6.038007877170286
 30
0.0
 10
15.95679911778227
 20
6.030814386816559
 30
0.0
 10
15.95243175275785
 20
6.023961661786242
 30
0.0
 10
15.93927323099939
 20
6.006807554741963
 30
0.0
 10
15.92958138399617
 20
5.997393657173759
 30
0.0
 10
15.9134492662327
 20
5.985644596121923
 30
0.0
 10
15.907838876996
 20
5.982146109024485
 30
0.0
 10
15.89627553323675
 20
5.976006425249328
 30
0.0
 10
15.89046773513007
 20
5.973421016901823
 30
0.0
 10
15.88429099006512
 20
5.971172865553531
 30
0.0
  0
LINE
  5
1E6
330
6C
100
AcDbEntity
  8
Visible (ANSI)
100
AcDbLine
 10
15.92932560540569
 20
6.054286672106357
 30
0.0
 11
15.96054949471864
 21
6.038007877170286
 31
0.0
  0
SPLINE
  5
1E7
330
6C
100
AcDbEntity
  8
Visible (ANSI)
100
AcDbSpline
210
0.0
220
0.0
230
1.0
 70
     8
 71
     3
 72
    14
 73
    10
 74
     0
 42
0.0000000001
 43
0.0000000001
 40
0.0
 40
0.0
 40
0.0
 40
0.0
 40
0.021341910687844
 40
0.021341910687844
 40
0.0516347629984791
 40
0.0516347629984791
 40
0.0669281753921726
 40
0.0669281753921726
 40
0.0821766814687031
 40
0.0821766814687031
 40
0.0821766814687031
 40
0.0821766814687031
 10
15.86034958003233
 20
6.036951349008544
 30
0.0
 10
15.86250503376032
 20
6.037735870006872
 30
0.0
 10
15.865799169566
 20
6.039040037748995
 30
0.0
 10
15.87536499043628
 20
6.044222522540994
 30
0.0
 10
15.88084660553372
 20
6.048190504651097
 30
0.0
 10
15.8883317936996
 20
6.055650049699506
 30
0.0
 10
15.89067397980622
 20
6.058365393480431
 30
0.0
 10
15.8949358667965
 20
6.06416282397364
 30
0.0
 10
15.8968300904866
 20
6.067206450355515
 30
0.0
 10
15.89847883235908
 20
6.070368854816921
 30
0.0
  0
LINE
  5
1E8
330
6C
100
AcDbEntity
  8
Visible (ANSI)
100
AcDbLine
 10
15.87078501014121
 20
6.008280240422087
 30
0.0
 11
15.86034958003233
 21
6.036951349008544
 31
0.0
  0
LINE
  5
1E9
330
6C
100
AcDbEntity
  8
Visible (ANSI)
100
AcDbLine
 10
15.88429099006512
 20
5.97117286555353
 30
0.0
 11
15.87078501014121
 21
6.008280240422087
 31
0.0
  0
LINE
  5
1EA
330
6C
100
AcDbEntity
  8
Visible (ANSI)
100
AcDbLine
 10
15.93720816999953
 20
6.054286672106357
 30
0.0
 11
15.92932560540569
 21
6.054286672106357
 31
0.0
  0
ARC
  5
1EB
330
6C
100
AcDbEntity
  8
Visible (ANSI)
100
AcDbCircle
 10
15.83640816999955
 20
6.102729832463548
 30
0.0
 40
0.1399999999999785
100
AcDbArc
 50
332.4643984648499
 51
339.7557700193589
  0
LINE
  5
1EC
330
6C
100
AcDbEntity
  8
Visible (ANSI)
100
AcDbLine
 10
15.96775983620368
 20
6.054286672106355
 30
0.0
 11
15.93720816999953
 21
6.054286672106357
 31
0.0
  0
LINE
  5
1ED
330
6C
100
AcDbEntity
  8
Visible (ANSI)
100
AcDbLine
 10
15.97640816999953
 20
6.102729832463556
 30
0.0
 11
15.97640816999953
 21
6.054286672106357
 31
0.0
  0
LINE
  5
1EE
330
6C
100
AcDbEntity
  8
Visible (ANSI)
100
AcDbLine
 10
15.97640816999953
 20
6.054286672106357
 30
0.0
 11
15.96775983620368
 21
6.054286672106355
 31
0.0
  0
LINE
  5
1EF
330
6C
100
AcDbEntity
  8
Visible (ANSI)
100
AcDbLine
 10
15.92932560540569
 20
6.054286672106357
 30
0.0
 11
15.90640816999953
 21
6.054286672106357
 31
0.0
  0
ENDSEC
  0
SECTION
  2
OBJECTS
  0
DICTIONARY
  5
C
330
0
100
AcDbDictionary
281
     1
  3
ACAD_CIP_PREVIOUS_PRODUCT_INFO
350
1F0
  3
ACAD_COLOR
350
63
  3
ACAD_GROUP
350
D
  3
ACAD_LAYOUT
350
62
  3
ACAD_MATERIAL
350
10
  3
ACAD_MLEADERSTYLE
350
66
  3
ACAD_MLINESTYLE
350
5F
  3
ACAD_PLOTSETTINGS
350
61
  3
ACAD_PLOTSTYLENAME
350
E
  3
ACAD_SCALELIST
350
42
  3
ACAD_TABLESTYLE
350
64
  3
ACAD_VISUALSTYLE
350
29
  3
ACDB_RECOMPOSE_DATA
350
249
  3
AcDbVariableDictionary
350
76
  3
DWGPROPS
350
24A
  0
DICTIONARY
  5
1F7
330
8
100
AcDbDictionary
280
     1
281
     1
  0
XRECORD
  5
1F0
102
{ACAD_REACTORS
330
C
102
}
330
C
100
AcDbXrecord
280
     1
300
AMECH_PP
300
2012
300
85794PDSS_2012_0F
  0
DICTIONARY
  5
63
102
{ACAD_REACTORS
330
C
102
}
330
C
100
AcDbDictionary
281
     1
  0
DICTIONARY
  5
D
102
{ACAD_REACTORS
330
C
102
}
330
C
100
AcDbDictionary
281
     1
  0
DICTIONARY
  5
62
102
{ACAD_REACTORS
330
C
102
}
330
C
100
AcDbDictionary
281
     1
  3
Layout1
350
6B
  3
Layout2
350
73
  3
Model
350
6F
  0
DICTIONARY
  5
10
102
{ACAD_REACTORS
330
C
102
}
330
C
100
AcDbDictionary
281
     1
  3
ByBlock
350
19
  3
ByLayer
350
11
  3
Global
350
21
  0
DICTIONARY
  5
66
102
{ACAD_REACTORS
330
C
102
}
330
C
100
AcDbDictionary
281
     1
  3
Standard
350
67
  0
DICTIONARY
  5
5F
102
{ACAD_REACTORS
330
C
102
}
330
C
100
AcDbDictionary
281
     1
  3
Standard
350
60
  0
DICTIONARY
  5
61
102
{ACAD_REACTORS
330
C
102
}
330
C
100
AcDbDictionary
281
     1
  0
ACDBDICTIONARYWDFLT
  5
E
102
{ACAD_REACTORS
330
C
102
}
330
C
100
AcDbDictionary
281
     1
  3
Normal
350
F
100
AcDbDictionaryWithDefault
340
F
  0
DICTIONARY
  5
42
102
{ACAD_REACTORS
330
C
102
}
330
C
100
AcDbDictionary
281
     1
  3
A0
350
43
  3
A1
350
44
  3
A2
350
45
  3
A3
350
46
  3
A4
350
47
  3
A5
350
48
  3
A6
350
49
  3
A7
350
4A
  3
A8
350
4B
  3
A9
350
4C
  3
B0
350
4D
  3
B1
350
4E
  3
B2
350
4F
  3
B3
350
50
  3
B4
350
51
  3
B5
350
52
  3
B6
350
53
  0
DICTIONARY
  5
64
102
{ACAD_REACTORS
330
C
102
}
330
C
100
AcDbDictionary
281
     1
  3
Standard
350
65
  0
DICTIONARY
  5
29
102
{ACAD_REACTORS
330
C
102
}
330
C
100
AcDbDictionary
281
     1
  3
2dWireframe
350
2F
  3
Basic
350
2E
  3
Brighten
350
35
  3
ColorChange
350
39
  3
Conceptual
350
32
  3
Dim
350
34
  3
EdgeColorOff
350
41
  3
Facepattern
350
38
  3
Flat
350
2A
  3
FlatWithEdges
350
2B
  3
Gouraud
350
2C
  3
GouraudWithEdges
350
2D
  3
Hidden
350
31
  3
JitterOff
350
3F
  3
Linepattern
350
37
  3
OverhangOff
350
40
  3
Realistic
350
33
  3
Shaded
350
3E
  3
Shaded with edges
350
3D
  3
Shades of Gray
350
3A
  3
Sketchy
350
3B
  3
Thicken
350
36
  3
Wireframe
350
30
  3
X-Ray
350
3C
  0
XRECORD
  5
249
102
{ACAD_REACTORS
330
C
102
}
330
C
100
AcDbXrecord
280
     1
 90
        1
330
65
  0
DICTIONARY
  5
76
102
{ACAD_REACTORS
330
C
102
}
330
C
100
AcDbDictionary
281
     1
  3
CANNOSCALE
350
79
  3
CMLEADERSTYLE
350
78
  3
CTABLESTYLE
350
77
  3
DIMASSOC
350
23B
  3
HIDETEXT
350
23A
  3
INDEXCTL
350
239
  3
LAYEREVAL
350
236
  3
LAYERNOTIFY
350
237
  3
LIGHTINGUNITS
350
235
  3
MSLTSCALE
350
234
  3
SORTENTS
350
238
  3
XCLIPFRAME
350
244
  0
XRECORD
  5
24A
102
{ACAD_REACTORS
330
C
102
}
330
C
100
AcDbXrecord
280
     1
  1
DWGPROPS COOKIE
  2

  3

  4
JIM WALLS
  6

  7

  8
jwalls
  9

300
Manager=
301
Company=
302
Category=
303
Part Number=
304
Description=
305
Project=
306
Designer=JIM WALLS
307
Engineer=
308
Authority=
309
Cost Center=
 40
0.0004066898148148
 41
2456240.545763172
 42
2456240.546878808
  1

 90
       16
300
Vendor=
300
User Status=
300
Design Status=WorkInProgress
300
Checked by=
300
Engr Approved by=
300
Mfg Approved by=
  0
LAYOUT
  5
6B
102
{ACAD_XDICTIONARY
360
27F
102
}
102
{ACAD_REACTORS
330
62
102
}
330
62
100
AcDbPlotSettings
  1

  2

  4

  6

 40
0.0
 41
0.0
 42
0.0
 43
0.0
 44
0.0
 45
0.0
 46
0.0
 47
0.0
 48
0.0
 49
0.0
140
0.0
141
0.0
142
1.0
143
1.0
 70
   688
 72
     0
 73
     0
 74
     5
  7

 75
    16
147
1.0
148
0.0
149
0.0
100
AcDbLayout
  1
Layout1
 70
     1
 71
     1
 10
0.0
 20
0.0
 11
22.0
 21
17.0
 12
0.0
 22
0.0
 32
0.0
 14
0.0
 24
0.0
 34
0.0
 15
22.0
 25
17.0
 35
0.0
146
0.0
 13
0.0
 23
0.0
 33
0.0
 16
1.0
 26
0.0
 36
0.0
 17
0.0
 27
1.0
 37
0.0
 76
     0
330
68
  0
LAYOUT
  5
73
102
{ACAD_XDICTIONARY
360
283
102
}
102
{ACAD_REACTORS
330
62
102
}
330
62
100
AcDbPlotSettings
  1

  2

  4

  6

 40
0.0
 41
0.0
 42
0.0
 43
0.0
 44
0.0
 45
0.0
 46
0.0
 47
0.0
 48
0.0
 49
0.0
140
0.0
141
0.0
142
1.0
143
1.0
 70
   688
 72
     0
 73
     0
 74
     5
  7

 75
    16
147
1.0
148
0.0
149
0.0
100
AcDbLayout
  1
Layout2
 70
     1
 71
     2
 10
0.0
 20
0.0
 11
12.0
 21
9.0
 12
0.0
 22
0.0
 32
0.0
 14
0.0
 24
0.0
 34
0.0
 15
0.0
 25
0.0
 35
0.0
146
0.0
 13
0.0
 23
0.0
 33
0.0
 16
1.0
 26
0.0
 36
0.0
 17
0.0
 27
1.0
 37
0.0
 76
     0
330
70
  0
LAYOUT
  5
6F
102
{ACAD_XDICTIONARY
360
281
102
}
102
{ACAD_REACTORS
330
62
102
}
330
62
100
AcDbPlotSettings
  1

  2

  4

  6

 40
0.0
 41
0.0
 42
0.0
 43
0.0
 44
0.0
 45
0.0
 46
0.0
 47
0.0
 48
0.0
 49
0.0
140
0.0
141
0.0
142
1.0
143
1.0
 70
  1712
 72
     0
 73
     0
 74
     0
  7

 75
     0
147
1.0
148
0.0
149
0.0
100
AcDbLayout
  1
Model
 70
     1
 71
     0
 10
0.0
 20
0.0
 11
12.0
 21
9.0
 12
0.0
 22
0.0
 32
0.0
 14
0.0
 24
0.0
 34
0.0
 15
0.0
 25
0.0
 35
0.0
146
0.0
 13
0.0
 23
0.0
 33
0.0
 16
1.0
 26
0.0
 36
0.0
 17
0.0
 27
1.0
 37
0.0
 76
     0
330
6C
331
57
  0
MATERIAL
  5
19
102
{ACAD_XDICTIONARY
360
1A
102
}
102
{ACAD_REACTORS
330
10
102
}
330
10
100
AcDbMaterial
  1
ByBlock
 72
     0
 43
0.0208333333333333
 43
0.0
 43
0.0
 43
0.0
 43
0.0
 43
0.0208333333333333
 43
0.0
 43
0.0
 43
0.0
 43
0.0
 43
1.0
 43
0.0
 43
0.0
 43
0.0
 43
0.0
 43
1.0
 77
     0
 47
0.0208333333333333
 47
0.0
 47
0.0
 47
0.0
 47
0.0
 47
0.0208333333333333
 47
0.0
 47
0.0
 47
0.0
 47
0.0
 47
1.0
 47
0.0
 47
0.0
 47
0.0
 47
0.0
 47
1.0
171
     0
 49
0.0208333333333333
 49
0.0
 49
0.0
 49
0.0
 49
0.0
 49
0.0208333333333333
 49
0.0
 49
0.0
 49
0.0
 49
0.0
 49
1.0
 49
0.0
 49
0.0
 49
0.0
 49
0.0
 49
1.0
175
     0
142
0.0208333333333333
142
0.0
142
0.0
142
0.0
142
0.0
142
0.0208333333333333
142
0.0
142
0.0
142
0.0
142
0.0
142
1.0
142
0.0
142
0.0
142
0.0
142
0.0
142
1.0
179
     0
144
0.0208333333333333
144
0.0
144
0.0
144
0.0
144
0.0
144
0.0208333333333333
144
0.0
144
0.0
144
0.0
144
0.0
144
1.0
144
0.0
144
0.0
144
0.0
144
0.0
144
1.0
147
0.0208333333333333
147
0.0
147
0.0
147
0.0
147
0.0
147
0.0208333333333333
147
0.0
147
0.0
147
0.0
147
0.0
147
1.0
147
0.0
147
0.0
147
0.0
147
0.0
147
1.0
  0
MATERIAL
  5
11
102
{ACAD_XDICTIONARY
360
12
102
}
102
{ACAD_REACTORS
330
10
102
}
330
10
100
AcDbMaterial
  1
ByLayer
 72
     0
 43
0.0208333333333333
 43
0.0
 43
0.0
 43
0.0
 43
0.0
 43
0.0208333333333333
 43
0.0
 43
0.0
 43
0.0
 43
0.0
 43
1.0
 43
0.0
 43
0.0
 43
0.0
 43
0.0
 43
1.0
 77
     0
 47
0.0208333333333333
 47
0.0
 47
0.0
 47
0.0
 47
0.0
 47
0.0208333333333333
 47
0.0
 47
0.0
 47
0.0
 47
0.0
 47
1.0
 47
0.0
 47
0.0
 47
0.0
 47
0.0
 47
1.0
171
     0
 49
0.0208333333333333
 49
0.0
 49
0.0
 49
0.0
 49
0.0
 49
0.0208333333333333
 49
0.0
 49
0.0
 49
0.0
 49
0.0
 49
1.0
 49
0.0
 49
0.0
 49
0.0
 49
0.0
 49
1.0
175
     0
142
0.0208333333333333
142
0.0
142
0.0
142
0.0
142
0.0
142
0.0208333333333333
142
0.0
142
0.0
142
0.0
142
0.0
142
1.0
142
0.0
142
0.0
142
0.0
142
0.0
142
1.0
179
     0
144
0.0208333333333333
144
0.0
144
0.0
144
0.0
144
0.0
144
0.0208333333333333
144
0.0
144
0.0
144
0.0
144
0.0
144
1.0
144
0.0
144
0.0
144
0.0
144
0.0
144
1.0
147
0.0208333333333333
147
0.0
147
0.0
147
0.0
147
0.0
147
0.0208333333333333
147
0.0
147
0.0
147
0.0
147
0.0
147
1.0
147
0.0
147
0.0
147
0.0
147
0.0
147
1.0
  0
MATERIAL
  5
21
102
{ACAD_XDICTIONARY
360
22
102
}
102
{ACAD_REACTORS
330
10
102
}
330
10
100
AcDbMaterial
  1
Global
 72
     0
 43
0.0208333333333333
 43
0.0
 43
0.0
 43
0.0
 43
0.0
 43
0.0208333333333333
 43
0.0
 43
0.0
 43
0.0
 43
0.0
 43
1.0
 43
0.0
 43
0.0
 43
0.0
 43
0.0
 43
1.0
 77
     0
 47
0.0208333333333333
 47
0.0
 47
0.0
 47
0.0
 47
0.0
 47
0.0208333333333333
 47
0.0
 47
0.0
 47
0.0
 47
0.0
 47
1.0
 47
0.0
 47
0.0
 47
0.0
 47
0.0
 47
1.0
171
     0
 49
0.0208333333333333
 49
0.0
 49
0.0
 49
0.0
 49
0.0
 49
0.0208333333333333
 49
0.0
 49
0.0
 49
0.0
 49
0.0
 49
1.0
 49
0.0
 49
0.0
 49
0.0
 49
0.0
 49
1.0
175
     0
142
0.0208333333333333
142
0.0
142
0.0
142
0.0
142
0.0
142
0.0208333333333333
142
0.0
142
0.0
142
0.0
142
0.0
142
1.0
142
0.0
142
0.0
142
0.0
142
0.0
142
1.0
179
     0
144
0.0208333333333333
144
0.0
144
0.0
144
0.0
144
0.0
144
0.0208333333333333
144
0.0
144
0.0
144
0.0
144
0.0
144
1.0
144
0.0
144
0.0
144
0.0
144
0.0
144
1.0
147
0.0208333333333333
147
0.0
147
0.0
147
0.0
147
0.0
147
0.0208333333333333
147
0.0
147
0.0
147
0.0
147
0.0
147
1.0
147
0.0
147
0.0
147
0.0
147
0.0
147
1.0
  0
MLEADERSTYLE
  5
67
102
{ACAD_XDICTIONARY
360
247
102
}
102
{ACAD_REACTORS
330
66
102
}
330
66
100
AcDbMLeaderStyle
170
     2
171
     1
172
     0
 90
        2
 40
0.0
 41
0.0
173
     1
 91
-1056964608
340
5B
 92
       -2
290
     1
 42
0.09
291
     1
 43
0.36
  3
Standard
 44
0.18
300

342
55
174
     1
178
     6
175
     1
176
     0
 93
-1056964608
 45
0.18
292
     0
297
     0
 46
0.18
 94
-1056964608
 47
1.0
 49
1.0
140
1.0
293
     1
141
0.0
294
     1
177
     0
142
1.0
295
     0
296
     0
143
0.125
1001
ACAD_MLEADERVER
1070
     2
  0
MLINESTYLE
  5
60
102
{ACAD_REACTORS
330
5F
102
}
330
5F
100
AcDbMlineStyle
  2
STANDARD
 70
     0
  3

 62
   256
 51
90.0
 52
90.0
 71
     2
 49
0.5
 62
   256
  6
BYLAYER
 49
-0.5
 62
   256
  6
BYLAYER
  0
ACDBPLACEHOLDER
  5
F
102
{ACAD_REACTORS
330
E
102
}
330
E
  0
SCALE
  5
43
102
{ACAD_REACTORS
330
42
102
}
330
42
100
AcDbScale
 70
     0
300
1:1
140
1.0
141
1.0
290
     1
  0
SCALE
  5
44
102
{ACAD_REACTORS
330
42
102
}
330
42
100
AcDbScale
 70
     0
300
1/128" = 1'-0"
140
0.0078125
141
12.0
290
     0
  0
SCALE
  5
45
102
{ACAD_REACTORS
330
42
102
}
330
42
100
AcDbScale
 70
     0
300
1/64" = 1'-0"
140
0.015625
141
12.0
290
     0
  0
SCALE
  5
46
102
{ACAD_REACTORS
330
42
102
}
330
42
100
AcDbScale
 70
     0
300
1/32" = 1'-0"
140
0.03125
141
12.0
290
     0
  0
SCALE
  5
47
102
{ACAD_REACTORS
330
42
102
}
330
42
100
AcDbScale
 70
     0
300
1/16" = 1'-0"
140
0.0625
141
12.0
290
     0
  0
SCALE
  5
48
102
{ACAD_REACTORS
330
42
102
}
330
42
100
AcDbScale
 70
     0
300
3/32" = 1'-0"
140
0.09375
141
12.0
290
     0
  0
SCALE
  5
49
102
{ACAD_REACTORS
330
42
102
}
330
42
100
AcDbScale
 70
     0
300
1/8" = 1'-0"
140
0.125
141
12.0
290
     0
  0
SCALE
  5
4A
102
{ACAD_REACTORS
330
42
102
}
330
42
100
AcDbScale
 70
     0
300
3/16" = 1'-0"
140
0.1875
141
12.0
290
     0
  0
SCALE
  5
4B
102
{ACAD_REACTORS
330
42
102
}
330
42
100
AcDbScale
 70
     0
300
1/4" = 1'-0"
140
0.25
141
12.0
290
     0
  0
SCALE
  5
4C
102
{ACAD_REACTORS
330
42
102
}
330
42
100
AcDbScale
 70
     0
300
3/8" = 1'-0"
140
0.375
141
12.0
290
     0
  0
SCALE
  5
4D
102
{ACAD_REACTORS
330
42
102
}
330
42
100
AcDbScale
 70
     0
300
1/2" = 1'-0"
140
0.5
141
12.0
290
     0
  0
SCALE
  5
4E
102
{ACAD_REACTORS
330
42
102
}
330
42
100
AcDbScale
 70
     0
300
3/4" = 1'-0"
140
0.75
141
12.0
290
     0
  0
SCALE
  5
4F
102
{ACAD_REACTORS
330
42
102
}
330
42
100
AcDbScale
 70
     0
300
1" = 1'-0"
140
1.0
141
12.0
290
     0
  0
SCALE
  5
50
102
{ACAD_REACTORS
330
42
102
}
330
42
100
AcDbScale
 70
     0
300
1-1/2" = 1'-0"
140
1.5
141
12.0
290
     0
  0
SCALE
  5
51
102
{ACAD_REACTORS
330
42
102
}
330
42
100
AcDbScale
 70
     0
300
3" = 1'-0"
140
3.0
141
12.0
290
     0
  0
SCALE
  5
52
102
{ACAD_REACTORS
330
42
102
}
330
42
100
AcDbScale
 70
     0
300
6" = 1'-0"
140
6.0
141
12.0
290
     0
  0
SCALE
  5
53
102
{ACAD_REACTORS
330
42
102
}
330
42
100
AcDbScale
 70
     0
300
1'-0" = 1'-0"
140
12.0
141
12.0
290
     0
  0
TABLESTYLE
  5
65
102
{ACAD_XDICTIONARY
360
1F1
102
}
102
{ACAD_REACTORS
330
64
102
}
330
64
100
AcDbTableStyle
  3
Standard
 70
     0
 71
     0
 40
0.06
 41
0.06
280
     0
281
     0
  7
Standard
140
0.18
170
     2
 62
     0
 63
     7
283
     0
274
    -2
284
     1
 64
     0
275
    -2
285
     1
 65
     0
276
    -2
286
     1
 66
     0
277
    -2
287
     1
 67
     0
278
    -2
288
     1
 68
     0
279
    -2
289
     1
 69
     0
  7
Standard
140
0.25
170
     5
 62
     0
 63
     7
283
     0
274
    -2
284
     1
 64
     0
275
    -2
285
     1
 65
     0
276
    -2
286
     1
 66
     0
277
    -2
287
     1
 67
     0
278
    -2
288
     1
 68
     0
279
    -2
289
     1
 69
     0
  7
Standard
140
0.18
170
     5
 62
     0
 63
     7
283
     0
274
    -2
284
     1
 64
     0
275
    -2
285
     1
 65
     0
276
    -2
286
     1
 66
     0
277
    -2
287
     1
 67
     0
278
    -2
288
     1
 68
     0
279
    -2
289
     1
 69
     0
  0
VISUALSTYLE
  5
2F
102
{ACAD_XDICTIONARY
360
258
102
}
102
{ACAD_REACTORS
330
29
102
}
330
29
100
AcDbVisualStyle
  2
2dWireframe
 70
     4
 71
     0
 72
     2
 73
     0
 90
        0
 40
-0.6
 41
-30.0
 62
     5
 63
     7
 74
     1
 91
        4
 64
     7
 65
   257
 75
     1
175
     1
 42
1.0
 92
        0
 66
   257
 43
1.0
 76
     1
 77
     6
 78
     2
 67
     7
 79
     5
170
     0
171
     0
290
     0
174
     0
 93
        1
 44
0.0
173
     0
291
     0
 45
0.0
1001
ACAD
1000
AcDbSavedByObjectVersion
1070
     0
  0
VISUALSTYLE
  5
2E
102
{ACAD_XDICTIONARY
360
256
102
}
102
{ACAD_REACTORS
330
29
102
}
330
29
100
AcDbVisualStyle
  2
Basic
 70
     7
 71
     1
 72
     0
 73
     1
 90
        0
 40
-0.6
 41
-30.0
 62
     5
 63
     7
 74
     0
 91
        4
 64
     7
 65
   257
 75
     1
175
     1
 42
1.0
 92
        8
 66
     7
 43
1.0
 76
     1
 77
     6
 78
     2
 67
     7
 79
     5
170
     0
171
     0
290
     0
174
     0
 93
        1
 44
0.0
173
     0
291
     1
 45
0.0
1001
ACAD
1000
AcDbSavedByObjectVersion
1070
     0
  0
VISUALSTYLE
  5
35
102
{ACAD_XDICTIONARY
360
264
102
}
102
{ACAD_REACTORS
330
29
102
}
330
29
100
AcDbVisualStyle
  2
Brighten
 70
    12
 71
     2
 72
     2
 73
     0
 90
        0
 40
-0.6
 41
-30.0
 62
     5
 63
     7
 74
     1
 91
        4
 64
     7
 65
   257
 75
     1
175
     1
 42
1.0
 92
        8
 66
     7
 43
1.0
 76
     1
 77
     6
 78
     2
 67
     7
 79
     5
170
     0
171
     0
290
     0
174
     0
 93
        1
 44
50.0
173
     0
291
     1
 45
0.0
1001
ACAD
1000
AcDbSavedByObjectVersion
1070
     0
  0
VISUALSTYLE
  5
39
102
{ACAD_XDICTIONARY
360
26C
102
}
102
{ACAD_REACTORS
330
29
102
}
330
29
100
AcDbVisualStyle
  2
ColorChange
 70
    16
 71
     2
 72
     2
 73
     3
 90
        0
 40
-0.6
 41
-30.0
 62
     5
 63
     8
 74
     1
 91
        4
 64
     7
 65
   257
 75
     1
175
     1
 42
1.0
 92
        8
 66
     8
 43
1.0
 76
     1
 77
     6
 78
     2
 67
     7
 79
     5
170
     0
171
     0
290
     0
174
     0
 93
        1
 44
0.0
173
     0
291
     1
 45
0.0
1001
ACAD
1000
AcDbSavedByObjectVersion
1070
     0
  0
VISUALSTYLE
  5
32
102
{ACAD_XDICTIONARY
360
25E
102
}
102
{ACAD_REACTORS
330
29
102
}
330
29
100
AcDbVisualStyle
  2
Conceptual
 70
     9
 71
     3
 72
     2
 73
     0
 90
        0
 40
-0.6
 41
-30.0
 62
     5
 63
     7
 74
     2
 91
        2
 64
     7
 65
   257
 75
     1
175
     1
 42
179.0
 92
        8
 66
     7
 43
1.0
 76
     1
 77
     6
 78
     2
 67
     7
 79
     3
170
     0
171
     0
290
     0
174
     0
 93
        1
 44
0.0
173
     0
291
     0
 45
0.0
1001
ACAD
1000
AcDbSavedByObjectVersion
1070
     0
  0
VISUALSTYLE
  5
34
102
{ACAD_XDICTIONARY
360
262
102
}
102
{ACAD_REACTORS
330
29
102
}
330
29
100
AcDbVisualStyle
  2
Dim
 70
    11
 71
     2
 72
     2
 73
     0
 90
        0
 40
-0.6
 41
-30.0
 62
     5
 63
     7
 74
     1
 91
        4
 64
     7
 65
   257
 75
     1
175
     1
 42
1.0
 92
        8
 66
     7
 43
1.0
 76
     1
 77
     6
 78
     2
 67
     7
 79
     5
170
     0
171
     0
290
     0
174
     0
 93
        1
 44
-50.0
173
     0
291
     1
 45
0.0
1001
ACAD
1000
AcDbSavedByObjectVersion
1070
     0
  0
VISUALSTYLE
  5
41
102
{ACAD_XDICTIONARY
360
27C
102
}
102
{ACAD_REACTORS
330
29
102
}
330
29
100
AcDbVisualStyle
  2
EdgeColorOff
 70
    22
 71
     2
 72
     2
 73
     0
 90
        0
 40
-0.6
 41
-30.0
 62
     5
 63
     7
 74
     1
 91
        4
 64
     7
 65
   257
 75
     1
175
     1
 42
1.0
 92
        8
 66
     7
 43
1.0
 76
     1
 77
     6
 78
     2
 67
     7
 79
     5
170
     0
171
     0
290
     0
174
     0
 93
        1
 44
0.0
173
     0
291
     1
 45
0.0
1001
ACAD
1000
AcDbSavedByObjectVersion
1070
     0
  0
VISUALSTYLE
  5
38
102
{ACAD_XDICTIONARY
360
26A
102
}
102
{ACAD_REACTORS
330
29
102
}
330
29
100
AcDbVisualStyle
  2
Facepattern
 70
    15
 71
     2
 72
     2
 73
     0
 90
        0
 40
-0.6
 41
-30.0
 62
     5
 63
     7
 74
     1
 91
        4
 64
     7
 65
   257
 75
     1
175
     1
 42
1.0
 92
        8
 66
     7
 43
1.0
 76
     1
 77
     6
 78
     2
 67
     7
 79
     5
170
     0
171
     0
290
     0
174
     0
 93
        1
 44
0.0
173
     0
291
     1
 45
0.0
1001
ACAD
1000
AcDbSavedByObjectVersion
1070
     0
  0
VISUALSTYLE
  5
2A
102
{ACAD_XDICTIONARY
360
24E
102
}
102
{ACAD_REACTORS
330
29
102
}
330
29
100
AcDbVisualStyle
  2
Flat
 70
     0
 71
     2
 72
     1
 73
     1
 90
        2
 40
-0.6
 41
30.0
 62
     5
 63
     7
 74
     0
 91
        0
 64
     7
 65
   257
 75
     1
175
     1
 42
1.0
 92
        8
 66
     7
 43
1.0
 76
     1
 77
     6
 78
     2
 67
     7
 79
     5
170
     0
171
     0
290
     0
174
     0
 93
       13
 44
0.0
173
     0
291
     1
 45
0.0
1001
ACAD
1000
AcDbSavedByObjectVersion
1070
     0
  0
VISUALSTYLE
  5
2B
102
{ACAD_XDICTIONARY
360
250
102
}
102
{ACAD_REACTORS
330
29
102
}
330
29
100
AcDbVisualStyle
  2
FlatWithEdges
 70
     1
 71
     2
 72
     1
 73
     1
 90
        2
 40
-0.6
 41
30.0
 62
     5
 63
     7
 74
     1
 91
        0
 64
     7
 65
   257
 75
     1
175
     1
 42
1.0
 92
        0
 66
   257
 43
1.0
 76
     1
 77
     6
 78
     2
 67
     7
 79
     5
170
     0
171
     0
290
     0
174
     0
 93
       13
 44
0.0
173
     0
291
     1
 45
0.0
1001
ACAD
1000
AcDbSavedByObjectVersion
1070
     0
  0
VISUALSTYLE
  5
2C
102
{ACAD_XDICTIONARY
360
252
102
}
102
{ACAD_REACTORS
330
29
102
}
330
29
100
AcDbVisualStyle
  2
Gouraud
 70
     2
 71
     2
 72
     2
 73
     1
 90
        2
 40
-0.6
 41
30.0
 62
     5
 63
     7
 74
     0
 91
        0
 64
     7
 65
   257
 75
     1
175
     1
 42
1.0
 92
        0
 66
     7
 43
1.0
 76
     1
 77
     6
 78
     2
 67
     7
 79
     5
170
     0
171
     0
290
     0
174
     0
 93
       13
 44
0.0
173
     0
291
     1
 45
0.0
1001
ACAD
1000
AcDbSavedByObjectVersion
1070
     0
  0
VISUALSTYLE
  5
2D
102
{ACAD_XDICTIONARY
360
254
102
}
102
{ACAD_REACTORS
330
29
102
}
330
29
100
AcDbVisualStyle
  2
GouraudWithEdges
 70
     3
 71
     2
 72
     2
 73
     1
 90
        2
 40
-0.6
 41
30.0
 62
     5
 63
     7
 74
     1
 91
        0
 64
     7
 65
   257
 75
     1
175
     1
 42
1.0
 92
        0
 66
   257
 43
1.0
 76
     1
 77
     6
 78
     2
 67
     7
 79
     5
170
     0
171
     0
290
     0
174
     0
 93
       13
 44
0.0
173
     0
291
     1
 45
0.0
1001
ACAD
1000
AcDbSavedByObjectVersion
1070
     0
  0
VISUALSTYLE
  5
31
102
{ACAD_XDICTIONARY
360
25C
102
}
102
{ACAD_REACTORS
330
29
102
}
330
29
100
AcDbVisualStyle
  2
Hidden
 70
     6
 71
     1
 72
     2
 73
     2
 90
        0
 40
-0.6
 41
-30.0
 62
     5
 63
     7
 74
     2
 91
        2
 64
     7
 65
   257
 75
     2
175
     1
 42
40.0
 92
        0
 66
   257
 43
1.0
 76
     1
 77
     6
 78
     2
 67
     7
 79
     3
170
     0
171
     0
290
     0
174
     0
 93
        1
 44
0.0
173
     0
291
     0
 45
0.0
1001
ACAD
1000
AcDbSavedByObjectVersion
1070
     0
  0
VISUALSTYLE
  5
3F
102
{ACAD_XDICTIONARY
360
278
102
}
102
{ACAD_REACTORS
330
29
102
}
330
29
100
AcDbVisualStyle
  2
JitterOff
 70
    20
 71
     2
 72
     2
 73
     0
 90
        0
 40
-0.6
 41
-30.0
 62
     5
 63
     7
 74
     1
 91
        4
 64
     7
 65
   257
 75
     1
175
     1
 42
1.0
 92
       10
 66
     7
 43
1.0
 76
     1
 77
     6
 78
     2
 67
     7
 79
     5
170
     0
171
     0
290
     0
174
     0
 93
        1
 44
0.0
173
     0
291
     1
 45
0.0
1001
ACAD
1000
AcDbSavedByObjectVersion
1070
     0
  0
VISUALSTYLE
  5
37
102
{ACAD_XDICTIONARY
360
268
102
}
102
{ACAD_REACTORS
330
29
102
}
330
29
100
AcDbVisualStyle
  2
Linepattern
 70
    14
 71
     2
 72
     2
 73
     0
 90
        0
 40
-0.6
 41
-30.0
 62
     5
 63
     7
 74
     1
 91
        4
 64
     7
 65
   257
 75
     7
175
     7
 42
1.0
 92
        8
 66
     7
 43
1.0
 76
     1
 77
     6
 78
     2
 67
     7
 79
     5
170
     0
171
     0
290
     0
174
     0
 93
        1
 44
0.0
173
     0
291
     1
 45
0.0
1001
ACAD
1000
AcDbSavedByObjectVersion
1070
     0
  0
VISUALSTYLE
  5
40
102
{ACAD_XDICTIONARY
360
27A
102
}
102
{ACAD_REACTORS
330
29
102
}
330
29
100
AcDbVisualStyle
  2
OverhangOff
 70
    21
 71
     2
 72
     2
 73
     0
 90
        0
 40
-0.6
 41
-30.0
 62
     5
 63
     7
 74
     1
 91
        4
 64
     7
 65
   257
 75
     1
175
     1
 42
1.0
 92
        9
 66
     7
 43
1.0
 76
     1
 77
     6
 78
     2
 67
     7
 79
     5
170
     0
171
     0
290
     0
174
     0
 93
        1
 44
0.0
173
     0
291
     1
 45
0.0
1001
ACAD
1000
AcDbSavedByObjectVersion
1070
     0
  0
VISUALSTYLE
  5
33
102
{ACAD_XDICTIONARY
360
260
102
}
102
{ACAD_REACTORS
330
29
102
}
330
29
100
AcDbVisualStyle
  2
Realistic
 70
     8
 71
     2
 72
     2
 73
     0
 90
        2
 40
-0.6
 41
30.0
 62
     5
 63
     7
 74
     0
 91
        0
 64
     7
 65
   257
 75
     1
175
     1
 42
1.0
 92
        8
 66
   257
 43
1.0
 76
     1
 77
     6
 78
     2
 67
     7
 79
     3
170
     0
171
     0
290
     0
174
     0
 93
       13
 44
0.0
173
     0
291
     0
 45
0.0
1001
ACAD
1000
AcDbSavedByObjectVersion
1070
     0
  0
VISUALSTYLE
  5
3E
102
{ACAD_XDICTIONARY
360
276
102
}
102
{ACAD_REACTORS
330
29
102
}
330
29
100
AcDbVisualStyle
  2
Shaded
 70
    27
 71
     2
 72
     2
 73
     1
 90
        2
 40
-0.6
 41
30.0
 62
     5
 63
     7
 74
     0
 91
        4
 64
     7
 65
   257
 75
     1
175
     1
 42
1.0
 92
        8
 66
   257
 43
1.0
 76
     1
 77
     6
 78
     2
 67
     8
 79
     3
170
     0
171
     0
290
     0
174
     0
 93
        5
 44
0.0
173
     0
291
     0
 45
0.0
1001
ACAD
1000
AcDbSavedByObjectVersion
1070
     0
  0
VISUALSTYLE
  5
3D
102
{ACAD_XDICTIONARY
360
274
102
}
102
{ACAD_REACTORS
330
29
102
}
330
29
100
AcDbVisualStyle
  2
Shaded with edges
 70
    26
 71
     2
 72
     2
 73
     1
 90
        2
 40
-0.6
 41
30.0
 62
     5
 63
     7
 74
     1
 91
       10
 64
     7
 65
   257
 75
     2
175
     1
 42
1.0
 92
        8
 66
   257
 43
1.0
 76
     1
 77
     6
 78
     2
 67
     7
 79
     3
170
     0
171
     0
290
     0
174
     0
 93
        5
 44
0.0
173
     0
291
     0
 45
0.0
1001
ACAD
1000
AcDbSavedByObjectVersion
1070
     0
  0
VISUALSTYLE
  5
3A
102
{ACAD_XDICTIONARY
360
26E
102
}
102
{ACAD_REACTORS
330
29
102
}
330
29
100
AcDbVisualStyle
  2
Shades of Gray
 70
    23
 71
     2
 72
     2
 73
     3
 90
        0
 40
-0.6
 41
-30.0
 62
     5
 63
     7
 74
     2
 91
        2
 64
     7
 65
     7
 75
     1
175
     1
 42
40.0
 92
        8
 66
     7
 43
1.0
 76
     1
 77
     6
 78
     2
 67
     7
 79
     3
170
     0
171
     0
290
     0
174
     0
 93
        1
 44
0.0
173
     0
291
     0
 45
0.0
1001
ACAD
1000
AcDbSavedByObjectVersion
1070
     0
  0
VISUALSTYLE
  5
3B
102
{ACAD_XDICTIONARY
360
270
102
}
102
{ACAD_REACTORS
330
29
102
}
330
29
100
AcDbVisualStyle
  2
Sketchy
 70
    24
 71
     1
 72
     2
 73
     2
 90
        0
 40
-0.6
 41
-30.0
 62
     5
 63
     7
 74
     2
 91
        2
 64
     7
 65
     7
 75
     1
175
     1
 42
40.0
 92
       11
 66
     7
 43
1.0
 76
     1
 77
     6
 78
     2
 67
     7
 79
     6
170
     0
171
     0
290
     0
174
     0
 93
        1
 44
0.0
173
     0
291
     0
 45
0.0
1001
ACAD
1000
AcDbSavedByObjectVersion
1070
     0
  0
VISUALSTYLE
  5
36
102
{ACAD_XDICTIONARY
360
266
102
}
102
{ACAD_REACTORS
330
29
102
}
330
29
100
AcDbVisualStyle
  2
Thicken
 70
    13
 71
     2
 72
     2
 73
     0
 90
        0
 40
-0.6
 41
-30.0
 62
     5
 63
     7
 74
     1
 91
        4
 64
     7
 65
   257
 75
     1
175
     1
 42
1.0
 92
       12
 66
     7
 43
1.0
 76
     1
 77
     6
 78
     2
 67
     7
 79
     5
170
     0
171
     0
290
     0
174
     0
 93
        1
 44
0.0
173
     0
291
     1
 45
0.0
1001
ACAD
1000
AcDbSavedByObjectVersion
1070
     0
  0
VISUALSTYLE
  5
30
102
{ACAD_XDICTIONARY
360
25A
102
}
102
{ACAD_REACTORS
330
29
102
}
330
29
100
AcDbVisualStyle
  2
Wireframe
 70
     5
 71
     0
 72
     2
 73
     0
 90
        0
 40
-0.6
 41
-30.0
 62
     5
 63
     7
 74
     1
 91
        4
 64
     7
 65
   257
 75
     1
175
     1
 42
1.0
 92
        0
 66
   257
 43
1.0
 76
     1
 77
     6
 78
     2
 67
     7
 79
     3
170
     0
171
     0
290
     0
174
     0
 93
        1
 44
0.0
173
     0
291
     0
 45
0.0
1001
ACAD
1000
AcDbSavedByObjectVersion
1070
     0
  0
VISUALSTYLE
  5
3C
102
{ACAD_XDICTIONARY
360
272
102
}
102
{ACAD_REACTORS
330
29
102
}
330
29
100
AcDbVisualStyle
  2
X-Ray
 70
    25
 71
     2
 72
     2
 73
     1
 90
        1
 40
0.5
 41
-30.0
 62
     5
 63
     7
 74
     1
 91
        0
 64
     7
 65
   257
 75
     1
175
     1
 42
1.0
 92
        8
 66
     7
 43
1.0
 76
     1
 77
     6
 78
     2
 67
     7
 79
     3
170
     0
171
     0
290
     0
174
     0
 93
       13
 44
0.0
173
     0
291
     0
 45
0.0
1001
ACAD
1000
AcDbSavedByObjectVersion
1070
     0
  0
DICTIONARYVAR
  5
79
102
{ACAD_REACTORS
330
76
102
}
330
76
100
DictionaryVariables
280
     0
  1
1:1
  0
DICTIONARYVAR
  5
78
102
{ACAD_REACTORS
330
76
102
}
330
76
100
DictionaryVariables
280
     0
  1
STANDARD
  0
DICTIONARYVAR
  5
77
102
{ACAD_REACTORS
330
76
102
}
330
76
100
DictionaryVariables
280
     0
  1
STANDARD
  0
DICTIONARYVAR
  5
23B
102
{ACAD_REACTORS
330
76
102
}
330
76
100
DictionaryVariables
280
     0
  1
1
  0
DICTIONARYVAR
  5
23A
102
{ACAD_REACTORS
330
76
102
}
330
76
100
DictionaryVariables
280
     0
  1
1
  0
DICTIONARYVAR
  5
239
102
{ACAD_REACTORS
330
76
102
}
330
76
100
DictionaryVariables
280
     0
  1
0
  0
DICTIONARYVAR
  5
236
102
{ACAD_REACTORS
330
76
102
}
330
76
100
DictionaryVariables
280
     0
  1
0
  0
DICTIONARYVAR
  5
237
102
{ACAD_REACTORS
330
76
102
}
330
76
100
DictionaryVariables
280
     0
  1
0
  0
DICTIONARYVAR
  5
235
102
{ACAD_REACTORS
330
76
102
}
330
76
100
DictionaryVariables
280
     0
  1
2
  0
DICTIONARYVAR
  5
234
102
{ACAD_REACTORS
330
76
102
}
330
76
100
DictionaryVariables
280
     0
  1
1
  0
DICTIONARYVAR
  5
238
102
{ACAD_REACTORS
330
76
102
}
330
76
100
DictionaryVariables
280
     0
  1
127
  0
DICTIONARYVAR
  5
244
102
{ACAD_REACTORS
330
76
102
}
330
76
100
DictionaryVariables
280
     0
  1
2
  0
DICTIONARY
  5
27F
330
6B
100
AcDbDictionary
280
     1
281
     1
  3
ACAD_XREC_ROUNDTRIP
360
280
  0
DICTIONARY
  5
283
330
73
100
AcDbDictionary
280
     1
281
     1
  3
ACAD_XREC_ROUNDTRIP
360
284
  0
DICTIONARY
  5
281
330
6F
100
AcDbDictionary
280
     1
281
     1
  3
ACAD_XREC_ROUNDTRIP
360
282
  0
DICTIONARY
  5
1A
330
19
100
AcDbDictionary
280
     1
281
     1
  3
ACAD_XREC_ROUNDTRIP
360
24C
  3
BUMPTILE
360
1C
  3
DIFFUSETILE
360
1B
  3
OPACITYTILE
360
1F
  3
REFLECTIONTILE
360
1E
  3
REFRACTIONTILE
360
20
  3
SPECULARTILE
360
1D
  0
DICTIONARY
  5
12
330
11
100
AcDbDictionary
280
     1
281
     1
  3
ACAD_XREC_ROUNDTRIP
360
24B
  3
BUMPTILE
360
14
  3
DIFFUSETILE
360
13
  3
FBXASSET
360
F4
  3
OPACITYTILE
360
17
  3
REFLECTIONTILE
360
16
  3
REFRACTIONTILE
360
18
  3
SPECULARTILE
360
15
  0
DICTIONARY
  5
22
330
21
100
AcDbDictionary
280
     1
281
     1
  3
ACAD_XREC_ROUNDTRIP
360
24D
  3
BUMPTILE
360
24
  3
DIFFUSETILE
360
23
  3
FBXASSET
360
BA
  3
OPACITYTILE
360
27
  3
REFLECTIONTILE
360
26
  3
REFRACTIONTILE
360
28
  3
SPECULARTILE
360
25
  0
DICTIONARY
  5
247
330
67
100
AcDbDictionary
280
     1
281
     1
  3
ACAD_XREC_ROUNDTRIP
360
248
  0
DICTIONARY
  5
1F1
330
65
100
AcDbDictionary
280
     1
281
     1
  3
ACAD_ROUNDTRIP_2008_TABLESTYLE_CELLSTYLEMAP
360
246
  3
ACAD_XREC_ROUNDTRIP
360
27E
  0
DICTIONARY
  5
258
330
2F
100
AcDbDictionary
280
     1
281
     1
  3
ACAD_XREC_ROUNDTRIP
360
259
  0
DICTIONARY
  5
256
330
2E
100
AcDbDictionary
280
     1
281
     1
  3
ACAD_XREC_ROUNDTRIP
360
257
  0
DICTIONARY
  5
264
330
35
100
AcDbDictionary
280
     1
281
     1
  3
ACAD_XREC_ROUNDTRIP
360
265
  0
DICTIONARY
  5
26C
330
39
100
AcDbDictionary
280
     1
281
     1
  3
ACAD_XREC_ROUNDTRIP
360
26D
  0
DICTIONARY
  5
25E
330
32
100
AcDbDictionary
280
     1
281
     1
  3
ACAD_XREC_ROUNDTRIP
360
25F
  0
DICTIONARY
  5
262
330
34
100
AcDbDictionary
280
     1
281
     1
  3
ACAD_XREC_ROUNDTRIP
360
263
  0
DICTIONARY
  5
27C
330
41
100
AcDbDictionary
280
     1
281
     1
  3
ACAD_XREC_ROUNDTRIP
360
27D
  0
DICTIONARY
  5
26A
330
38
100
AcDbDictionary
280
     1
281
     1
  3
ACAD_XREC_ROUNDTRIP
360
26B
  0
DICTIONARY
  5
24E
330
2A
100
AcDbDictionary
280
     1
281
     1
  3
ACAD_XREC_ROUNDTRIP
360
24F
  0
DICTIONARY
  5
250
330
2B
100
AcDbDictionary
280
     1
281
     1
  3
ACAD_XREC_ROUNDTRIP
360
251
  0
DICTIONARY
  5
252
330
2C
100
AcDbDictionary
280
     1
281
     1
  3
ACAD_XREC_ROUNDTRIP
360
253
  0
DICTIONARY
  5
254
330
2D
100
AcDbDictionary
280
     1
281
     1
  3
ACAD_XREC_ROUNDTRIP
360
255
  0
DICTIONARY
  5
25C
330
31
100
AcDbDictionary
280
     1
281
     1
  3
ACAD_XREC_ROUNDTRIP
360
25D
  0
DICTIONARY
  5
278
330
3F
100
AcDbDictionary
280
     1
281
     1
  3
ACAD_XREC_ROUNDTRIP
360
279
  0
DICTIONARY
  5
268
330
37
100
AcDbDictionary
280
     1
281
     1
  3
ACAD_XREC_ROUNDTRIP
360
269
  0
DICTIONARY
  5
27A
330
40
100
AcDbDictionary
280
     1
281
     1
  3
ACAD_XREC_ROUNDTRIP
360
27B
  0
DICTIONARY
  5
260
330
33
100
AcDbDictionary
280
     1
281
     1
  3
ACAD_XREC_ROUNDTRIP
360
261
  0
DICTIONARY
  5
276
330
3E
100
AcDbDictionary
280
     1
281
     1
  3
ACAD_XREC_ROUNDTRIP
360
277
  0
DICTIONARY
  5
274
330
3D
100
AcDbDictionary
280
     1
281
     1
  3
ACAD_XREC_ROUNDTRIP
360
275
  0
DICTIONARY
  5
26E
330
3A
100
AcDbDictionary
280
     1
281
     1
  3
ACAD_XREC_ROUNDTRIP
360
26F
  0
DICTIONARY
  5
270
330
3B
100
AcDbDictionary
280
     1
281
     1
  3
ACAD_XREC_ROUNDTRIP
360
271
  0
DICTIONARY
  5
266
330
36
100
AcDbDictionary
280
     1
281
     1
  3
ACAD_XREC_ROUNDTRIP
360
267
  0
DICTIONARY
  5
25A
330
30
100
AcDbDictionary
280
     1
281
     1
  3
ACAD_XREC_ROUNDTRIP
360
25B
  0
DICTIONARY
  5
272
330
3C
100
AcDbDictionary
280
     1
281
     1
  3
ACAD_XREC_ROUNDTRIP
360
273
  0
XRECORD
  5
280
102
{ACAD_REACTORS
330
27F
102
}
330
27F
100
AcDbXrecord
280
     1
102
SHADEPLOT
 70
     0
102
SHADEPLOTRESLEVEL
 70
     2
102
SHADEPLOTCUSTOMDPI
 70
   300
  0
XRECORD
  5
284
102
{ACAD_REACTORS
330
283
102
}
330
283
100
AcDbXrecord
280
     1
102
SHADEPLOT
 70
     0
102
SHADEPLOTRESLEVEL
 70
     2
102
SHADEPLOTCUSTOMDPI
 70
   300
  0
XRECORD
  5
282
102
{ACAD_REACTORS
330
281
102
}
330
281
100
AcDbXrecord
280
     1
102
SHADEPLOT
 70
     0
102
SHADEPLOTRESLEVEL
 70
     2
102
SHADEPLOTCUSTOMDPI
 70
   300
  0
XRECORD
  5
24C
102
{ACAD_REACTORS
330
1A
102
}
330
1A
100
AcDbXrecord
280
     1
102
MATERIAL
148
0.0
149
0.0
149
0.0
 93
        0
 94
      127
282
     0
 72
     0
 77
     0
171
     0
175
     0
179
     0
273
     0
  0
XRECORD
  5
1C
102
{ACAD_REACTORS
330
1A
102
}
330
1A
100
AcDbXrecord
280
     1
270
     1
271
     1
  0
XRECORD
  5
1B
102
{ACAD_REACTORS
330
1A
102
}
330
1A
100
AcDbXrecord
280
     1
270
     1
271
     1
  0
XRECORD
  5
1F
102
{ACAD_REACTORS
330
1A
102
}
330
1A
100
AcDbXrecord
280
     1
270
     1
271
     1
  0
XRECORD
  5
1E
102
{ACAD_REACTORS
330
1A
102
}
330
1A
100
AcDbXrecord
280
     1
270
     1
271
     1
  0
XRECORD
  5
20
102
{ACAD_REACTORS
330
1A
102
}
330
1A
100
AcDbXrecord
280
     1
270
     1
271
     1
  0
XRECORD
  5
1D
102
{ACAD_REACTORS
330
1A
102
}
330
1A
100
AcDbXrecord
280
     1
270
     1
271
     1
  0
XRECORD
  5
24B
102
{ACAD_REACTORS
330
12
102
}
330
12
100
AcDbXrecord
280
     1
102
MATERIAL
148
0.0
149
0.0
149
0.0
 93
        0
 94
      127
282
     0
 72
     0
 77
     0
171
     0
175
     0
179
     0
273
     0
  0
XRECORD
  5
14
102
{ACAD_REACTORS
330
12
102
}
330
12
100
AcDbXrecord
280
     1
270
     1
271
     1
  0
XRECORD
  5
13
102
{ACAD_REACTORS
330
12
102
}
330
12
100
AcDbXrecord
280
     1
270
     1
271
     1
  0
XRECORD
  5
F4
102
{ACAD_REACTORS
330
12
102
}
330
12
100
AcDbXrecord
280
     1
 70
     1
 90
1959938040
 71
     1
  1
2075E76F-86BC-46FE-A27D-A613558DE32B
311
504B03040A0000080000BB6868413DEE336E79000000790000001B0000006175746F6465736B2D64657369676E2D7061636B6167652E786D6C3C3F786D6C2076657273696F6E3D22312E302220656E636F64696E673D227574662D3822203F3E3C666F726D6174733E3C666F726D61743E687474703A2F2F736368656D612E
311
6175746F6465736B2E636F6D2F64657369676E2D7061636B6167652F323030393C2F666F726D61743E3C2F666F726D6174733E504B0304140006080800BB686841D486FD9CA0000000F4000000130000005B436F6E74656E745F54797065735D2E786D6C7D8EC10E82300C865F65E91D8A1E8C310C0EEA1BF002731658846E
311
D98AC1B77784ABF1D8FE5FBFBF75BBCE937A534CCEB38643598122B6FEE978D0B0485F9C41B54DDD7D022595594E1A469170414C76A4D9A4D207E29CF43ECE46F218070CC6BECC4078ACAA135ACF422C856C0E68EA1BF5669944DDD7BCDE7B1F8E415D77AECB980613C2E4AC91FC167A2B244592486606FC29C8FD7F045B9A
311
EF7053A7E60B504B0304140006080800BB6868411212C1B0E90000007C01000008000000636F72652E786D6C8D90516EC3201044AF82F61F1BB0A9E20813354E7A825E0001715062B00C543D7E71E248ED5FBF7634CC6357230EDFD31D7DD925BAE07BA0150164BD0EC6F9B1879C2E7807E820C51242FA1503E4D5647B586D
311
90625C429E374B079FAC4FC5F5C1D8CD5431DA0448DF8BE821EAAB9D54A5722A8978AB66A56F6AB4157DA902E7EC0C7A2E71A6FCE72ECE2E203F1AD6D177CA717BECCEB86503C7DD796871D7313E1C39390DA73751AFB014C94DAFFD7AB12A59039211CA30A598EC3E69B3277CCFDBA2F784887A8DFF81F26CFE0965E753C3
311
B6739F580449CB218F0729EAB58B321E4595B9F6267F00504B0304140006080800BB68684155019EA25F0000007C00000007000000636E782E786D6C4DCB3B0E80201045D1AD90E915ED2CF8AC45050C11660C8261F98AB1B07AC9C97D42D718D865D3E909258CFD00CCE24AC6E326A164D74DC0B4128928FF326038472BA1
311
3128B1252AC747C6BAB984FC68F0B87FE8960A5C09FE86CFB69FBA01504B0304140006080800BB68684104EBEA5E65010000020300000C0000006662782F636F72652E786D6C8D52ED8E8320107C15C27F45AC5E6A833457DB7B827B01AAD423553008A68F7FEB47E3F5D2348D0992999DDDD951B6BFB50D1AA4ED95D139A6
311
618491D4A5A994AE73ECDD25D862B4E7CC1AE3FE9461A4452B733CC298B3DA1ADF2D5069B493DA01AA4D251750F4BD7418950D5C72DC973FB215A1F00E2AFA6BD889F22A6A19D21068A8E3AC77160CA079C878627E39DF189971CEBC57D5C2AA0AA6A98B9216F3AF4D9CD14F9A06C9213B05495CA441762A9220CBE2B438A4
311
D1B1387E30328A3973AABDBB2BAD144E5698C7118D034A8368FB4D37BB28DDA509DC7751C4C858FE20F25DF5A6C82BED36F1627796F59853303211FFB685881CEAC5007E0867640C115E53C28F41432010B213E7E6BEC715A04196CED80498CAF8951A44E3254C8DD0F43032B3D0796A009B3DED13BFE8F3BA077C40A16BB0
311
261C5CCFDE8DD3D93C7589A2933618DC0D69635BD1ACE6668BEBB90E7A2A2F4D63EC3B6AB2AC4A9630C9F8F7F25F504B0304140006080800BB68684189F6962A7D0000009D0000000B0000006662782F636E782E786D6C4DCCD10A83201886E15B91FFDCFAAD160DD4C891F711CB42663A9C8E5DFE6A74B0A30F1E3E5EDE7F
311
3647DE26BE6CF0025881408CBF87D9FA55404E0BED80F492C710D2DF0D889F3623E060907C8D213F4F9ACD3265977675D63F4ED47AAC748748D57041DAE0ADA5C3A834D5ECDA62AD946A18422979F92BED7B84E517504B0304140006080800BB686841796C2E982901000014020000310000006662782F4646453246383030
311
2D424135302D343043362D414542462D4631393630334242423431302F636F72652E786D6C8D51CB6EC23010FC15CB277A70B0431228728C4845BEA03F6062432D881DF951F1F95D37416A6F5CBCD6ECCCEC68971F1EE31D7D6B1F8CB32D6605C548DBC12963AF2D4EF14276181D04F7CEC53F348CAC1C758B338C05BF7A97
311
A6051A9C8DDA4640AD537A0165083A6234DCE1D3E2307CE95116324560845B31C9E126AFBA6005B4812778881E02A079487EB1E8FB53D9EF2825DDB1A6A4A21F0D399EBA9EF4ECBDA19BAEEB2A46F97A160A9E92518BDC2888632E46FB574DB258F068C667FCC16B19B5C2A2A4AC248C11BAFB649B3DADF77505FF3D85C999
311
FE4F9426F5A228191B37E5127796052C185FCF0DC1954BE7FB338C7E4CCE4794E7AD821EDEB0A005A5DB6ACB1A90CC5458007836D5E219A2F3B0E0D5ED0C6C56CFC64D25F83ADF08CAEF01A1E67B8A1F504B0304140006080800BB686841AE1494154C01000033030000300000006662782F46464532463830302D42413530
311
2D343043362D414542462D4631393630334242423431302F636E782E786D6CD593CD6EC23010845FC5F29D24868010728CD4439FA0875E1D7BA12E8E1DF9A72A6FDF3518CA85438FBD58D6ECE799D528E1FBEFC9922F08D1783750D6749480535E1B771C684E87C59692BDE0C1FBF48051E2E404032D3215FC187C9EABA4E1
311
20B34DA85AE34E550C107D0E0A22CAE525B15E498B06E01619459846D01A34B983783B40C055501CCF247D00797D79277EFC0495226F8B8BE06DC910BC9C35E901A2445919E340A3FA8049363227AF219E1A2D936C5873CB7AB2D3AF13290F6E91391852C2075A4E2AEA460DF6C85B1C0A1E53C0F62A94CE335021E7D91A25
311
1396DC5EC02B2378362E6DFACA1A2C3E20CD36ABBE47B3CB4CF06426A8840A2013682A961D5B2E185B74DB37B6DA75EBDDBAC7FBAEEB785B70C147EF6D7D843610FC4C9477095CA282F1B68C9FD55739A24DC0AE7D38FFA1482CA0A65EDBB97BFCE77EDACBF78D7505FC0BC40F504B0304140006080800BB6868418E8BFDD8
311
A405000081100000340000006662782F46464532463830302D424135302D343043362D414542462D4631393630334242423431302F6F626A656374732E786D6CAD57D96EDB3814FD1541F332F3E045B6B30D14155E92C268D316355ACC830183962885136A014925CE7CFD1C8A942CB976EA19F4450B97CB7BCF3D77A1FF6E
311
9772E7990AC9F2ECD6F5FA43D7A15998472C4B6EDD52C5BD6BD77917F822CF556B99EB6424A5B7AE1E76033F117959D8A188C6A4E4EA60F47EF69723439A51D7093991F2D695E1234D499F942A8FA87CEA4744917E12EFFA5EDF2CEC8A4D04291E0F841644D04C41538C6790E218A5BCEEEFD01D04FE40CF07BE7EDA55E3D3
311
AB06953DDDF3592615C9C21F0E3B1033F6268BBBD1C54DEF623219F7269723AF37BB9F2D7ADED57838BF9CCF6FA6773738582A01495613416337780F6C040BFD81990AFC92656A3CB24BAC8306823E33ED293718399E3F306B1AEBAC91C7D40FF32CA3618515D0A8ECB3A2235AD02C82CF1995D0AC85D0B0FBEB691C5BD363
311
FD6F8F6C0F9F87407B474B50AD7BFD6E6B9A6FFF8609F21C06094935030D96D650C3D5E11EE16D9E733BC7A49312450523DCE16C2B887875032CD54B02BF23463359E868D016B801BC60A6BB744118FD9CE7C7B48C4BCE358DDDA08A820D62852A5969C6FEA162AF7D1B19E8045F69365C5B83D46B41DDE0C650E4FA804D06
311
4827E62481CB61A6DE391E1D183AD771BA5CB8C187FBED6EA563F7F8E185C80B2A94A60FA8553BAE7E6B94AC4EDE599ED31BDC0355F6A07C05F29F10EA7B55E037C17693DDC49EA204C9649C8B14BE71864E6F88C7D0F1AAA7FE6E7DF9836673D77BA7F084B33554BF00CFAE0D6D5FB6E00CFC67103E17636BDA2A241C69E3
311
8165004893C4E139869087E3EDCE0D96C872C8CAD84578E0C164A8FB8C4F7F60C520515427B5DE19B03C488B672468C05631126A18F25B05F77EFA219D5507DB65A7E0BDF825749D2E561F56A58849481F6C4C2F68CC32A650E2F6BC692BD4C1BC63D1137D7DC94504437FC47BD5C63BB54749A0AD31D7C027754ED73FFB93
311
3B0784D897E43ADDF83F390146E8C2DA92FFC06448392719CDCBFADC37EB07CA86815807BB66725360F68505A43133073188221D0A5668109B6AD524CDFE09EBBE2D3F81916E307BFD485EDBD96BBBCFBD61CE73B1D9BE6E4C5A3A0AF5F72EB72D06032D0574AF82A48E7F0BFA2662715C4A24C123B87E5FCEDBBED3690129
311
A2966AA26502FB115C4458D2D67251AD054125CDB30D43DD44DC1D3DA02D1F905A0654024F692C298F378CF332DDC48CA31A6D52529C80E3FFEBBF2DD36243D2BCCCD409D91DD5511DBABA77D82B5F880A1FDD6055BD7B33E4DE884627C8A06BC911AC3AAE1D0DAF2EEEAE2EEF7BD797B339FAA7FBBBDE7474B5E84D2FBDF1
311
C5C5F5E26E3C9AD57E329A047E5D6ADA110D2FA1B4F9A560D67DDF96881F9B04DCE08128B97E6FC2B37E7F5BF6D10BFB03EC41BD6C364EA367F47D34FAB980FDCAA3829669C1694A3345740C3DE80FFE95A0CFE82863C6972949E819523EBF5F1D18839133F67DD1F14E5F0EF6DAD1B90EC8A342D463996E33C2F8C1C6C420
311
D92FB2C4E257FBA4799B4253FFEA3FEB1874A632E72C421E8C9C84E62955C886671421915209EAB57BFAC8DE3DCED8FD6C3A4445B69CD69A3C1234C95C222C40AD3254DD71E7373475BAAFBA75516EFB4F78D84CE13AE0CCAD8B265DB190CAFE16055AB742957070A9DDC9A3F12759C2D16B9B4DCD7FB34B63D329C9CD9273
311
FA276B9749E1D600A491027D031A2278A75226F02BDDEC7CF89F0CAFD57188C2E7B6548D2DFB81C698EA1884A831CADE16D0C43CD9A37708D4B7CDF2FAD59A0E2267DDB2DE248191DA534424D54D41EB67559A2EBE0CD0A138CBCF4EC1CB04BE3C5F524F5090B9D4010E16811556664114A83AFF73FD45E4B8C9A6CE3D0305
311
9CDF77D7977FACE7799AE699195A4FED7DD8593DE2761BAD911CA8BE96C8F568E88DD6D575C0DE50365B22699F44F20903F0AC600DD01DF78397E6CE883A64269A7503ED8A03862E178E2D6C1308B57469E7560D0E1A8F8C3A88217DA5D411D35E50BC792318544BA182402F1FFC0B504B0304140006080000BB6868410000
311
00000000000000000000350000006662782F46464532463830302D424135302D343043362D414542462D4631393630334242423431302F76657274696365732E62696E504B0304140006080800BB686841F270F1330600000004000000360000006662782F46464532463830302D424135302D343043362D414542462D4631
311
393630334242423431302F747269616E676C65732E62696E636660600000504B0304140006080000BB686841000000000000000000000000370000006662782F46464532463830302D424135302D343043362D414542462D4631393630334242423431302F617474726962757465732E62696E504B0304140006080800BB68
311
6841D5987DFC8F00000041010000360000006662782F46464532463830302D424135302D343043362D414542462D4631393630334242423431302F6469726563746F72792E786D6C858F410EC2201045AF4266AF15DDB800BA74E7C21B903225242D6328188F2FA5C4183471359997F9FF81E89FF3C41E1816475E02DF1F80
311
A11FC8386F25A438EECEC07A250251FC3803E6F58C12560C4AD840E95E91C151A72936F496F35732D860FE635F62C8F2DA16B505C545B74125BAA2FA9E05D7CC053D063734D5C7665FD55B6B8D15D5E9BFEAFD8490FFA45E504B0304140006080800BB68684101B9EF28FC000000A00100003B0000006662782F4646453246
311
3830302D424135302D343043362D414542462D4631393630334242423431302F7265736F75726365732F636F72652E786D6C8D504B6E833010BD0A9ABDC1365085C8386A487A825EC032136A25D8C89FAAC7AF09546A77DDCC8CDE47F3F4C4E96B7E149FE88371B607565228D06A371A3BF590E28D1CA03849E19D8BBF6450
311
5835630F2B0C524CDEA56587B4B3116DCCA87523EEA00A012314FA918F1E82FEC059952AC5AC08F77251FAAE262C5999E9AC9322449F0314DB937582F4185CF21A83A836568A94CCB86BCC987F9A9B410FF2ADE61D7B650D69CEDD95347C6849771D1AD275BC1DCE2DBD0C971751AD6629A2997F326A8F2AE2089253C60963
311
841EDE597DA4EDB16DF27DA45454ABFC8F292DE33F4DC9D858F33DEE660B20590EF224A4A8D6BEF27A9699F7DAADFC06504B010214000A0000080000BB6868413DEE336E79000000790000001B00000000000000000000000000000000006175746F6465736B2D64657369676E2D7061636B6167652E786D6C504B01021400
311
140006080800BB686841D486FD9CA0000000F40000001300000000000000000000000000B20000005B436F6E74656E745F54797065735D2E786D6C504B01021400140006080800BB6868411212C1B0E90000007C010000080000000000000000000000000083010000636F72652E786D6C504B01021400140006080800BB68
311
684155019EA25F0000007C000000070000000000000000000000000092020000636E782E786D6C504B01021400140006080800BB68684104EBEA5E65010000020300000C00000000000000000000000000160300006662782F636F72652E786D6C504B01021400140006080800BB68684189F6962A7D0000009D0000000B00
311
000000000000000000000000A50400006662782F636E782E786D6C504B01021400140006080800BB686841796C2E98290100001402000031000000000000000000000000004B0500006662782F46464532463830302D424135302D343043362D414542462D4631393630334242423431302F636F72652E786D6C504B010214
311
00140006080800BB686841AE1494154C010000330300003000000000000000000000000000C30600006662782F46464532463830302D424135302D343043362D414542462D4631393630334242423431302F636E782E786D6C504B01021400140006080800BB6868418E8BFDD8A40500008110000034000000000000000000
311
000000005D0800006662782F46464532463830302D424135302D343043362D414542462D4631393630334242423431302F6F626A656374732E786D6C504B01021400140006080000BB6868410000000000000000000000003500000000000000000000000000530E00006662782F46464532463830302D424135302D343043
311
362D414542462D4631393630334242423431302F76657274696365732E62696E504B01021400140006080800BB686841F270F13306000000040000003600000000000000000000000000A60E00006662782F46464532463830302D424135302D343043362D414542462D4631393630334242423431302F747269616E676C65
311
732E62696E504B01021400140006080000BB6868410000000000000000000000003700000000000000000000000000000F00006662782F46464532463830302D424135302D343043362D414542462D4631393630334242423431302F617474726962757465732E62696E504B01021400140006080800BB686841D5987DFC8F
311
000000410100003600000000000000000000000000550F00006662782F46464532463830302D424135302D343043362D414542462D4631393630334242423431302F6469726563746F72792E786D6C504B01021400140006080800BB68684101B9EF28FC000000A00100003B00000000000000000000000000381000006662
311
782F46464532463830302D424135302D343043362D414542462D4631393630334242423431302F7265736F75726365732F636F72652E786D6C504B0506000000000E000E00800400008D1100000000
310
504B03040A0000080000BB6868413DEE336E79000000790000001B0000006175746F6465736B2D64657369676E2D7061636B6167652E786D6C3C3F786D6C2076657273696F6E3D22312E302220656E636F64696E673D227574662D3822203F3E3C666F726D6174733E3C666F726D61743E687474703A2F2F736368656D612E
310
6175746F6465736B2E636F6D2F64657369676E2D7061636B6167652F323030393C2F666F726D61743E3C2F666F726D6174733E504B0304140006080800BB686841D486FD9CA0000000F4000000130000005B436F6E74656E745F54797065735D2E786D6C7D8EC10E82300C865F65E91D8A1E8C310C0EEA1BF002731658846E
310
D98AC1B77784ABF1D8FE5FBFBF75BBCE937A534CCEB38643598122B6FEE978D0B0485F9C41B54DDD7D022595594E1A469170414C76A4D9A4D207E29CF43ECE46F218070CC6BECC4078ACAA135ACF422C856C0E68EA1BF5669944DDD7BCDE7B1F8E415D77AECB980613C2E4AC91FC167A2B244592486606FC29C8FD7F045B9A
310
EF7053A7E60B504B0304140006080800BB686841318A7C57E90000007C01000008000000636F72652E786D6C8D905D6EC3201084AF82F61D1B1CBB4D2C4CD438F6097A0104C44189C1E2A7EAF18B13476ADFFAB4A3613E7635ECF83DDFD197F6C138DB012D08206DA553C64E1DA478C17B4047CEBC73F1570C9015B3EE60B5
310
81B3C9BBB46C9674366A1BB36B9DD29B2942D01190BC67D14190573D8B42A49813E1562C42DEC4A40BFA52194EC928F45C6254FECF5C8CF6C04FFDF9D09061C4C3617CC375D3137C7AA704F7CD79AC474AE8D07FB07285398B667EED975E8BA815F08AD00A538AC9FE93EE5AD2B44D9D754B082BD7F81F282DEA9F503236EE
310
AAEDDC271680D37CC8E381B372ED228F475179AEBDF11F504B0304140006080800BB68684155019EA25F0000007C00000007000000636E782E786D6C4DCB3B0E80201045D1AD90E915ED2CF8AC45050C11660C8261F98AB1B07AC9C97D42D718D865D3E909258CFD00CCE24AC6E326A164D74DC0B4128928FF326038472BA1
310
3128B1252AC747C6BAB984FC68F0B87FE8960A5C09FE86CFB69FBA01504B0304140006080800BB686841E84C01DD65010000020300000C0000006662782F636F72652E786D6C8D52ED8E8230107C95A6FFA12DC29D9A5273A23CC1BD4085CA11A125A5253EFE2D1FC6F3628C2129CDCCCEEEEC00DF5DDB060DCAF6B5D12966
310
21C548E9C294B5AE52ECDD395863B413DC1AE3FE9461A465AB523CC258F0CA1ADF2D5061B453DA01AA4DA91650F6BD7218150D5C52DC173FAA95A1F40E2AFA4BD8C9E2222B15B21068A813BC77160CA079C87862713E5D399971C1BDAFCB85AD4B98569F6B65B1D867874D428F7970DCE41F419C6434D87F321A64C9218F73
310
46D931FBE264140BEEEAF6E6AEB04A3A5562115116058C0574FDCD565B9A6C9318EE5B4A3919CB1F44BE2BDF14F95ABB55B4D89D653D160C8C4CC4BF6D2122877A39801F2238194384D794F063D0100884ECE4A9B9ED7101685085333606A634FE4E0DB2F10AA652343D9CCC2C749E1AC0664FFB442FFABCEE011F50EA0AAC
310
4907D79377E3743E4F5DA2E8940D067745DAD856367773B3C5FB791FF4545E98C6D877D46459952C6192F1EF15BF504B0304140006080800BB686841C68EB2D27D0000009D0000000B0000006662782F636E782E786D6C4DCCD10A83201886E15B91FFDCD54CC71FA8D136BC8F581632D3703A76F9ABD1C18E3E78F87865F7
310
593C79DBF4723128389F6A20363CE2E8C2ACA0E48922904ECB1463FEBB0109C36215EC0C5ACE2996F5A0D14E43F17953EFC2F340EC8D11AC6FA9682E37CA19E714AF02E99D37358A169119039596D5AFB4ED1ED65F504B0304140006080800BB686841A84E9AF82B01000015020000310000006662782F3841464635324139
310
2D353336432D343234342D384235382D4434333038353938383246462F636F72652E786D6C8D51CB6EC32010FC15C4293DD8068C1D1261A2B495BFA03FE000495062B07854F9FCE2DA91DA5B2E2C9A9D991DEDF2C363BC836FED8371B683B84410682B9D32F6D2C114CF0583E020B8772EFEA141608751777086A1E017EFD2
310
B442D2D9A86DCCA8754AAFE010828E10C87BFE7430C8AB1E8772483133C2AD9C06791B2EBAC4656E679EE021FA1C002C43E6170A76ECFB861C774553B71F05259416ECBD61C527AD116B768C91BEE7D522143C25A356B951398E391BED5F3599C58247333EE34BAF87A81514046152605C20F685EB3D6AF60DCDFF3D42BC9A
310
E9FF4469522F8A92B1B1266BDC4516A0C0BC5A1A822B974EF76718FD989C8F609EB7095ABE41814A84B6DB9AB4ED96570B376F209BB674350DD1F9BCE1CDED94E9F5EADC52C1ABF948B9FC5E30D7F9A0E207504B0304140006080800BB686841C8B35B025301000033030000300000006662782F38414646353241392D3533
310
36432D343234342D384235382D4434333038353938383246462F636E782E786D6CBD93CD6E022114855F85B09F3F1D8D310C265DF409BAE89681AB521998F0D3D4B7EF45D1BA71D1A4E98690730FE7DC7C9961BBAFC9904FF0413B3BD0AE6E29012B9DD2F630D014F7D586921D67DEB9F860A3C48A09069A65CAD9C1BB3417
310
49C15E24135135DA9E8AE821B8E4250494F34B629C140603C05609459846500A14B91BF1B6078FABA0389E493C02797D79276EFC0019036B720A674DEEE02C9FA5E9C144893422848106798449D42245A7209C6A25A2A8BBFAD6F564A79F24921FDC2A93D724970F349F94978D6AE4C81A1C7216A2477AC514CF33502EE6D9
310
682922426E2EC6AB87B3A46D5CF7C5AB11BC47F772B1DE6C30EC32E32CEA098A437A101114E58BB65B545D57B59BB76EB96D57DB558FF76DDBB226DB391B9D33E511C680773391CE46B091F28E3579FC0C5FF111A53DB276FEFC0B9008A0B45EE9DC33FE924FB75EF6FD3FF2692EDF37E2F2F817F06F504B03041400060808
310
00BB68684171C81285660700009A1B0000340000006662782F38414646353241392D353336432D343234342D384235382D4434333038353938383246462F6F626A656374732E786D6CED595B73A33816FE2B14FBB2F3606C7C49275B84A9C44EBA5CB399E91A6F77CD83AB281964A28D109424D2F1FEFA3DBA808198044F67
310
DEE6C106847474CE77AE3A043FBF64D479C65C909C5DBBBE37711DCCE23C212CBD764BB91F5DBACECF61C0F35C36A6B90E4319BE76D5B01B0629CFCBC20E25788F4A2A3BA3F7B77F3822C60CBB4E4C9110D7AE881F71863C54CA3CC1E2C94B90445EBA7FF17CCF4C6C934D392A1E3B440BC43193C0298C33A0E218A6FCF6E3
310
C41D87C158BD0F03F56F67CD06CD9AF7CF1A6BA9DB5C12262462F12B963A646683589AF9F3D5DD7471355ACCE7B3D1FC62EA8F6EEF6F5723FFD36CB2BC582EAF6EEEAE80BD5D9E532B53820BCC12D0DFC10DFD60ACDED4A25B044E711DE78CE15803095069B1BA040916B05503BE49FBD15712355E6B091BCF73F5DEB2D018
310
9EB5A9F4CD1A06448B2E0862B7AB24AEAE4DF9F2DD7F417031C428B9C012B8159283762D3C1CBCC20D27C1D88C86C1EEA80B229C0C49CC09A20E253B8E382805A6AA296160165832CA3938907294045A73E675DBB6C033DF779D535CEE4B4A9567B8A176AC08DC0F4BA13923FFC3FCC87D1319E009A42D099397964B7928B0
310
1B5E05633D1806EA329BDA970648674F512A3422E66D47D0A572FDF5CA0D7FB9DFBD6C543838BD79C1F30273A98C4EE951F305866CAF0A25BBAD3F48736A01086340B52B8FA0FC0EC8FF0AD1E3C80AE88D9397F9CBDCCE951C31B1CF7906BA7126CE68027F13C7D7FFEABE71178CEBC56DEDF5E1096EAAA0BAFC713CDB3268
310
AC2CFF0D38C3E0190C3EE733FB6A13230AF6FC401800A48CC4A1390C4168DFEF5EDC700D8113023DAC4234F4416460F7196E83B12573D44AE55ED6EB18206AF7980D5112C0A62D12D8E8D1D367C81E9CC447353545EC8377F121E67AB3DAFCB229F91EC5F8C1FAF40AEF092312B2E669865A98B7247AC287EF394F40D0D778
310
6F9A7867762B01682BCC15F06905827A38EEDCDA20867569AEC24DF0CE0E2084CAD50DFA0F44C49852C4705E56FBD6D14D196AEDF1B66670C3A9817836ED9830C7CF445515E034C7192D4621EFC79C140A4437FC6C24AB83A6D723DDD7F5AF6091F5FC9E596B06A19721FA1F1DB44EE0D0B2EC0A690B442DF0EE18CEE39CE6
310
3CDA1D2213E95CA825808DB6B77C6B1185586F94A4A8800769BFAB424A6AA48D12B2DF9702E2EA0916BFAD974D739878337FE134FF3BCE3887680BBE8BB8F5BBCE1E11C9508AA33D4AFAB66BEE56D3169A640F698EF714E422CF441E2224A34982D373A0398BF8D587524F692E04615840BE3A097E138D890781C468B36259
310
69B5033411518625A2E720A0C8F480ABD38EAE7163281DDEE7B1B6DEB734D624FA17590447504BE62C22508A420E799771DF5B400C69A36B50EEE00BD656D1D662D0124A88F8107DC7247D94E7A06EC8F7E01EC391A494515EA018CC7A00D957BEA294DAE17D87E227953FA2B8A41F652002D37D44282DB3087E84C1C96388
310
6BD781E94D141AC44DEC933883A20CC9920FD9E4623179B58FA919BA21B0B1D19E5008DB51868A1ED45B0151D7234E0DBEA5DEA3D45D991511CAF2920D32146FD6F5264BBEAB56457620BFAA5484B2B1226C09860161B2CEAA55CC0653D78115DC4807AA4324505650730A7B27F1F8B53769CABD1B70EBA71FBB4106855F8F
310
F69A11755EC160796C1506E23B92F1A31B6EF475740BF577829363AAAF6ACD66050888A9485E726255F4750DE58DADD1DCF00149B1FD6CB26E75FDBAF6A0FB118C610DD42EF5C2B5023AC34C2255993CA81BFA3B8210DCA261C6D72AA79E43E5264974D588E83DE95367AB8C686D9A11AF78C42CCFE0C7B684C5B44CF01625
310
E2297A9034DA10C5BA95D2CB4885F19B02FEF679D38107460688F4451578F87B67AD1D5DAA72E92411F958663B860804C19668A9D18D57B0D46AA4D2727D55670AA8BBC0C0AC8AE77F9F2C9AED88BF4F16A9358C1F3A59DC1EFE8D0ECDBE48239DC7CAAECF3A06D4F94951F98863806E3BD454EB2C6292B995DF3A530441B1
310
8AF283ABB12A6818827D1CFFE9ACDD9705CD761DFECFCBDAFEAB8AE3ACACD29AACBA54272AD77533874D279F16779F2EEE479717B74B68D0DEDF8D6EA69F56A39B0B7FB6585CAEEE66D3DB1A4DEDA8615007339DBBE0D904B56A583D590CA02B2B724A1238CD274E8A21E64B38D30F689FF30C0B489ECD6677629BF203563F
310
9B3EA7443B8A2B4E1E113488A980B40E1895B16C8F3BFF80D6A48483F6B50B4D23EF09FEAC55BA0E649E6B175A0592C458783B6833A9869E260E2957E77E4B0CF0412C5529D12CAA9FEB550A9B56F8AFA70C490356AE560F030AB702BA5FAD0E85E6CDF2149F2578C58E8324DCEE4A09D59A91E538500BA3B739AADFC84609
310
7BB25BBF80EBBE2D96EFE9392D44067D3278D3080CD591443CD5FD6EC59865E966F5650C7D3667FD9B53D032055D0EA734E2188CB954051558115885A5592009A6BAFCD7F60BCFE1134FE6E8AAC8F9E7CBE5C54FDB659E65393343DB1B389525F0A1C8D93CC2679F640BC50356CD75B19D4EFCE95637B56D9F3DDA21813D55
310
15C140554C28413A260776F9AA4165DB9763A58ACEF4F5CAB141149A01C68E5EF578CD472E077C487D4E511EA3FDBC92F6CDBEF6584F059BE0D0910EFF0F504B0304140006080000BB686841000000000000000000000000350000006662782F38414646353241392D353336432D343234342D384235382D44343330383539
310
38383246462F76657274696365732E62696E504B0304140006080800BB686841F270F1330600000004000000360000006662782F38414646353241392D353336432D343234342D384235382D4434333038353938383246462F747269616E676C65732E62696E636660600000504B0304140006080000BB6868410000000000
310
00000000000000370000006662782F38414646353241392D353336432D343234342D384235382D4434333038353938383246462F617474726962757465732E62696E504B0304140006080800BB686841D5987DFC8F00000041010000360000006662782F38414646353241392D353336432D343234342D384235382D443433
310
3038353938383246462F6469726563746F72792E786D6C858F410EC2201045AF4266AF15DDB800BA74E7C21B903225242D6328188F2FA5C4183471359997F9FF81E89FF3C41E1816475E02DF1F80A11FC8386F25A438EECEC07A250251FC3803E6F58C12560C4AD840E95E91C151A72936F496F35732D860FE635F62C8F2DA
310
16B505C545B74125BAA2FA9E05D7CC053D063734D5C7665FD55B6B8D15D5E9BFEAFD8490FFA45E504B0304140006080800BB68684159602166FC000000A00100003B0000006662782F38414646353241392D353336432D343234342D384235382D4434333038353938383246462F7265736F75726365732F636F72652E786D
310
6C8D504B6E833010BD0A9ABDC126D026C8386A089CA017B0CC845A0936F2A7EAF16B0295DA5D3733A3F7D13C3D7EFE9A1FD9273AAFAD6981E5143234CA8EDA4C2DC4702347C8CE823B6BC32F196446CED8C20A83E093B371D921654D4013126AEC883B28BDC700997AA4A305AF3E7096B98C2129FC3D5FA4BACB097396273A
310
E904F7C1A500D9F6649D201C7A1B9D42CF8B8D153C463DEE1A3DA69FFAA6D181B874D7534DFB9EF4A7E185547547C9E59551D2D5D7A11A18657DF7C68BD52C78D0F34F46E550061C419494958431428FEFECD0D0BAA9AB743794F26295FF31C565FCA7296A130EE51E77B379102C05791282176B5F693DCB4C7BED567C0350
310
4B010214000A0000080000BB6868413DEE336E79000000790000001B00000000000000000000000000000000006175746F6465736B2D64657369676E2D7061636B6167652E786D6C504B01021400140006080800BB686841D486FD9CA0000000F40000001300000000000000000000000000B20000005B436F6E74656E745F
310
54797065735D2E786D6C504B01021400140006080800BB686841318A7C57E90000007C010000080000000000000000000000000083010000636F72652E786D6C504B01021400140006080800BB68684155019EA25F0000007C000000070000000000000000000000000092020000636E782E786D6C504B0102140014000608
310
0800BB686841E84C01DD65010000020300000C00000000000000000000000000160300006662782F636F72652E786D6C504B01021400140006080800BB686841C68EB2D27D0000009D0000000B00000000000000000000000000A50400006662782F636E782E786D6C504B01021400140006080800BB686841A84E9AF82B01
310
00001502000031000000000000000000000000004B0500006662782F38414646353241392D353336432D343234342D384235382D4434333038353938383246462F636F72652E786D6C504B01021400140006080800BB686841C8B35B0253010000330300003000000000000000000000000000C50600006662782F38414646
310
353241392D353336432D343234342D384235382D4434333038353938383246462F636E782E786D6C504B01021400140006080800BB68684171C81285660700009A1B00003400000000000000000000000000660800006662782F38414646353241392D353336432D343234342D384235382D4434333038353938383246462F
310
6F626A656374732E786D6C504B01021400140006080000BB68684100000000000000000000000035000000000000000000000000001E1000006662782F38414646353241392D353336432D343234342D384235382D4434333038353938383246462F76657274696365732E62696E504B01021400140006080800BB686841F2
310
70F13306000000040000003600000000000000000000000000711000006662782F38414646353241392D353336432D343234342D384235382D4434333038353938383246462F747269616E676C65732E62696E504B01021400140006080000BB6868410000000000000000000000003700000000000000000000000000CB10
310
00006662782F38414646353241392D353336432D343234342D384235382D4434333038353938383246462F617474726962757465732E62696E504B01021400140006080800BB686841D5987DFC8F000000410100003600000000000000000000000000201100006662782F38414646353241392D353336432D343234342D38
310
4235382D4434333038353938383246462F6469726563746F72792E786D6C504B01021400140006080800BB68684159602166FC000000A00100003B00000000000000000000000000031200006662782F38414646353241392D353336432D343234342D384235382D4434333038353938383246462F7265736F75726365732F
310
636F72652E786D6C504B0506000000000E000E0080040000581300000000
  0
XRECORD
  5
17
102
{ACAD_REACTORS
330
12
102
}
330
12
100
AcDbXrecord
280
     1
270
     1
271
     1
  0
XRECORD
  5
16
102
{ACAD_REACTORS
330
12
102
}
330
12
100
AcDbXrecord
280
     1
270
     1
271
     1
  0
XRECORD
  5
18
102
{ACAD_REACTORS
330
12
102
}
330
12
100
AcDbXrecord
280
     1
270
     1
271
     1
  0
XRECORD
  5
15
102
{ACAD_REACTORS
330
12
102
}
330
12
100
AcDbXrecord
280
     1
270
     1
271
     1
  0
XRECORD
  5
24D
102
{ACAD_REACTORS
330
22
102
}
330
22
100
AcDbXrecord
280
     1
102
MATERIAL
148
0.0
149
0.0
149
0.0
 93
        0
 94
      127
282
     0
 72
     0
 77
     0
171
     0
175
     0
179
     0
273
     0
  0
XRECORD
  5
24
102
{ACAD_REACTORS
330
22
102
}
330
22
100
AcDbXrecord
280
     1
270
     1
271
     1
  0
XRECORD
  5
23
102
{ACAD_REACTORS
330
22
102
}
330
22
100
AcDbXrecord
280
     1
270
     1
271
     1
  0
XRECORD
  5
BA
102
{ACAD_REACTORS
330
22
102
}
330
22
100
AcDbXrecord
280
     1
 70
     1
 90
1959938040
 71
     1
  1
7597FD33-DEB0-4E84-B09C-39CC8716A0E9
311
504B03040A0000080000BB6868413DEE336E79000000790000001B0000006175746F6465736B2D64657369676E2D7061636B6167652E786D6C3C3F786D6C2076657273696F6E3D22312E302220656E636F64696E673D227574662D3822203F3E3C666F726D6174733E3C666F726D61743E687474703A2F2F736368656D612E
311
6175746F6465736B2E636F6D2F64657369676E2D7061636B6167652F323030393C2F666F726D61743E3C2F666F726D6174733E504B0304140006080800BB686841D486FD9CA0000000F4000000130000005B436F6E74656E745F54797065735D2E786D6C7D8EC10E82300C865F65E91D8A1E8C310C0EEA1BF002731658846E
311
D98AC1B77784ABF1D8FE5FBFBF75BBCE937A534CCEB38643598122B6FEE978D0B0485F9C41B54DDD7D022595594E1A469170414C76A4D9A4D207E29CF43ECE46F218070CC6BECC4078ACAA135ACF422C856C0E68EA1BF5669944DDD7BCDE7B1F8E415D77AECB980613C2E4AC91FC167A2B244592486606FC29C8FD7F045B9A
311
EF7053A7E60B504B0304140006080800BB686841FFC1D2FEE80000007C01000008000000636F72652E786D6C8D905D6EC3201084AF82F61D1BFC53130B13D96D6FD00B20202E4A0C9681AAC72F4E1CA97DEBD38E86F9D8D5F0F3F772435F660BD6BB0168410019A7BCB66E1E20C50B6680CE826FDEC75F31404E2E6680DD06
311
C1E7CDA7F5B09477D1B8985DE7B5394C19828980D42D8B0182FA348B2C648A3911AEC52AD555CEA6A04F95E194AC468F2556E7FFECC59A0D44C34EDD38D21157137BC54D43DF30A3A4C3D3F4C29AD3A9ABDF59CBCB1D163CDAE5B95F6D4646A34154845698524CD807AD7BD2F66D93754F082FF7F81F28ADFA9F50B22ED6D5
311
71EE030B20683EE4FE2078B97791C7BDA83CF7DEC40F504B0304140006080800BB68684155019EA25F0000007C00000007000000636E782E786D6C4DCB3B0E80201045D1AD90E915ED2CF8AC45050C11660C8261F98AB1B07AC9C97D42D718D865D3E909258CFD00CCE24AC6E326A164D74DC0B4128928FF326038472BA131
311
28B1252AC747C6BAB984FC68F0B87FE8960A5C09FE86CFB69FBA01504B0304140006080800BB686841AEC9705965010000020300000C0000006662782F636F72652E786D6C8D52ED8E8320107C15C27F04ACBDDA0669DABB7B837B01AAD423553008A68F7FEB47D3EBA5692E26486676766747C5FEDA3668D0BE37CE169827
311
0C236D4B57195B17388633C931DA4BE19D0BBFCA30B2AAD5051E612C45ED5DEC16A87436681B00B5AED20BA8FA5E078CCA062E05EECB6FDDAA44C50015FD25E9547951B54E780234D449D1070F06D03C643CB13C9FAE82CEB814319A6A614D05D3CCD9688F65966F3787033F90F498BF932CE31F24E76C438EC7B73CDB6E37
311
ABCF7C2DE828962298F6E6AEF45A055D6199329E12CE09CBBFF86AC7D6BB7506F71D63828EE50FA2D855FF144563C32A5DECCEB21E4B0E4626E2CFB6105140BD1AC00F95828E21C26B4AF831680804420EEAD4DCF6B80034E832389F0153B978A706D5440D53199A1E4167163A4F0D60B3A77DD2177D5EF7800FA86C0DD654
311
80EB298671BA98A72E5174DA93215C9175BE55CDDDDC6CF17EDE073D9597AE71FE3F6ABAAC4A9730E9F8F7CA1F504B0304140006080800BB68684146F25B937D0000009D0000000B0000006662782F636E782E786D6C4DCCDF0A83201C86E15B91DFB9EB8F990DD428AAFB886521331D4EC72E3F1B1DECE883878F97B7DFDD
311
A08FF26FEDAC80E2960352F6E1166D370131ACB801D44AEE9D0B7F374076DE95809341F2CDBBF8BA6851EB1C4D486AB47D5E38124658DEF5B82015C5553D35B81B598FEFC9685953520E13649267BF52DA332C0F504B0304140006080800BB686841225255522B01000015020000310000006662782F45333733373041422D
311
313334352D343646382D414537422D3930414235323635333244462F636F72652E786D6C8D51CB6EC32010FC158B537AC006E357224C94A8C917F4075C435294182C1E553EBF4BED48ED2D1716CDCECC8E76F9FE31DDB36FE5BCB6A6473427285366B4529B6B8F62B8E00E657BC19DB5E10F0D656698548F128C04BF3A1BE7
311
151AAD09CA04408D956A0507EF5540D978874F8FFCF8A5A6211F620086BFE5F330DE86ABCA690E6DE009EE838300D93224BD489C58CB5A723862CAAA1A57CDB9C387537BC45BC0EAB2A959F97EE6C522143C462D57B99610475FB472AF9A24B1E0414FCFF8A3534350128992D012538A49F741D98ED4BBBA82FF8E105E24FA
311
3F519CE58BA2A84D60E51A77917924282F9686E0D2C6CFFB338C7ACCD6852CCDDB7835BE214172425A46C9B66B79B170610360DA54ABA90FD6C18637B74FA0D37A716E2AC18B742428BF17849A0E2A7E00504B0304140006080800BB686841AE1494154C01000033030000300000006662782F45333733373041422D313334
311
352D343646382D414537422D3930414235323635333244462F636E782E786D6CD593CD6EC23010845FC5F29D24868010728CD4439FA0875E1D7BA12E8E1DF9A72A6FDF3518CA85438FBD58D6ECE799D528E1FBEFC9922F08D1783750D6749480535E1B771C684E87C59692BDE0C1FBF48051E2E404032D3215FC187C9EABA4
311
E120B34DA85AE34E550C107D0E0A22CAE525B15E498B06E01619459846D01A34B983783B40C055501CCF247D00797D79277EFC0495226F8B8BE06DC910BC9C35E901A2445919E340A3FA8049363227AF219E1A2D936C5873CB7AB2D3AF13290F6E91391852C2075A4E2AEA460DF6C85B1C0A1E53C0F62A94CE335021E7D91A
311
251396DC5EC02B2378362E6DFACA1A2C3E20CD36ABBE47B3CB4CF06426A8840A2013682A961D5B2E185B74DB37B6DA75EBDDBAC7FBAEEB785B70C147EF6D7D843610FC4C9477095CA282F1B68C9FD55739A24DC0AE7D38FFA1482CA0A65EDBB97BFCE77EDACBF78D7505FC0BC40F504B0304140006080800BB68684179244B
311
44A505000080100000340000006662782F45333733373041422D313334352D343646382D414537422D3930414235323635333244462F6F626A656374732E786D6CAD57DB6EDB3810FD1541FBB2FBE08B6CE7E285A222B193C228D216355AEC8301839228851B4A14282A75F6EBF750A464C9B553EFA22F96450D873367CE5C
311
E8BFDB65DC79A1B26422BF71BDE1D875681E8998E5E98D5BA96470ED3AEF025F0AA13A62AE93938CDEB87AD90DFC548AAAB04B314D48C5D5C1EAC3DD5F4E19D19CBA4EC44959DEB865F4443332249512312D9F873151649826BBA13734827DB5A924C5D381D282489A2B588AF51C5A1C6394D77F1DBBA3C01FE9EF81AF7FAD
311
D4F4B4D4A8F6A77F3ECB4B45F2E887C30ED44CBDD9F27E72311F5CCC66D3C1EC72E20DEE1EEE9603EF6A3A5E5C2E16F3DBFB390E2E9584266B89A4891BBC07369245FEC87C0AFC8AE56A3AB122364023495F988E941B4C1CCF1F1999D63BEBE431F32391E734AAB1021AB57F56754C0B9AC78839A3252CEB2034EEBF7A1AC7
311
CEE7A97EB7477697CF43A0BBA3A3A8B1BD79762D15E1DF70A13C8741B2A49A81064BEBA8E1EA788F702804B7DF58E9644451C90877380B2591AF6E00512D12F83D359AC9526783F6C00D1005F3B94F17A4D1CF797ECCCAA4E25CD3D80DEA2CD82257A82A6BCBD83F54EEADEF22039B102BCD866BEB907A2DA81BCC0D45AE0F
311
D8648074124E52841C6EEA9DD3C981A30B9DA7ABA51B7C7808776B9DBBC70F2FA428A8549A3EA05613B8E6A951B2367967454E6F700F4CD983F205C87F44AAEF4D41DC24DBCD76337B8A92242F132133C4C6193B83317EC68E57FFEAFF9D7FFEA8DDDC8FDE293C116C0DD52FC0B3EF4337961D3803FF058417726A5D5B4784
311
A36C3CB21C006992385C6009753809776EB042954355C62EC2030F2EC3DC17FCF547560D0A457D52E79903CB83B2784681066C3523618621BF35701FA71FCA597DB0153B05EFC52FA1EBED72FD615DC98444F4D1E6F492262C670A2D6ECF9BAE413DCC7B1E3DD3D7EF42C670F447BCD75DBC337B5409B435E61AF8B4A9E9FA
311
657F72EF8008FB52A1CB8DFF9313E0846EAC1DFD8FAC8C28E724A7A26ACE7DB37FA06D188875B26B26B70D66DF58401AF3E52007D1A423C90A0D62DBADDAA2393CE1DDD7D5473012F25C8484EF85C27DE98D0417721BBE6E4D553A8AF4B73EB52D0423AD056CAF73A4497F8BF93666495295A8814760FDB65A7443A7AB022A
311
44A3D524CB0CEE23B788B49C6DF4A2594B82462AF22D43DB44DA1D3DA0AB1F885A02D40A4F595C529E6C19E755B64D184733DA66A43801C7FFB73FACB2624B3251E5EA84EE9EE9680E7DDB7BE42DBF13153DB9C1BA7E0EEE507A631AEFC3DC13D6ADE40856BDD05E5DCCAF1E96D3E960797F371ECCEEAF6783BBF17C3198CE
311
178BEB2BEFF2767C3F6FE26494077ED369BA098D28A1B3F99564367C5F57481F5B03DCE091A872F3DE6467F3FCBA1A6214F647D88376D96EBC8D5F30F6D1F8E70AF6924715ADB282D38CE68AE8147AD47FF8178231A3678C595F6524A56768F9F47E7DE00C56CED8F759A73BFD7EB0D7AE2E74421E55A29EAA2CCC09E3071B
311
5383E4B0C8538B5F1393F669FA4CF3AADF6C6030989682B318653076522A32AA500CCFE84132A325A8D71DE9637BF53863F78B19101509396D2C792298917989B400B5AA48F5D79DDF30D3E9B1EAC645B71D3EE3C7560AD701676E5CCCE88A45B41C86E8CF7A12AA95834BDD411E733FC9538E51DB6C6ADFDB5D1A9B5E476E
311
45CE199FAC5FA6825B0750460A8C0D9887109DDA98C0AF6DB3DFA3FFE478638E4314FE86956A7DD92FB4CED4C720458D53F6B28019E6D91EBD43A2BEED9637AC657A889C75C97A930446EB401199D617056D9F35E976F9798401C5597D720A5EA588E5F99A069282CC954E70B008ACB03A0BA240D5C59F9BCF52E0229B390F
311
0C14707EDF5D5FFEB159882C13B959DADCDAEBB0B37EC2E536DEA038507D2B293793B137D9D4B7017B41D986A4A4431297CF584064256B81EE851FBC345746F421F3A1951BE9501C3074B5746C639B41A9A54BB7B66A703077E4D4410EE91BA5CE98AE40F1E68560548BC20489513EF817504B0304140006080000BB686841
311
000000000000000000000000350000006662782F45333733373041422D313334352D343646382D414537422D3930414235323635333244462F76657274696365732E62696E504B0304140006080800BB686841F270F1330600000004000000360000006662782F45333733373041422D313334352D343646382D414537422D
311
3930414235323635333244462F747269616E676C65732E62696E636660600000504B0304140006080000BB686841000000000000000000000000370000006662782F45333733373041422D313334352D343646382D414537422D3930414235323635333244462F617474726962757465732E62696E504B0304140006080800
311
BB686841D5987DFC8F00000041010000360000006662782F45333733373041422D313334352D343646382D414537422D3930414235323635333244462F6469726563746F72792E786D6C858F410EC2201045AF4266AF15DDB800BA74E7C21B903225242D6328188F2FA5C4183471359997F9FF81E89FF3C41E1816475E02DF
311
1F80A11FC8386F25A438EECEC07A250251FC3803E6F58C12560C4AD840E95E91C151A72936F496F35732D860FE635F62C8F2DA16B505C545B74125BAA2FA9E05D7CC053D063734D5C7665FD55B6B8D15D5E9BFEAFD8490FFA45E504B0304140006080800BB6868414208B13FFB000000A00100003B0000006662782F453337
311
33373041422D313334352D343646382D414537422D3930414235323635333244462F7265736F75726365732F636F72652E786D6C8D504B6E833010BD0A9ABDC106D218641C85B637E8052C332156828DFCA97AFC9A844AEDAE9B99D1FB689E9E387D2DF7E2137D30CE0EC04A0A055AED2663E70152BC100EC5490AEF5CFC25
311
83C2AA0507D8609062F62EAD3BA49D8D686346AD9B7007550818A1D0F77C0C10F4151755AA14B322DCCA55E99B9AB16465A6B34E8A107D0E503C9F6C13A4C7E092D71844F564A548C94CBBC64CF9A7B918F4205BDE1DCF67D6917AE4AFA46DD91BE18C1EC938BEF0B6EB8ECD3B3F886A334B11CDF293517B54112790356535
311
618C50FEC19A9E1EFA439BEF9E52516DF23FA6B44EFF3425636353EF719FB60092E5200F428A6AEB2BAF4799796FDDCA6F504B010214000A0000080000BB6868413DEE336E79000000790000001B00000000000000000000000000000000006175746F6465736B2D64657369676E2D7061636B6167652E786D6C504B010214
311
00140006080800BB686841D486FD9CA0000000F40000001300000000000000000000000000B20000005B436F6E74656E745F54797065735D2E786D6C504B01021400140006080800BB686841FFC1D2FEE80000007C010000080000000000000000000000000083010000636F72652E786D6C504B01021400140006080800BB
311
68684155019EA25F0000007C000000070000000000000000000000000091020000636E782E786D6C504B01021400140006080800BB686841AEC9705965010000020300000C00000000000000000000000000150300006662782F636F72652E786D6C504B01021400140006080800BB68684146F25B937D0000009D0000000B
311
00000000000000000000000000A40400006662782F636E782E786D6C504B01021400140006080800BB686841225255522B0100001502000031000000000000000000000000004A0500006662782F45333733373041422D313334352D343646382D414537422D3930414235323635333244462F636F72652E786D6C504B0102
311
1400140006080800BB686841AE1494154C010000330300003000000000000000000000000000C40600006662782F45333733373041422D313334352D343646382D414537422D3930414235323635333244462F636E782E786D6C504B01021400140006080800BB68684179244B44A505000080100000340000000000000000
311
00000000005E0800006662782F45333733373041422D313334352D343646382D414537422D3930414235323635333244462F6F626A656374732E786D6C504B01021400140006080000BB6868410000000000000000000000003500000000000000000000000000550E00006662782F45333733373041422D313334352D3436
311
46382D414537422D3930414235323635333244462F76657274696365732E62696E504B01021400140006080800BB686841F270F13306000000040000003600000000000000000000000000A80E00006662782F45333733373041422D313334352D343646382D414537422D3930414235323635333244462F747269616E676C
311
65732E62696E504B01021400140006080000BB6868410000000000000000000000003700000000000000000000000000020F00006662782F45333733373041422D313334352D343646382D414537422D3930414235323635333244462F617474726962757465732E62696E504B01021400140006080800BB686841D5987DFC
311
8F000000410100003600000000000000000000000000570F00006662782F45333733373041422D313334352D343646382D414537422D3930414235323635333244462F6469726563746F72792E786D6C504B01021400140006080800BB6868414208B13FFB000000A00100003B000000000000000000000000003A10000066
311
62782F45333733373041422D313334352D343646382D414537422D3930414235323635333244462F7265736F75726365732F636F72652E786D6C504B0506000000000E000E00800400008E1100000000
310
504B03040A0000080000BB6868413DEE336E79000000790000001B0000006175746F6465736B2D64657369676E2D7061636B6167652E786D6C3C3F786D6C2076657273696F6E3D22312E302220656E636F64696E673D227574662D3822203F3E3C666F726D6174733E3C666F726D61743E687474703A2F2F736368656D612E
310
6175746F6465736B2E636F6D2F64657369676E2D7061636B6167652F323030393C2F666F726D61743E3C2F666F726D6174733E504B0304140006080800BB686841D486FD9CA0000000F4000000130000005B436F6E74656E745F54797065735D2E786D6C7D8EC10E82300C865F65E91D8A1E8C310C0EEA1BF002731658846E
310
D98AC1B77784ABF1D8FE5FBFBF75BBCE937A534CCEB38643598122B6FEE978D0B0485F9C41B54DDD7D022595594E1A469170414C76A4D9A4D207E29CF43ECE46F218070CC6BECC4078ACAA135ACF422C856C0E68EA1BF5669944DDD7BCDE7B1F8E415D77AECB980613C2E4AC91FC167A2B244592486606FC29C8FD7F045B9A
310
EF7053A7E60B504B0304140006080800BB6868410B5DFDD0E80000007C01000008000000636F72652E786D6C8D90516EC3201044AF82F61F1BECD88D2D4CD4A4EE097A0104C44589C13210E5F885C491DABF7EED6898C7AE861DEEF315DDF4EA8DB303D08200D2563A65EC34400C67BC0774E06C752EFC8A01B262D603641B
310
389B561797CD92CE066D4372AD537A3385F73A0092D72406F0F25BCFA21031A484BF148B901731E982BE548263340A3D971895FE3367A357E075F74EC78E7EE023696BBC3BB56FB86BBB1657E3A9A1941C3FC79AB232C39C0533BFF6CB558BA015F08AD00A538AC9FE8BD63D69FA6697744F082B73FC0F1417F54F281A1BEA
310
6A3BF78979E0F990C7036765EE228D475169E6DEF80F504B0304140006080800BB68684155019EA25F0000007C00000007000000636E782E786D6C4DCB3B0E80201045D1AD90E915ED2CF8AC45050C11660C8261F98AB1B07AC9C97D42D718D865D3E909258CFD00CCE24AC6E326A164D74DC0B4128928FF326038472BA131
310
28B1252AC747C6BAB984FC68F0B87FE8960A5C09FE86CFB69FBA01504B0304140006080800BB6868411C0DADCE65010000020300000C0000006662782F636F72652E786D6C8D52ED8E8320107C15C27F05B4F5DA0669AEBDDE13DC0B50A51EA98241307DFC5B3F1AAF97A6B9982099D9D99D1DE5FB5B53A35EB94E5B936316
310
538C94296CA94D95E3E02FD106A3BDE0CE5AFFAB0C23231B95E301C68257CE8676860A6BBC321E50634B3583B2EB94C7A8A8E192E3AEF8568D8C65F050D15DE356165759A998C540439DE09D7760004D4386138BCBF9C6C9840B1E822E675697304D5FB47258A4DB7776DAB28FE840B3345A1DB3B7689B6DB328391DD78CD1
310
C3E729659C0C62C1BD6EEEEE0AA7A4572516096549C45844375F2CDDD1F56EBD82FB8E524E86F2075168CB7F8A82363E4D66BB93ACC3623032127FB685883CEA640F7E88E06408115E63C28F41432010B297E7FABEC715A05E15DEBA1530A50D0BD5CB3A28984AD1F87032B1D0796C009B3DED93BCE8F3BA077C40692AB026
310
3D5CCFC10FD3F934758EA2552EEAFD0D19EB1A592FE6268BCBB90C7A2A2F6C6DDD7FD4645E95CC6192E1EF153F504B0304140006080800BB686841DDC363C77D0000009D0000000B0000006662782F636E782E786D6C4DCCD10A83201886E15B91FFDCB54C8703350AF53E6259C84AC3E9D8E5AF46073BFAE0E1E315ED675D
310
D0DBA5978F41427DB90272E111471F6609254F98036A954831E6BF1BA030AC4EC2C1A0C49C62D94E1ADD349425EFBAF8F03CB123B4219A186C74C730EDED0D737B37D8EA9A19667BC61B0A9512D5AFB4EF11565F504B0304140006080800BB686841E7ADABFA2C01000015020000310000006662782F41323433324432452D
310
454441352D344246362D384639452D4644313545354642353833342F636F72652E786D6C8D51CB6EC32010FC15C4293DD8066C274E848912C5FE82FE8003C44589C1E251E5F30BB523B5B75C58343B333BDAA5C7E7F400DFD23A65740B718E20909A1BA1F4D8C2E06F5903C191516B8CFF4383400F936C618221A3A335615E
310
216EB497DA47541B215770704E7A08F8237E5AE8F8979C867C083E32DC3D9F077E1F4699E33CB6238F51E76D0C009621E985EC44AA925C48977597539D55E77E9B35FDBECBFA0BAEBBBA3FD74D59D16211321A8212AB5C891847DD94B4EF9A2431A35E4DAFF8DCCAC14B01194198641867A8F9C4E501D587BA8AFF0342B448
310
F47FA2308B374541695F9235EE227390615A2C0D468509D7C72B8C7CCEC67A90E66D9CE41F90A11CA1DD9E54BBA6A6C5C28D1B88A6DB6A3575DED8B8E1CDFD1AE9E5EABCAD182DD29162F9BD60ACE9A0EC07504B0304140006080800BB686841C8B35B025301000033030000300000006662782F41323433324432452D4544
310
41352D344246362D384639452D4644313545354642353833342F636E782E786D6CBD93CD6E022114855F85B09F3F1D8D310C265DF409BAE89681AB521998F0D3D4B7EF45D1BA71D1A4E98690730FE7DC7C9961BBAFC9904FF0413B3BD0AE6E29012B9DD2F630D014F7D586921D67DEB9F860A3C48A09069A65CAD9C1BB3417
310
49C15E24135135DA9E8AE821B8E4250494F34B629C140603C05609459846500A14B91BF1B6078FABA0389E493C02797D79276EFC0019036B720A674DEEE02C9FA5E9C144893422848106798449D42245A7209C6A25A2A8BBFAD6F564A79F24921FDC2A93D724970F349F94978D6AE4C81A1C7216A2477AC514CF33502EE6D9
310
682922426E2EC6AB87B3A46D5CF7C5AB11BC47F772B1DE6C30EC32E32CEA098A437A101114E58BB65B545D57B59BB76EB96D57DB558FF76DDBB226DB391B9D33E511C680773391CE46B091F28E3579FC0C5FF111A53DB276FEFC0B9008A0B45EE9DC33FE924FB75EF6FD3FF2692EDF37E2F2F817F06F504B03041400060808
310
00BB6868417B196E1563070000991B0000340000006662782F41323433324432452D454441352D344246362D384639452D4644313545354642353833342F6F626A656374732E786D6CED59DD739B3810FF5718EEE5EEC1D8C44E1ADF106E123BE9783A693BF5B5730F9E616490892E4230924893FBEB6FF5010662127CCDBD
310
F5C10684B4DAFDEDA796E08FC78C3A0F980B92B30BD7F726AE83599C2784A5176E2977A373D7F9230C789ECBC634D76128C317AE1A76C320E57959D8A104EF50496567F4E6EA2F47C49861D7892912E2C215F11DCE90874A992758DC7B0992C84B778F9EEF99896DB22947C55D87688138661238857106541CC394DF7E9CB8
310
E33018ABF761A0FEEDACE9A059B3FE59632D759B4BC284442C7EC65287CC74104B537FB6BC3E399D8F4E67B3E9687676E28FAE6EAE9623FFDD74B2385B2CE697D773606F9BE7D4CA94E002B304F4F7E4867E30566F6AD12D0287B88E73C670AC8104A8B4585D82040BD8AA01DFA4FDE82B891AAFB5848DE7997A6F59680C4F
310
DB54FA660D03A2451704B1DB551257D7A67CF9F66F105C0C314A2EB0046E85E4A05D0B0F07AF70C3493036A361B0DDEB82082743127382A843C996230E4A81A96A4A189805968C720E0EA41C2581D69C79DDB62DF0CCD75DE71097BB9252E5196EA81D2B02F7C35268CEC83F98EFB96F22033C81B42561F2DC72299F0AEC86
310
F360AC07C3405DA627F6A501D2D951940A8D8879DB1174A15C7FB574C30F37DBC7B50A0787372F785E602E95D1293D6ABEC090ED55A164B7F507694E2D00610CA876E51E942F80FC47881E7B56406F9C3CCE1E6776AEE488895DCE33D08D33714613F89B38BEFE57F78DBB605C2F6E6BAF0F4F705305D5F98FE3D996416365
310
F96FC019060F60F0399FDA57EB1851B0E75BC2002065240ECD610842FB6EFBE8862B089C10E86115A2A10F2203BB0F701B8C2D99BD562AF7B25EC70051BBC774889200366D91C0468F9EDE43F6E024DEABA929621FBCA76F62AE97CBF58775C97728C6B7D6A7977847189190350F33D4C2BC25D13D7EFA9EF304047D8EF7BA
310
897766B71280B6C25C019F5620A887FDCEAD0D625897E62ADC04AFEC0042A85CDDA07F4B448C29450CE765B56F1DDD94A1D61E6F6B06373C31104F4F3A26CCF10351550538CD7E468B51C8FB31278502D10DDF1BC9EAA0E9F548F775F5112CB29EDF336BC520F43244FFD441EB000E2DCBAE90B640D4026FF7E13CCE69CEA3
310
ED5364229D0BB504B0D1F6966F2DA210EB8D921415F020ED775548498DB4514276BB52405C3DC0E2B7D5A2690E136FEA9F3ACDFF8E33CE20DA82EF226EFDAEB347443294E2688792BEED9ABBD5B48526D9439AE31D05B9C803914F1192D124C1E931D01C457CFEA6D4539A0B41181690AF0E82DF4463E2412031DAAC58565A
310
ED004D44946189E8310828323DE0EAB4A36BDC184A87D779ACADF7258D3589FE4F16C111D492398B0894A290435E65DCF74E2186B4D1352877F0056BAB686B3168092544FC147DC724BD93C7A06EC8F7E01EC391A494515EA018CC7A00D967BEA294DAE17D8BE27B953FA2B8A46F652002D35D44282DB3087E84C1C963886B
310
D781E945141AC44DEC933883A20CC9920FD9E4EC74F26C1F533374436063A31DA110B6A30C153DA8B702A2AE479C1A7C4BBD47A9DB322B2294E5251B6428DEB4EB4D967C57AD8AEC407E55A908656345D8120C03C2649D55AB980DA6AE032BB8910E544F91405941CD29EC95C4E3D7DEA429F76EC0AD9FBEED0619147E3DDA
310
6B46D4590583E5B1551888EF48C6776EB8D6D7D115D4DF094EF6A9BEAA359B152020A62279C98955D1D7159437B64673C35B24C5E6BDC9BAD5F5EBCA83EE4730863550BBD40B570AE80C3389546572AB6EE8170421B845C38CAF544E3D86CA6592E8AA11D11BD2A7CE5619D1DA34235E7187599EC18F6D088B6999E00D4AC4
310
7D742B69B4268A752BA597910AE31705FCF47EDD8107460688F4591578F87B67AD1D5DA872E920117957665B860804C19668A9D18D57B0D46AA4D2727D55670AA8BBC0C0AC8A673F4F16CD76C4CF93456A0DE3C74E1634DF22BA8F368D6C1E2BB33EEA1450A72745E52D4E01BAEB5053AD9388C9E5567CEB4B11C4C42AC80F
310
2EC6AA986108F671FC9F93765F1234DB75F83F2E69FBCF0A8EA3924A6BB26A521D285C57CD14F6EE74FEEE66399D8E96D75793D1ECFA7C36BA9ACC17A3E97CB1387FE79F5D4EAEE7359ADA4FC3A08E653A75C1B38969D5B07AB218405356E4942470984F9C1443C89770A41FD03DE71916903B9BBDEEC4F6E407AC7E306D4E
310
89B614579CDC21E80F5301591D302A63D91E777E81CEA48473F6850B3D23EF1EFEAC55BA0E249E0B173A0592C458785BE832A97E9E260E1957A77E4B0CF0412C5519D12CAA9FEB550A9B56F4AFA70CC90256AE560B03EAB6029A5FAD0685E6CDF2141F2578C58E8324DC6E4B09C59A91653F500BA3B7D9ABDFC84609BBB75B
310
3F82EBBE2C96EFE9392D44067D3178D1080CD591443CD5ED6EC59865E972F9790C6D3667F5C9296899822E87531A710CC65CAA7A0AAC08ACC2D22C9004535DFCBEF9CC73F8C29339BA28727E7D3C3FFB6DB3C8B32C676668730987B204BE1339EB3BF8EA936CA076C0AAB72E362713FF64A37BDAB6CD1E6D91C09E2A8A60A0
310
AA2594201D9303BB7CD69FB2DDCBB1524567FA6AE9D8200ABD006347CF5ABCE61B97033EA4BEA6288FD17E5E49FB625B7BACA7824D70684887FF02504B0304140006080000BB686841000000000000000000000000350000006662782F41323433324432452D454441352D344246362D384639452D46443135453546423538
310
33342F76657274696365732E62696E504B0304140006080800BB686841F270F1330600000004000000360000006662782F41323433324432452D454441352D344246362D384639452D4644313545354642353833342F747269616E676C65732E62696E636660600000504B0304140006080000BB6868410000000000000000
310
00000000370000006662782F41323433324432452D454441352D344246362D384639452D4644313545354642353833342F617474726962757465732E62696E504B0304140006080800BB686841D5987DFC8F00000041010000360000006662782F41323433324432452D454441352D344246362D384639452D464431354535
310
4642353833342F6469726563746F72792E786D6C858F410EC2201045AF4266AF15DDB800BA74E7C21B903225242D6328188F2FA5C4183471359997F9FF81E89FF3C41E1816475E02DF1F80A11FC8386F25A438EECEC07A250251FC3803E6F58C12560C4AD840E95E91C151A72936F496F35732D860FE635F62C8F2DA16B505
310
C545B74125BAA2FA9E05D7CC053D063734D5C7665FD55B6B8D15D5E9BFEAFD8490FFA45E504B0304140006080800BB686841D4333768FB000000A00100003B0000006662782F41323433324432452D454441352D344246362D384639452D4644313545354642353833342F7265736F75726365732F636F72652E786D6C8D50
310
4B6E833010BD0A9ABDC1864043641C35889EA017B0CC845A0976E44FD5E3D70E546A77DDCC8CDE47F3F4F8F96BBD179FE8BCB66600565228D0283B6BB30C10C3951CA1380BEEAC0DBF645018B9E2001906C11767E363879435014D48A8B133EEA0F41E0314EA9E8E01BCFAC055963286A4F0B7F221D54D2E58B232D14927B8
310
0F2E0528B627798270E86D740A3DAF3656F018F5BC6BF49C7EEAAB4607A2E95FD9D4B3915C68D790C3D8BD90BEEB3B524F63CB18BDBC4D0DE355360B1EF4FA93513994016710356535618CD0E33B6B4EB43DB587749F28E55596FF31C5C7FC4F53D42634F51E77B3791039C89310BCCA7DA5F52C33EDDCADF806504B010214
310
000A0000080000BB6868413DEE336E79000000790000001B00000000000000000000000000000000006175746F6465736B2D64657369676E2D7061636B6167652E786D6C504B01021400140006080800BB686841D486FD9CA0000000F40000001300000000000000000000000000B20000005B436F6E74656E745F54797065
310
735D2E786D6C504B01021400140006080800BB6868410B5DFDD0E80000007C010000080000000000000000000000000083010000636F72652E786D6C504B01021400140006080800BB68684155019EA25F0000007C000000070000000000000000000000000091020000636E782E786D6C504B01021400140006080800BB68
310
68411C0DADCE65010000020300000C00000000000000000000000000150300006662782F636F72652E786D6C504B01021400140006080800BB686841DDC363C77D0000009D0000000B00000000000000000000000000A40400006662782F636E782E786D6C504B01021400140006080800BB686841E7ADABFA2C0100001502
310
000031000000000000000000000000004A0500006662782F41323433324432452D454441352D344246362D384639452D4644313545354642353833342F636F72652E786D6C504B01021400140006080800BB686841C8B35B0253010000330300003000000000000000000000000000C50600006662782F4132343332443245
310
2D454441352D344246362D384639452D4644313545354642353833342F636E782E786D6C504B01021400140006080800BB6868417B196E1563070000991B00003400000000000000000000000000660800006662782F41323433324432452D454441352D344246362D384639452D4644313545354642353833342F6F626A65
310
6374732E786D6C504B01021400140006080000BB68684100000000000000000000000035000000000000000000000000001B1000006662782F41323433324432452D454441352D344246362D384639452D4644313545354642353833342F76657274696365732E62696E504B01021400140006080800BB686841F270F13306
310
0000000400000036000000000000000000000000006E1000006662782F41323433324432452D454441352D344246362D384639452D4644313545354642353833342F747269616E676C65732E62696E504B01021400140006080000BB6868410000000000000000000000003700000000000000000000000000C81000006662
310
782F41323433324432452D454441352D344246362D384639452D4644313545354642353833342F617474726962757465732E62696E504B01021400140006080800BB686841D5987DFC8F0000004101000036000000000000000000000000001D1100006662782F41323433324432452D454441352D344246362D384639452D
310
4644313545354642353833342F6469726563746F72792E786D6C504B01021400140006080800BB686841D4333768FB000000A00100003B00000000000000000000000000001200006662782F41323433324432452D454441352D344246362D384639452D4644313545354642353833342F7265736F75726365732F636F7265
310
2E786D6C504B0506000000000E000E0080040000541300000000
  0
XRECORD
  5
27
102
{ACAD_REACTORS
330
22
102
}
330
22
100
AcDbXrecord
280
     1
270
     1
271
     1
  0
XRECORD
  5
26
102
{ACAD_REACTORS
330
22
102
}
330
22
100
AcDbXrecord
280
     1
270
     1
271
     1
  0
XRECORD
  5
28
102
{ACAD_REACTORS
330
22
102
}
330
22
100
AcDbXrecord
280
     1
270
     1
271
     1
  0
XRECORD
  5
25
102
{ACAD_REACTORS
330
22
102
}
330
22
100
AcDbXrecord
280
     1
270
     1
271
     1
  0
XRECORD
  5
248
102
{ACAD_REACTORS
330
247
102
}
330
247
100
AcDbXrecord
280
     1
102
ACAD_ROUNDTRIP_2012_MLEADER_STYLE
298
     1
  0
CELLSTYLEMAP
  5
246
102
{ACAD_REACTORS
330
1F1
102
}
330
1F1
100
AcDbCellStyleMap
 90
        3
300
CELLSTYLE
  1
TABLEFORMAT_BEGIN
 90
        5
170
     1
 91
        0
 92
    32768
 62
   257
 93
        1
300
CONTENTFORMAT
  1
CONTENTFORMAT_BEGIN
 90
        0
 91
        0
 92
      512
 93
        0
300

 40
0.0
140
1.0
 94
        5
 62
     0
340
55
144
0.25
309
CONTENTFORMAT_END
171
     0
 94
        0
309
TABLEFORMAT_END
  1
CELLSTYLE_BEGIN
 90
        1
 91
        1
300
_TITLE
309
CELLSTYLE_END
300
CELLSTYLE
  1
TABLEFORMAT_BEGIN
 90
        5
170
     1
 91
        0
 92
        0
 62
   257
 93
        1
300
CONTENTFORMAT
  1
CONTENTFORMAT_BEGIN
 90
        0
 91
        0
 92
      512
 93
        0
300

 40
0.0
140
1.0
 94
        5
 62
     0
340
55
144
0.18
309
CONTENTFORMAT_END
171
     0
 94
        0
309
TABLEFORMAT_END
  1
CELLSTYLE_BEGIN
 90
        2
 91
        1
300
_HEADER
309
CELLSTYLE_END
300
CELLSTYLE
  1
TABLEFORMAT_BEGIN
 90
        5
170
     1
 91
        0
 92
        0
 62
   257
 93
        1
300
CONTENTFORMAT
  1
CONTENTFORMAT_BEGIN
 90
        0
 91
        0
 92
      512
 93
        0
300

 40
0.0
140
1.0
 94
        2
 62
     0
340
55
144
0.18
309
CONTENTFORMAT_END
171
     0
 94
        0
309
TABLEFORMAT_END
  1
CELLSTYLE_BEGIN
 90
        3
 91
        2
300
_DATA
309
CELLSTYLE_END
  0
XRECORD
  5
27E
102
{ACAD_REACTORS
330
1F1
102
}
330
1F1
100
AcDbXrecord
280
     1
102
ACAD_ROUNDTRIP_PRE2007_TABLESTYLE
 90
      512
 91
        0
  1

 92
      512
 93
        0
  2

 94
      512
 95
        0
  3

  0
XRECORD
  5
259
102
{ACAD_REACTORS
330
258
102
}
330
258
100
AcDbXrecord
280
     1
102
RTVSPropertyOp0
 70
     1
102
RTVSPropertyOp1
 70
     1
102
RTVSPropertyOp2
 70
     1
102
RTVSPropertyOp3
 70
     1
102
RTVSPropertyOp4
 70
     1
102
RTVSPropertyOp5
 70
     1
102
RTVSPropertyOp6
 70
     1
102
RTVSPropertyOp7
 70
     1
102
RTVSPropertyOp8
 70
     1
102
RTVSPropertyOp9
 70
     1
102
RTVSPropertyOp10
 70
     1
102
RTVSPropertyOp11
 70
     1
102
RTVSPropertyOp12
 70
     1
102
RTVSPropertyOp13
 70
     1
102
RTVSPropertyOp14
 70
     1
102
RTVSPropertyOp15
 70
     1
102
RTVSPropertyOp16
 70
     1
102
RTVSPropertyOp17
 70
     1
102
RTVSPropertyOp18
 70
     1
102
RTVSPropertyOp19
 70
     1
102
RTVSPropertyOp20
 70
     1
102
RTVSPropertyOp21
 70
     1
102
RTVSPropertyOp22
 70
     1
102
RTVSPropertyOp23
 70
     1
102
RTVSPropertyOp24
 70
     1
102
RTVSPropertyOp25
 70
     1
102
RTVSPropertyOp26
 70
     1
102
RTVSPropertyOp27
 70
     1
102
RTVSPropertyOp28
 70
     1
102
RTVSPropertyOp29
 70
     1
102
RTVSPropertyOp30
 70
     1
102
RTVSPropertyOp31
 70
     1
102
RTVSPropertyOp32
 70
     1
  0
XRECORD
  5
257
102
{ACAD_REACTORS
330
256
102
}
330
256
100
AcDbXrecord
280
     1
102
RTVSPropertyOp0
 70
     1
102
RTVSPropertyOp1
 70
     1
102
RTVSPropertyOp2
 70
     1
102
RTVSPropertyOp3
 70
     1
102
RTVSPropertyOp4
 70
     1
102
RTVSPropertyOp5
 70
     1
102
RTVSPropertyOp6
 70
     1
102
RTVSPropertyOp7
 70
     1
102
RTVSPropertyOp8
 70
     1
102
RTVSPropertyOp9
 70
     1
102
RTVSPropertyOp10
 70
     1
102
RTVSPropertyOp11
 70
     1
102
RTVSPropertyOp12
 70
     1
102
RTVSPropertyOp13
 70
     1
102
RTVSPropertyOp14
 70
     1
102
RTVSPropertyOp15
 70
     1
102
RTVSPropertyOp16
 70
     1
102
RTVSPropertyOp17
 70
     1
102
RTVSPropertyOp18
 70
     1
102
RTVSPropertyOp19
 70
     1
102
RTVSPropertyOp20
 70
     1
102
RTVSPropertyOp21
 70
     1
102
RTVSPropertyOp22
 70
     1
102
RTVSPropertyOp23
 70
     1
102
RTVSPropertyOp24
 70
     1
102
RTVSPropertyOp25
 70
     1
102
RTVSPropertyOp26
 70
     1
102
RTVSPropertyOp27
 70
     1
102
RTVSPropertyOp28
 70
     1
102
RTVSPropertyOp29
 70
     1
102
RTVSPropertyOp30
 70
     1
102
RTVSPropertyOp31
 70
     1
102
RTVSPropertyOp32
 70
     1
  0
XRECORD
  5
265
102
{ACAD_REACTORS
330
264
102
}
330
264
100
AcDbXrecord
280
     1
102
RTVSPropertyOp0
 70
     1
102
RTVSPropertyOp1
 70
     1
102
RTVSPropertyOp2
 70
     1
102
RTVSPropertyOp3
 70
     1
102
RTVSPropertyOp4
 70
     1
102
RTVSPropertyOp5
 70
     1
102
RTVSPropertyOp6
 70
     1
102
RTVSPropertyOp7
 70
     1
102
RTVSPropertyOp8
 70
     1
102
RTVSPropertyOp9
 70
     1
102
RTVSPropertyOp10
 70
     1
102
RTVSPropertyOp11
 70
     1
102
RTVSPropertyOp12
 70
     1
102
RTVSPropertyOp13
 70
     1
102
RTVSPropertyOp14
 70
     1
102
RTVSPropertyOp15
 70
     1
102
RTVSPropertyOp16
 70
     1
102
RTVSPropertyOp17
 70
     1
102
RTVSPropertyOp18
 70
     1
102
RTVSPropertyOp19
 70
     1
102
RTVSPropertyOp20
 70
     1
102
RTVSPropertyOp21
 70
     1
102
RTVSPropertyOp22
 70
     1
102
RTVSPropertyOp23
 70
     1
102
RTVSPropertyOp24
 70
     1
102
RTVSPropertyOp25
 70
     1
102
RTVSPropertyOp26
 70
     1
102
RTVSPropertyOp27
 70
     1
102
RTVSPropertyOp28
 70
     1
102
RTVSPropertyOp29
 70
     1
102
RTVSPropertyOp30
 70
     1
102
RTVSPropertyOp31
 70
     1
102
RTVSPropertyOp32
 70
     1
  0
XRECORD
  5
26D
102
{ACAD_REACTORS
330
26C
102
}
330
26C
100
AcDbXrecord
280
     1
102
RTVSPropertyOp0
 70
     1
102
RTVSPropertyOp1
 70
     1
102
RTVSPropertyOp2
 70
     1
102
RTVSPropertyOp3
 70
     1
102
RTVSPropertyOp4
 70
     1
102
RTVSPropertyOp5
 70
     1
102
RTVSPropertyOp6
 70
     1
102
RTVSPropertyOp7
 70
     1
102
RTVSPropertyOp8
 70
     1
102
RTVSPropertyOp9
 70
     1
102
RTVSPropertyOp10
 70
     1
102
RTVSPropertyOp11
 70
     1
102
RTVSPropertyOp12
 70
     1
102
RTVSPropertyOp13
 70
     1
102
RTVSPropertyOp14
 70
     1
102
RTVSPropertyOp15
 70
     1
102
RTVSPropertyOp16
 70
     1
102
RTVSPropertyOp17
 70
     1
102
RTVSPropertyOp18
 70
     1
102
RTVSPropertyOp19
 70
     1
102
RTVSPropertyOp20
 70
     1
102
RTVSPropertyOp21
 70
     1
102
RTVSPropertyOp22
 70
     1
102
RTVSPropertyOp23
 70
     1
102
RTVSPropertyOp24
 70
     1
102
RTVSPropertyOp25
 70
     1
102
RTVSPropertyOp26
 70
     1
102
RTVSPropertyOp27
 70
     1
102
RTVSPropertyOp28
 70
     1
102
RTVSPropertyOp29
 70
     1
102
RTVSPropertyOp30
 70
     1
102
RTVSPropertyOp31
 70
     1
102
RTVSPropertyOp32
 70
     1
  0
XRECORD
  5
25F
102
{ACAD_REACTORS
330
25E
102
}
330
25E
100
AcDbXrecord
280
     1
102
RTVSPropertyOp0
 70
     1
102
RTVSPropertyOp1
 70
     1
102
RTVSPropertyOp2
 70
     1
102
RTVSPropertyOp3
 70
     1
102
RTVSPropertyOp4
 70
     1
102
RTVSPropertyOp5
 70
     1
102
RTVSPropertyOp6
 70
     1
102
RTVSPropertyOp7
 70
     1
102
RTVSPropertyOp8
 70
     1
102
RTVSPropertyOp9
 70
     1
102
RTVSPropertyOp10
 70
     1
102
RTVSPropertyOp11
 70
     1
102
RTVSPropertyOp12
 70
     1
102
RTVSPropertyOp13
 70
     1
102
RTVSPropertyOp14
 70
     1
102
RTVSPropertyOp15
 70
     1
102
RTVSPropertyOp16
 70
     1
102
RTVSPropertyOp17
 70
     1
102
RTVSPropertyOp18
 70
     1
102
RTVSPropertyOp19
 70
     1
102
RTVSPropertyOp20
 70
     1
102
RTVSPropertyOp21
 70
     1
102
RTVSPropertyOp22
 70
     1
102
RTVSPropertyOp23
 70
     1
102
RTVSPropertyOp24
 70
     1
102
RTVSPropertyOp25
 70
     1
102
RTVSPropertyOp26
 70
     1
102
RTVSPropertyOp27
 70
     1
102
RTVSPropertyOp28
 70
     1
102
RTVSPropertyOp29
 70
     1
102
RTVSPropertyOp30
 70
     1
102
RTVSPropertyOp31
 70
     1
102
RTVSPropertyOp32
 70
     1
  0
XRECORD
  5
263
102
{ACAD_REACTORS
330
262
102
}
330
262
100
AcDbXrecord
280
     1
102
RTVSPropertyOp0
 70
     1
102
RTVSPropertyOp1
 70
     1
102
RTVSPropertyOp2
 70
     1
102
RTVSPropertyOp3
 70
     1
102
RTVSPropertyOp4
 70
     1
102
RTVSPropertyOp5
 70
     1
102
RTVSPropertyOp6
 70
     1
102
RTVSPropertyOp7
 70
     1
102
RTVSPropertyOp8
 70
     1
102
RTVSPropertyOp9
 70
     1
102
RTVSPropertyOp10
 70
     1
102
RTVSPropertyOp11
 70
     1
102
RTVSPropertyOp12
 70
     1
102
RTVSPropertyOp13
 70
     1
102
RTVSPropertyOp14
 70
     1
102
RTVSPropertyOp15
 70
     1
102
RTVSPropertyOp16
 70
     1
102
RTVSPropertyOp17
 70
     1
102
RTVSPropertyOp18
 70
     1
102
RTVSPropertyOp19
 70
     1
102
RTVSPropertyOp20
 70
     1
102
RTVSPropertyOp21
 70
     1
102
RTVSPropertyOp22
 70
     1
102
RTVSPropertyOp23
 70
     1
102
RTVSPropertyOp24
 70
     1
102
RTVSPropertyOp25
 70
     1
102
RTVSPropertyOp26
 70
     1
102
RTVSPropertyOp27
 70
     1
102
RTVSPropertyOp28
 70
     1
102
RTVSPropertyOp29
 70
     1
102
RTVSPropertyOp30
 70
     1
102
RTVSPropertyOp31
 70
     1
102
RTVSPropertyOp32
 70
     1
  0
XRECORD
  5
27D
102
{ACAD_REACTORS
330
27C
102
}
330
27C
100
AcDbXrecord
280
     1
102
RTVSPropertyOp0
 70
     0
102
RTVSPropertyOp1
 70
     0
102
RTVSPropertyOp2
 70
     0
102
RTVSPropertyOp3
 70
     0
102
RTVSPropertyOp4
 70
     0
102
RTVSPropertyOp5
 70
     0
102
RTVSPropertyOp6
 70
     0
102
RTVSPropertyOp7
 70
     0
102
RTVSPropertyOp8
 70
     0
102
RTVSPropertyOp9
 70
     0
102
RTVSPropertyOp10
 70
     0
102
RTVSPropertyOp11
 70
     0
102
RTVSPropertyOp12
 70
     0
102
RTVSPropertyOp13
 70
     0
102
RTVSPropertyOp14
 70
     2
102
RTVSPropertyOp15
 70
     0
102
RTVSPropertyOp16
 70
     0
102
RTVSPropertyOp17
 70
     0
102
RTVSPropertyOp18
 70
     0
102
RTVSPropertyOp19
 70
     0
102
RTVSPropertyOp20
 70
     0
102
RTVSPropertyOp21
 70
     0
102
RTVSPropertyOp22
 70
     0
102
RTVSPropertyOp23
 70
     0
102
RTVSPropertyOp24
 70
     0
102
RTVSPropertyOp25
 70
     0
102
RTVSPropertyOp26
 70
     0
102
RTVSPropertyOp27
 70
     0
102
RTVSPropertyOp28
 70
     1
102
RTVSPropertyOp29
 70
     1
102
RTVSPropertyOp30
 70
     1
102
RTVSPropertyOp31
 70
     1
102
RTVSPropertyOp32
 70
     1
  0
XRECORD
  5
26B
102
{ACAD_REACTORS
330
26A
102
}
330
26A
100
AcDbXrecord
280
     1
102
RTVSPropertyOp0
 70
     1
102
RTVSPropertyOp1
 70
     1
102
RTVSPropertyOp2
 70
     1
102
RTVSPropertyOp3
 70
     1
102
RTVSPropertyOp4
 70
     1
102
RTVSPropertyOp5
 70
     1
102
RTVSPropertyOp6
 70
     1
102
RTVSPropertyOp7
 70
     1
102
RTVSPropertyOp8
 70
     1
102
RTVSPropertyOp9
 70
     1
102
RTVSPropertyOp10
 70
     1
102
RTVSPropertyOp11
 70
     1
102
RTVSPropertyOp12
 70
     1
102
RTVSPropertyOp13
 70
     1
102
RTVSPropertyOp14
 70
     1
102
RTVSPropertyOp15
 70
     1
102
RTVSPropertyOp16
 70
     1
102
RTVSPropertyOp17
 70
     1
102
RTVSPropertyOp18
 70
     1
102
RTVSPropertyOp19
 70
     1
102
RTVSPropertyOp20
 70
     1
102
RTVSPropertyOp21
 70
     1
102
RTVSPropertyOp22
 70
     1
102
RTVSPropertyOp23
 70
     1
102
RTVSPropertyOp24
 70
     1
102
RTVSPropertyOp25
 70
     1
102
RTVSPropertyOp26
 70
     1
102
RTVSPropertyOp27
 70
     1
102
RTVSPropertyOp28
 70
     1
102
RTVSPropertyOp29
 70
     1
102
RTVSPropertyOp30
 70
     1
102
RTVSPropertyOp31
 70
     1
102
RTVSPropertyOp32
 70
     1
  0
XRECORD
  5
24F
102
{ACAD_REACTORS
330
24E
102
}
330
24E
100
AcDbXrecord
280
     1
102
RTVSPropertyOp0
 70
     1
102
RTVSPropertyOp1
 70
     1
102
RTVSPropertyOp2
 70
     1
102
RTVSPropertyOp3
 70
     1
102
RTVSPropertyOp4
 70
     1
102
RTVSPropertyOp5
 70
     1
102
RTVSPropertyOp6
 70
     1
102
RTVSPropertyOp7
 70
     1
102
RTVSPropertyOp8
 70
     1
102
RTVSPropertyOp9
 70
     1
102
RTVSPropertyOp10
 70
     1
102
RTVSPropertyOp11
 70
     1
102
RTVSPropertyOp12
 70
     1
102
RTVSPropertyOp13
 70
     1
102
RTVSPropertyOp14
 70
     1
102
RTVSPropertyOp15
 70
     1
102
RTVSPropertyOp16
 70
     1
102
RTVSPropertyOp17
 70
     1
102
RTVSPropertyOp18
 70
     1
102
RTVSPropertyOp19
 70
     1
102
RTVSPropertyOp20
 70
     1
102
RTVSPropertyOp21
 70
     1
102
RTVSPropertyOp22
 70
     1
102
RTVSPropertyOp23
 70
     1
102
RTVSPropertyOp24
 70
     1
102
RTVSPropertyOp25
 70
     1
102
RTVSPropertyOp26
 70
     1
102
RTVSPropertyOp27
 70
     1
102
RTVSPropertyOp28
 70
     1
102
RTVSPropertyOp29
 70
     1
102
RTVSPropertyOp30
 70
     1
102
RTVSPropertyOp31
 70
     1
102
RTVSPropertyOp32
 70
     1
  0
XRECORD
  5
251
102
{ACAD_REACTORS
330
250
102
}
330
250
100
AcDbXrecord
280
     1
102
RTVSPropertyOp0
 70
     1
102
RTVSPropertyOp1
 70
     1
102
RTVSPropertyOp2
 70
     1
102
RTVSPropertyOp3
 70
     1
102
RTVSPropertyOp4
 70
     1
102
RTVSPropertyOp5
 70
     1
102
RTVSPropertyOp6
 70
     1
102
RTVSPropertyOp7
 70
     1
102
RTVSPropertyOp8
 70
     1
102
RTVSPropertyOp9
 70
     1
102
RTVSPropertyOp10
 70
     1
102
RTVSPropertyOp11
 70
     1
102
RTVSPropertyOp12
 70
     1
102
RTVSPropertyOp13
 70
     1
102
RTVSPropertyOp14
 70
     1
102
RTVSPropertyOp15
 70
     1
102
RTVSPropertyOp16
 70
     1
102
RTVSPropertyOp17
 70
     1
102
RTVSPropertyOp18
 70
     1
102
RTVSPropertyOp19
 70
     1
102
RTVSPropertyOp20
 70
     1
102
RTVSPropertyOp21
 70
     1
102
RTVSPropertyOp22
 70
     1
102
RTVSPropertyOp23
 70
     1
102
RTVSPropertyOp24
 70
     1
102
RTVSPropertyOp25
 70
     1
102
RTVSPropertyOp26
 70
     1
102
RTVSPropertyOp27
 70
     1
102
RTVSPropertyOp28
 70
     1
102
RTVSPropertyOp29
 70
     1
102
RTVSPropertyOp30
 70
     1
102
RTVSPropertyOp31
 70
     1
102
RTVSPropertyOp32
 70
     1
  0
XRECORD
  5
253
102
{ACAD_REACTORS
330
252
102
}
330
252
100
AcDbXrecord
280
     1
102
RTVSPropertyOp0
 70
     1
102
RTVSPropertyOp1
 70
     1
102
RTVSPropertyOp2
 70
     1
102
RTVSPropertyOp3
 70
     1
102
RTVSPropertyOp4
 70
     1
102
RTVSPropertyOp5
 70
     1
102
RTVSPropertyOp6
 70
     1
102
RTVSPropertyOp7
 70
     1
102
RTVSPropertyOp8
 70
     1
102
RTVSPropertyOp9
 70
     1
102
RTVSPropertyOp10
 70
     1
102
RTVSPropertyOp11
 70
     1
102
RTVSPropertyOp12
 70
     1
102
RTVSPropertyOp13
 70
     1
102
RTVSPropertyOp14
 70
     1
102
RTVSPropertyOp15
 70
     1
102
RTVSPropertyOp16
 70
     1
102
RTVSPropertyOp17
 70
     1
102
RTVSPropertyOp18
 70
     1
102
RTVSPropertyOp19
 70
     1
102
RTVSPropertyOp20
 70
     1
102
RTVSPropertyOp21
 70
     1
102
RTVSPropertyOp22
 70
     1
102
RTVSPropertyOp23
 70
     1
102
RTVSPropertyOp24
 70
     1
102
RTVSPropertyOp25
 70
     1
102
RTVSPropertyOp26
 70
     1
102
RTVSPropertyOp27
 70
     1
102
RTVSPropertyOp28
 70
     1
102
RTVSPropertyOp29
 70
     1
102
RTVSPropertyOp30
 70
     1
102
RTVSPropertyOp31
 70
     1
102
RTVSPropertyOp32
 70
     1
  0
XRECORD
  5
255
102
{ACAD_REACTORS
330
254
102
}
330
254
100
AcDbXrecord
280
     1
102
RTVSPropertyOp0
 70
     1
102
RTVSPropertyOp1
 70
     1
102
RTVSPropertyOp2
 70
     1
102
RTVSPropertyOp3
 70
     1
102
RTVSPropertyOp4
 70
     1
102
RTVSPropertyOp5
 70
     1
102
RTVSPropertyOp6
 70
     1
102
RTVSPropertyOp7
 70
     1
102
RTVSPropertyOp8
 70
     1
102
RTVSPropertyOp9
 70
     1
102
RTVSPropertyOp10
 70
     1
102
RTVSPropertyOp11
 70
     1
102
RTVSPropertyOp12
 70
     1
102
RTVSPropertyOp13
 70
     1
102
RTVSPropertyOp14
 70
     1
102
RTVSPropertyOp15
 70
     1
102
RTVSPropertyOp16
 70
     1
102
RTVSPropertyOp17
 70
     1
102
RTVSPropertyOp18
 70
     1
102
RTVSPropertyOp19
 70
     1
102
RTVSPropertyOp20
 70
     1
102
RTVSPropertyOp21
 70
     1
102
RTVSPropertyOp22
 70
     1
102
RTVSPropertyOp23
 70
     1
102
RTVSPropertyOp24
 70
     1
102
RTVSPropertyOp25
 70
     1
102
RTVSPropertyOp26
 70
     1
102
RTVSPropertyOp27
 70
     1
102
RTVSPropertyOp28
 70
     1
102
RTVSPropertyOp29
 70
     1
102
RTVSPropertyOp30
 70
     1
102
RTVSPropertyOp31
 70
     1
102
RTVSPropertyOp32
 70
     1
  0
XRECORD
  5
25D
102
{ACAD_REACTORS
330
25C
102
}
330
25C
100
AcDbXrecord
280
     1
102
RTVSPropertyOp0
 70
     1
102
RTVSPropertyOp1
 70
     1
102
RTVSPropertyOp2
 70
     1
102
RTVSPropertyOp3
 70
     1
102
RTVSPropertyOp4
 70
     1
102
RTVSPropertyOp5
 70
     1
102
RTVSPropertyOp6
 70
     1
102
RTVSPropertyOp7
 70
     1
102
RTVSPropertyOp8
 70
     1
102
RTVSPropertyOp9
 70
     1
102
RTVSPropertyOp10
 70
     1
102
RTVSPropertyOp11
 70
     1
102
RTVSPropertyOp12
 70
     1
102
RTVSPropertyOp13
 70
     1
102
RTVSPropertyOp14
 70
     1
102
RTVSPropertyOp15
 70
     1
102
RTVSPropertyOp16
 70
     1
102
RTVSPropertyOp17
 70
     1
102
RTVSPropertyOp18
 70
     1
102
RTVSPropertyOp19
 70
     1
102
RTVSPropertyOp20
 70
     1
102
RTVSPropertyOp21
 70
     1
102
RTVSPropertyOp22
 70
     1
102
RTVSPropertyOp23
 70
     1
102
RTVSPropertyOp24
 70
     1
102
RTVSPropertyOp25
 70
     1
102
RTVSPropertyOp26
 70
     1
102
RTVSPropertyOp27
 70
     1
102
RTVSPropertyOp28
 70
     1
102
RTVSPropertyOp29
 70
     1
102
RTVSPropertyOp30
 70
     1
102
RTVSPropertyOp31
 70
     1
102
RTVSPropertyOp32
 70
     1
  0
XRECORD
  5
279
102
{ACAD_REACTORS
330
278
102
}
330
278
100
AcDbXrecord
280
     1
102
RTVSPropertyOp0
 70
     0
102
RTVSPropertyOp1
 70
     0
102
RTVSPropertyOp2
 70
     0
102
RTVSPropertyOp3
 70
     0
102
RTVSPropertyOp4
 70
     0
102
RTVSPropertyOp5
 70
     0
102
RTVSPropertyOp6
 70
     0
102
RTVSPropertyOp7
 70
     0
102
RTVSPropertyOp8
 70
     0
102
RTVSPropertyOp9
 70
     0
102
RTVSPropertyOp10
 70
     0
102
RTVSPropertyOp11
 70
     0
102
RTVSPropertyOp12
 70
     0
102
RTVSPropertyOp13
 70
     0
102
RTVSPropertyOp14
 70
     2
102
RTVSPropertyOp15
 70
     0
102
RTVSPropertyOp16
 70
     0
102
RTVSPropertyOp17
 70
     0
102
RTVSPropertyOp18
 70
     0
102
RTVSPropertyOp19
 70
     0
102
RTVSPropertyOp20
 70
     0
102
RTVSPropertyOp21
 70
     0
102
RTVSPropertyOp22
 70
     0
102
RTVSPropertyOp23
 70
     0
102
RTVSPropertyOp24
 70
     0
102
RTVSPropertyOp25
 70
     0
102
RTVSPropertyOp26
 70
     0
102
RTVSPropertyOp27
 70
     0
102
RTVSPropertyOp28
 70
     1
102
RTVSPropertyOp29
 70
     1
102
RTVSPropertyOp30
 70
     1
102
RTVSPropertyOp31
 70
     1
102
RTVSPropertyOp32
 70
     1
  0
XRECORD
  5
269
102
{ACAD_REACTORS
330
268
102
}
330
268
100
AcDbXrecord
280
     1
102
RTVSPropertyOp0
 70
     1
102
RTVSPropertyOp1
 70
     1
102
RTVSPropertyOp2
 70
     1
102
RTVSPropertyOp3
 70
     1
102
RTVSPropertyOp4
 70
     1
102
RTVSPropertyOp5
 70
     1
102
RTVSPropertyOp6
 70
     1
102
RTVSPropertyOp7
 70
     1
102
RTVSPropertyOp8
 70
     1
102
RTVSPropertyOp9
 70
     1
102
RTVSPropertyOp10
 70
     1
102
RTVSPropertyOp11
 70
     1
102
RTVSPropertyOp12
 70
     1
102
RTVSPropertyOp13
 70
     1
102
RTVSPropertyOp14
 70
     1
102
RTVSPropertyOp15
 70
     1
102
RTVSPropertyOp16
 70
     1
102
RTVSPropertyOp17
 70
     1
102
RTVSPropertyOp18
 70
     1
102
RTVSPropertyOp19
 70
     1
102
RTVSPropertyOp20
 70
     1
102
RTVSPropertyOp21
 70
     1
102
RTVSPropertyOp22
 70
     1
102
RTVSPropertyOp23
 70
     1
102
RTVSPropertyOp24
 70
     1
102
RTVSPropertyOp25
 70
     1
102
RTVSPropertyOp26
 70
     1
102
RTVSPropertyOp27
 70
     1
102
RTVSPropertyOp28
 70
     1
102
RTVSPropertyOp29
 70
     1
102
RTVSPropertyOp30
 70
     1
102
RTVSPropertyOp31
 70
     1
102
RTVSPropertyOp32
 70
     1
  0
XRECORD
  5
27B
102
{ACAD_REACTORS
330
27A
102
}
330
27A
100
AcDbXrecord
280
     1
102
RTVSPropertyOp0
 70
     0
102
RTVSPropertyOp1
 70
     0
102
RTVSPropertyOp2
 70
     0
102
RTVSPropertyOp3
 70
     0
102
RTVSPropertyOp4
 70
     0
102
RTVSPropertyOp5
 70
     0
102
RTVSPropertyOp6
 70
     0
102
RTVSPropertyOp7
 70
     0
102
RTVSPropertyOp8
 70
     0
102
RTVSPropertyOp9
 70
     0
102
RTVSPropertyOp10
 70
     0
102
RTVSPropertyOp11
 70
     0
102
RTVSPropertyOp12
 70
     0
102
RTVSPropertyOp13
 70
     0
102
RTVSPropertyOp14
 70
     2
102
RTVSPropertyOp15
 70
     0
102
RTVSPropertyOp16
 70
     0
102
RTVSPropertyOp17
 70
     0
102
RTVSPropertyOp18
 70
     0
102
RTVSPropertyOp19
 70
     0
102
RTVSPropertyOp20
 70
     0
102
RTVSPropertyOp21
 70
     0
102
RTVSPropertyOp22
 70
     0
102
RTVSPropertyOp23
 70
     0
102
RTVSPropertyOp24
 70
     0
102
RTVSPropertyOp25
 70
     0
102
RTVSPropertyOp26
 70
     0
102
RTVSPropertyOp27
 70
     0
102
RTVSPropertyOp28
 70
     1
102
RTVSPropertyOp29
 70
     1
102
RTVSPropertyOp30
 70
     1
102
RTVSPropertyOp31
 70
     1
102
RTVSPropertyOp32
 70
     1
  0
XRECORD
  5
261
102
{ACAD_REACTORS
330
260
102
}
330
260
100
AcDbXrecord
280
     1
102
RTVSPropertyOp0
 70
     1
102
RTVSPropertyOp1
 70
     1
102
RTVSPropertyOp2
 70
     1
102
RTVSPropertyOp3
 70
     1
102
RTVSPropertyOp4
 70
     1
102
RTVSPropertyOp5
 70
     1
102
RTVSPropertyOp6
 70
     1
102
RTVSPropertyOp7
 70
     1
102
RTVSPropertyOp8
 70
     1
102
RTVSPropertyOp9
 70
     1
102
RTVSPropertyOp10
 70
     1
102
RTVSPropertyOp11
 70
     1
102
RTVSPropertyOp12
 70
     1
102
RTVSPropertyOp13
 70
     1
102
RTVSPropertyOp14
 70
     1
102
RTVSPropertyOp15
 70
     1
102
RTVSPropertyOp16
 70
     1
102
RTVSPropertyOp17
 70
     1
102
RTVSPropertyOp18
 70
     1
102
RTVSPropertyOp19
 70
     1
102
RTVSPropertyOp20
 70
     1
102
RTVSPropertyOp21
 70
     1
102
RTVSPropertyOp22
 70
     1
102
RTVSPropertyOp23
 70
     1
102
RTVSPropertyOp24
 70
     1
102
RTVSPropertyOp25
 70
     1
102
RTVSPropertyOp26
 70
     1
102
RTVSPropertyOp27
 70
     1
102
RTVSPropertyOp28
 70
     1
102
RTVSPropertyOp29
 70
     1
102
RTVSPropertyOp30
 70
     1
102
RTVSPropertyOp31
 70
     1
102
RTVSPropertyOp32
 70
     1
  0
XRECORD
  5
277
102
{ACAD_REACTORS
330
276
102
}
330
276
100
AcDbXrecord
280
     1
102
RTVSPropertyOp0
 70
     1
102
RTVSPropertyOp1
 70
     1
102
RTVSPropertyOp2
 70
     1
102
RTVSPropertyOp3
 70
     1
102
RTVSPropertyOp4
 70
     1
102
RTVSPropertyOp5
 70
     1
102
RTVSPropertyOp6
 70
     1
102
RTVSPropertyOp7
 70
     1
102
RTVSPropertyOp8
 70
     1
102
RTVSPropertyOp9
 70
     1
102
RTVSPropertyOp10
 70
     1
102
RTVSPropertyOp11
 70
     1
102
RTVSPropertyOp12
 70
     1
102
RTVSPropertyOp13
 70
     1
102
RTVSPropertyOp14
 70
     1
102
RTVSPropertyOp15
 70
     1
102
RTVSPropertyOp16
 70
     1
102
RTVSPropertyOp17
 70
     1
102
RTVSPropertyOp18
 70
     1
102
RTVSPropertyOp19
 70
     1
102
RTVSPropertyOp20
 70
     1
102
RTVSPropertyOp21
 70
     1
102
RTVSPropertyOp22
 70
     1
102
RTVSPropertyOp23
 70
     1
102
RTVSPropertyOp24
 70
     1
102
RTVSPropertyOp25
 70
     1
102
RTVSPropertyOp26
 70
     1
102
RTVSPropertyOp27
 70
     1
102
RTVSPropertyOp28
 70
     1
102
RTVSPropertyOp29
 70
     1
102
RTVSPropertyOp30
 70
     1
102
RTVSPropertyOp31
 70
     1
102
RTVSPropertyOp32
 70
     1
  0
XRECORD
  5
275
102
{ACAD_REACTORS
330
274
102
}
330
274
100
AcDbXrecord
280
     1
102
RTVSPropertyOp0
 70
     1
102
RTVSPropertyOp1
 70
     1
102
RTVSPropertyOp2
 70
     1
102
RTVSPropertyOp3
 70
     1
102
RTVSPropertyOp4
 70
     1
102
RTVSPropertyOp5
 70
     1
102
RTVSPropertyOp6
 70
     1
102
RTVSPropertyOp7
 70
     1
102
RTVSPropertyOp8
 70
     1
102
RTVSPropertyOp9
 70
     1
102
RTVSPropertyOp10
 70
     1
102
RTVSPropertyOp11
 70
     1
102
RTVSPropertyOp12
 70
     1
102
RTVSPropertyOp13
 70
     1
102
RTVSPropertyOp14
 70
     1
102
RTVSPropertyOp15
 70
     1
102
RTVSPropertyOp16
 70
     1
102
RTVSPropertyOp17
 70
     1
102
RTVSPropertyOp18
 70
     1
102
RTVSPropertyOp19
 70
     1
102
RTVSPropertyOp20
 70
     1
102
RTVSPropertyOp21
 70
     1
102
RTVSPropertyOp22
 70
     1
102
RTVSPropertyOp23
 70
     1
102
RTVSPropertyOp24
 70
     1
102
RTVSPropertyOp25
 70
     1
102
RTVSPropertyOp26
 70
     1
102
RTVSPropertyOp27
 70
     1
102
RTVSPropertyOp28
 70
     1
102
RTVSPropertyOp29
 70
     1
102
RTVSPropertyOp30
 70
     1
102
RTVSPropertyOp31
 70
     1
102
RTVSPropertyOp32
 70
     1
  0
XRECORD
  5
26F
102
{ACAD_REACTORS
330
26E
102
}
330
26E
100
AcDbXrecord
280
     1
102
RTVSPropertyOp0
 70
     1
102
RTVSPropertyOp1
 70
     1
102
RTVSPropertyOp2
 70
     1
102
RTVSPropertyOp3
 70
     1
102
RTVSPropertyOp4
 70
     1
102
RTVSPropertyOp5
 70
     1
102
RTVSPropertyOp6
 70
     1
102
RTVSPropertyOp7
 70
     1
102
RTVSPropertyOp8
 70
     1
102
RTVSPropertyOp9
 70
     1
102
RTVSPropertyOp10
 70
     1
102
RTVSPropertyOp11
 70
     1
102
RTVSPropertyOp12
 70
     1
102
RTVSPropertyOp13
 70
     1
102
RTVSPropertyOp14
 70
     1
102
RTVSPropertyOp15
 70
     1
102
RTVSPropertyOp16
 70
     1
102
RTVSPropertyOp17
 70
     1
102
RTVSPropertyOp18
 70
     1
102
RTVSPropertyOp19
 70
     1
102
RTVSPropertyOp20
 70
     1
102
RTVSPropertyOp21
 70
     1
102
RTVSPropertyOp22
 70
     1
102
RTVSPropertyOp23
 70
     1
102
RTVSPropertyOp24
 70
     1
102
RTVSPropertyOp25
 70
     1
102
RTVSPropertyOp26
 70
     1
102
RTVSPropertyOp27
 70
     1
102
RTVSPropertyOp28
 70
     1
102
RTVSPropertyOp29
 70
     1
102
RTVSPropertyOp30
 70
     1
102
RTVSPropertyOp31
 70
     1
102
RTVSPropertyOp32
 70
     1
  0
XRECORD
  5
271
102
{ACAD_REACTORS
330
270
102
}
330
270
100
AcDbXrecord
280
     1
102
RTVSPropertyOp0
 70
     1
102
RTVSPropertyOp1
 70
     1
102
RTVSPropertyOp2
 70
     1
102
RTVSPropertyOp3
 70
     1
102
RTVSPropertyOp4
 70
     1
102
RTVSPropertyOp5
 70
     1
102
RTVSPropertyOp6
 70
     1
102
RTVSPropertyOp7
 70
     1
102
RTVSPropertyOp8
 70
     1
102
RTVSPropertyOp9
 70
     1
102
RTVSPropertyOp10
 70
     1
102
RTVSPropertyOp11
 70
     1
102
RTVSPropertyOp12
 70
     1
102
RTVSPropertyOp13
 70
     1
102
RTVSPropertyOp14
 70
     1
102
RTVSPropertyOp15
 70
     1
102
RTVSPropertyOp16
 70
     1
102
RTVSPropertyOp17
 70
     1
102
RTVSPropertyOp18
 70
     1
102
RTVSPropertyOp19
 70
     1
102
RTVSPropertyOp20
 70
     1
102
RTVSPropertyOp21
 70
     1
102
RTVSPropertyOp22
 70
     1
102
RTVSPropertyOp23
 70
     1
102
RTVSPropertyOp24
 70
     1
102
RTVSPropertyOp25
 70
     1
102
RTVSPropertyOp26
 70
     1
102
RTVSPropertyOp27
 70
     1
102
RTVSPropertyOp28
 70
     1
102
RTVSPropertyOp29
 70
     1
102
RTVSPropertyOp30
 70
     1
102
RTVSPropertyOp31
 70
     1
102
RTVSPropertyOp32
 70
     1
  0
XRECORD
  5
267
102
{ACAD_REACTORS
330
266
102
}
330
266
100
AcDbXrecord
280
     1
102
RTVSPropertyOp0
 70
     1
102
RTVSPropertyOp1
 70
     1
102
RTVSPropertyOp2
 70
     1
102
RTVSPropertyOp3
 70
     1
102
RTVSPropertyOp4
 70
     1
102
RTVSPropertyOp5
 70
     1
102
RTVSPropertyOp6
 70
     1
102
RTVSPropertyOp7
 70
     1
102
RTVSPropertyOp8
 70
     1
102
RTVSPropertyOp9
 70
     1
102
RTVSPropertyOp10
 70
     1
102
RTVSPropertyOp11
 70
     1
102
RTVSPropertyOp12
 70
     1
102
RTVSPropertyOp13
 70
     1
102
RTVSPropertyOp14
 70
     1
102
RTVSPropertyOp15
 70
     1
102
RTVSPropertyOp16
 70
     1
102
RTVSPropertyOp17
 70
     1
102
RTVSPropertyOp18
 70
     1
102
RTVSPropertyOp19
 70
     1
102
RTVSPropertyOp20
 70
     1
102
RTVSPropertyOp21
 70
     1
102
RTVSPropertyOp22
 70
     1
102
RTVSPropertyOp23
 70
     1
102
RTVSPropertyOp24
 70
     1
102
RTVSPropertyOp25
 70
     1
102
RTVSPropertyOp26
 70
     1
102
RTVSPropertyOp27
 70
     1
102
RTVSPropertyOp28
 70
     1
102
RTVSPropertyOp29
 70
     1
102
RTVSPropertyOp30
 70
     1
102
RTVSPropertyOp31
 70
     1
102
RTVSPropertyOp32
 70
     1
  0
XRECORD
  5
25B
102
{ACAD_REACTORS
330
25A
102
}
330
25A
100
AcDbXrecord
280
     1
102
RTVSPropertyOp0
 70
     1
102
RTVSPropertyOp1
 70
     1
102
RTVSPropertyOp2
 70
     1
102
RTVSPropertyOp3
 70
     1
102
RTVSPropertyOp4
 70
     1
102
RTVSPropertyOp5
 70
     1
102
RTVSPropertyOp6
 70
     1
102
RTVSPropertyOp7
 70
     1
102
RTVSPropertyOp8
 70
     1
102
RTVSPropertyOp9
 70
     1
102
RTVSPropertyOp10
 70
     1
102
RTVSPropertyOp11
 70
     1
102
RTVSPropertyOp12
 70
     1
102
RTVSPropertyOp13
 70
     1
102
RTVSPropertyOp14
 70
     1
102
RTVSPropertyOp15
 70
     1
102
RTVSPropertyOp16
 70
     1
102
RTVSPropertyOp17
 70
     1
102
RTVSPropertyOp18
 70
     1
102
RTVSPropertyOp19
 70
     1
102
RTVSPropertyOp20
 70
     1
102
RTVSPropertyOp21
 70
     1
102
RTVSPropertyOp22
 70
     1
102
RTVSPropertyOp23
 70
     1
102
RTVSPropertyOp24
 70
     1
102
RTVSPropertyOp25
 70
     1
102
RTVSPropertyOp26
 70
     1
102
RTVSPropertyOp27
 70
     1
102
RTVSPropertyOp28
 70
     1
102
RTVSPropertyOp29
 70
     1
102
RTVSPropertyOp30
 70
     1
102
RTVSPropertyOp31
 70
     1
102
RTVSPropertyOp32
 70
     1
  0
XRECORD
  5
273
102
{ACAD_REACTORS
330
272
102
}
330
272
100
AcDbXrecord
280
     1
102
RTVSPropertyOp0
 70
     1
102
RTVSPropertyOp1
 70
     1
102
RTVSPropertyOp2
 70
     1
102
RTVSPropertyOp3
 70
     1
102
RTVSPropertyOp4
 70
     1
102
RTVSPropertyOp5
 70
     1
102
RTVSPropertyOp6
 70
     1
102
RTVSPropertyOp7
 70
     1
102
RTVSPropertyOp8
 70
     1
102
RTVSPropertyOp9
 70
     1
102
RTVSPropertyOp10
 70
     1
102
RTVSPropertyOp11
 70
     1
102
RTVSPropertyOp12
 70
     1
102
RTVSPropertyOp13
 70
     1
102
RTVSPropertyOp14
 70
     1
102
RTVSPropertyOp15
 70
     1
102
RTVSPropertyOp16
 70
     1
102
RTVSPropertyOp17
 70
     1
102
RTVSPropertyOp18
 70
     1
102
RTVSPropertyOp19
 70
     1
102
RTVSPropertyOp20
 70
     1
102
RTVSPropertyOp21
 70
     1
102
RTVSPropertyOp22
 70
     1
102
RTVSPropertyOp23
 70
     1
102
RTVSPropertyOp24
 70
     1
102
RTVSPropertyOp25
 70
     1
102
RTVSPropertyOp26
 70
     1
102
RTVSPropertyOp27
 70
     1
102
RTVSPropertyOp28
 70
     1
102
RTVSPropertyOp29
 70
     1
102
RTVSPropertyOp30
 70
     1
102
RTVSPropertyOp31
 70
     1
102
RTVSPropertyOp32
 70
     1
  0
ENDSEC
  0
EOF
