  0
SECTION
  2
HEADER
  9
$ACADVER
  1
AC1015
  9
$ACADMAINTVER
 70
     6
  9
$DWGCODEPAGE
  3
ANSI_1252
  9
$INSBASE
 10
0.0
 20
0.0
 30
0.0
  9
$EXTMIN
 10
-7.932490801585047
 20
-3.001097262845036
 30
-0.0000000000000053
  9
$EXTMAX
 10
7.978574517100363
 20
7.628127311203521
 30
0.0000000000000099
  9
$LIMMIN
 10
0.0
 20
0.0
  9
$LIMMAX
 10
20.0
 20
26.25
  9
$ORTHOMODE
 70
     1
  9
$REGENMODE
 70
     1
  9
$FILLMODE
 70
     1
  9
$QTEXTMODE
 70
     0
  9
$MIRRTEXT
 70
     1
  9
$LTSCALE
 40
1.0
  9
$ATTMODE
 70
     1
  9
$TEXTSIZE
 40
0.225
  9
$TRACEWID
 40
0.05
  9
$TEXTSTYLE
  7
STANDARD
  9
$CLAYER
  8
0
  9
$CELTYPE
  6
ByLayer
  9
$CECOLOR
 62
   256
  9
$CELTSCALE
 40
1.0
  9
$DISPSILH
 70
     0
  9
$DIMSCALE
 40
2.5
  9
$DIMASZ
 40
0.125
  9
$DIMEXO
 40
0.062
  9
$DIMDLI
 40
0.375
  9
$DIMRND
 40
0.0
  9
$DIMDLE
 40
0.0
  9
$DIMEXE
 40
0.08
  9
$DIMTP
 40
0.0
  9
$DIMTM
 40
0.0
  9
$DIMTXT
 40
0.09
  9
$DIMCEN
 40
-0.03125
  9
$DIMTSZ
 40
0.0
  9
$DIMTOL
 70
     0
  9
$DIMLIM
 70
     0
  9
$DIMTIH
 70
     1
  9
$DIMTOH
 70
     1
  9
$DIMSE1
 70
     0
  9
$DIMSE2
 70
     0
  9
$DIMTAD
 70
     0
  9
$DIMZIN
 70
     0
  9
$DIMBLK
  1

  9
$DIMASO
 70
     0
  9
$DIMSHO
 70
     0
  9
$DIMPOST
  1

  9
$DIMAPOST
  1

  9
$DIMALT
 70
     0
  9
$DIMALTD
 70
     2
  9
$DIMALTF
 40
25.4
  9
$DIMLFAC
 40
1.0
  9
$DIMTOFL
 70
     0
  9
$DIMTVP
 40
0.0
  9
$DIMTIX
 70
     0
  9
$DIMSOXD
 70
     0
  9
$DIMSAH
 70
     0
  9
$DIMBLK1
  1

  9
$DIMBLK2
  1

  9
$DIMSTYLE
  2
Standard
  9
$DIMCLRD
 70
     0
  9
$DIMCLRE
 70
     0
  9
$DIMCLRT
 70
     0
  9
$DIMTFAC
 40
1.0
  9
$DIMGAP
 40
0.09
  9
$DIMJUST
 70
     0
  9
$DIMSD1
 70
     0
  9
$DIMSD2
 70
     0
  9
$DIMTOLJ
 70
     1
  9
$DIMTZIN
 70
     0
  9
$DIMALTZ
 70
     0
  9
$DIMALTTZ
 70
     0
  9
$DIMUPT
 70
     0
  9
$DIMDEC
 70
     5
  9
$DIMTDEC
 70
     5
  9
$DIMALTU
 70
     5
  9
$DIMALTTD
 70
     2
  9
$DIMTXSTY
  7
STANDARD
  9
$DIMAUNIT
 70
     0
  9
$DIMADEC
 70
     0
  9
$DIMALTRND
 40
0.0
  9
$DIMAZIN
 70
     0
  9
$DIMDSEP
 70
    46
  9
$DIMATFIT
 70
     3
  9
$DIMFRAC
 70
     0
  9
$DIMLDRBLK
  1

  9
$DIMLUNIT
 70
     5
  9
$DIMLWD
 70
    -2
  9
$DIMLWE
 70
    -2
  9
$DIMTMOVE
 70
     2
  9
$LUNITS
 70
     5
  9
$LUPREC
 70
     5
  9
$SKETCHINC
 40
0.1
  9
$FILLETRAD
 40
0.0
  9
$AUNITS
 70
     0
  9
$AUPREC
 70
     0
  9
$MENU
  1
acad
  9
$ELEVATION
 40
0.0
  9
$PELEVATION
 40
0.0
  9
$THICKNESS
 40
0.0
  9
$LIMCHECK
 70
     0
  9
$CHAMFERA
 40
0.375
  9
$CHAMFERB
 40
0.375
  9
$CHAMFERC
 40
0.0
  9
$CHAMFERD
 40
0.0
  9
$SKPOLY
 70
     0
  9
$TDCREATE
 40
2449227.752420949
  9
$TDUCREATE
 40
2449228.085754282
  9
$TDUPDATE
 40
2454946.988260185
  9
$TDUUPDATE
 40
2454947.321593518
  9
$TDINDWG
 40
0.1628326736
  9
$TDUSRTIMER
 40
0.1628326736
  9
$USRTIMER
 70
     1
  9
$ANGBASE
 50
0.0
  9
$ANGDIR
 70
     0
  9
$PDMODE
 70
     0
  9
$PDSIZE
 40
0.0
  9
$PLINEWID
 40
0.0
  9
$SPLFRAME
 70
     0
  9
$SPLINETYPE
 70
     6
  9
$SPLINESEGS
 70
     8
  9
$HANDSEED
  5
94C
  9
$SURFTAB1
 70
     6
  9
$SURFTAB2
 70
     6
  9
$SURFTYPE
 70
     6
  9
$SURFU
 70
     6
  9
$SURFV
 70
     6
  9
$UCSBASE
  2

  9
$UCSNAME
  2

  9
$UCSORG
 10
0.0
 20
0.0
 30
0.0
  9
$UCSXDIR
 10
1.0
 20
0.0
 30
0.0
  9
$UCSYDIR
 10
0.0
 20
1.0
 30
0.0
  9
$UCSORTHOREF
  2

  9
$UCSORTHOVIEW
 70
     0
  9
$UCSORGTOP
 10
0.0
 20
0.0
 30
0.0
  9
$UCSORGBOTTOM
 10
0.0
 20
0.0
 30
0.0
  9
$UCSORGLEFT
 10
0.0
 20
0.0
 30
0.0
  9
$UCSORGRIGHT
 10
0.0
 20
0.0
 30
0.0
  9
$UCSORGFRONT
 10
0.0
 20
0.0
 30
0.0
  9
$UCSORGBACK
 10
0.0
 20
0.0
 30
0.0
  9
$PUCSBASE
  2

  9
$PUCSNAME
  2

  9
$PUCSORG
 10
0.0
 20
0.0
 30
0.0
  9
$PUCSXDIR
 10
1.0
 20
0.0
 30
0.0
  9
$PUCSYDIR
 10
0.0
 20
1.0
 30
0.0
  9
$PUCSORTHOREF
  2

  9
$PUCSORTHOVIEW
 70
     0
  9
$PUCSORGTOP
 10
0.0
 20
0.0
 30
0.0
  9
$PUCSORGBOTTOM
 10
0.0
 20
0.0
 30
0.0
  9
$PUCSORGLEFT
 10
0.0
 20
0.0
 30
0.0
  9
$PUCSORGRIGHT
 10
0.0
 20
0.0
 30
0.0
  9
$PUCSORGFRONT
 10
0.0
 20
0.0
 30
0.0
  9
$PUCSORGBACK
 10
0.0
 20
0.0
 30
0.0
  9
$USERI1
 70
     0
  9
$USERI2
 70
     0
  9
$USERI3
 70
     0
  9
$USERI4
 70
     0
  9
$USERI5
 70
     0
  9
$USERR1
 40
0.0
  9
$USERR2
 40
0.0
  9
$USERR3
 40
0.0
  9
$USERR4
 40
0.0
  9
$USERR5
 40
0.0
  9
$WORLDVIEW
 70
     1
  9
$SHADEDGE
 70
     3
  9
$SHADEDIF
 70
    70
  9
$TILEMODE
 70
     1
  9
$MAXACTVP
 70
    16
  9
$PINSBASE
 10
0.0
 20
0.0
 30
0.0
  9
$PLIMCHECK
 70
     0
  9
$PEXTMIN
 10
1.000000000000000E+20
 20
1.000000000000000E+20
 30
1.000000000000000E+20
  9
$PEXTMAX
 10
-1.000000000000000E+20
 20
-1.000000000000000E+20
 30
-1.000000000000000E+20
  9
$PLIMMIN
 10
0.0
 20
0.0
  9
$PLIMMAX
 10
12.0
 20
9.0
  9
$UNITMODE
 70
     0
  9
$VISRETAIN
 70
     0
  9
$PLINEGEN
 70
     0
  9
$PSLTSCALE
 70
     0
  9
$TREEDEPTH
 70
  3020
  9
$CMLSTYLE
  2
Standard
  9
$CMLJUST
 70
     0
  9
$CMLSCALE
 40
1.0
  9
$PROXYGRAPHICS
 70
     1
  9
$MEASUREMENT
 70
     0
  9
$CELWEIGHT
370
    -1
  9
$ENDCAPS
280
     0
  9
$JOINSTYLE
280
     0
  9
$LWDISPLAY
290
     0
  9
$INSUNITS
 70
     0
  9
$HYPERLINKBASE
  1

  9
$STYLESHEET
  1
monochrome.ctb
  9
$XEDIT
290
     1
  9
$CEPSNTYPE
380
     0
  9
$PSTYLEMODE
290
     1
  9
$FINGERPRINTGUID
  2
{32778AE1-080D-42A5-B277-07705B9E75E2}
  9
$VERSIONGUID
  2
{2414DBE2-C6FE-4C31-8CDB-97A9B239349F}
  9
$EXTNAMES
290
     1
  9
$PSVPSCALE
 40
0.0
  9
$OLESTARTUP
290
     0
  0
ENDSEC
  0
SECTION
  2
CLASSES
  0
CLASS
  1
ACDBDICTIONARYWDFLT
  2
AcDbDictionaryWithDefault
  3
AutoCAD 2000
 90
        0
280
     0
281
     0
  0
CLASS
  1
ACDBPLACEHOLDER
  2
AcDbPlaceHolder
  3
ObjectDBX Classes
 90
        0
280
     0
281
     0
  0
CLASS
  1
LAYOUT
  2
AcDbLayout
  3
ObjectDBX Classes
 90
        0
280
     0
281
     0
  0
CLASS
  1
LONG_TRANSACTION
  2
AcDbLongTransaction
  3
ObjectDBX Classes
 90
   -65536
280
     1
281
     0
  0
CLASS
  1
LWPOLYLINE
  2
AcDbPolyline
  3
AutoCAD 2000
 90
        0
280
     0
281
     1
  0
CLASS
  1
HATCH
  2
AcDbHatch
  3
AutoCAD 2000
 90
        0
280
     0
281
     1
  0
CLASS
  1
XRECORD
  2
AcDbXrecord
  3
AutoCAD 2000
 90
        0
280
     0
281
     0
  0
CLASS
  1
LONG_TRANSACTION
  2
AcDbLongTransaction
  3
ObjectDBX Classes
 90
   -65536
280
     1
281
     0
  0
CLASS
  1
LWPOLYLINE
  2
AcDbPolyline
  3
AutoCAD 2000
 90
        0
280
     0
281
     1
  0
CLASS
  1
HATCH
  2
AcDbHatch
  3
AutoCAD 2000
 90
        0
280
     0
281
     1
  0
CLASS
  1
XRECORD
  2
AcDbXrecord
  3
AutoCAD 2000
 90
        0
280
     0
281
     0
  0
CLASS
  1
LONG_TRANSACTION
  2
AcDbLongTransaction
  3
ObjectDBX Classes
 90
   -65536
280
     1
281
     0
  0
CLASS
  1
LWPOLYLINE
  2
AcDbPolyline
  3
AutoCAD 2000
 90
        0
280
     0
281
     1
  0
CLASS
  1
HATCH
  2
AcDbHatch
  3
AutoCAD 2000
 90
        0
280
     0
281
     1
  0
CLASS
  1
XRECORD
  2
AcDbXrecord
  3
AutoCAD 2000
 90
        0
280
     0
281
     0
  0
CLASS
  1
LONG_TRANSACTION
  2
AcDbLongTransaction
  3
ObjectDBX Classes
 90
   -65536
280
     1
281
     0
  0
CLASS
  1
LWPOLYLINE
  2
AcDbPolyline
  3
AutoCAD 2000
 90
        0
280
     0
281
     1
  0
CLASS
  1
HATCH
  2
AcDbHatch
  3
AutoCAD 2000
 90
        0
280
     0
281
     1
  0
CLASS
  1
XRECORD
  2
AcDbXrecord
  3
AutoCAD 2000
 90
        0
280
     0
281
     0
  0
CLASS
  1
LONG_TRANSACTION
  2
AcDbLongTransaction
  3
ObjectDBX Classes
 90
   -65536
280
     1
281
     0
  0
CLASS
  1
LWPOLYLINE
  2
AcDbPolyline
  3
AutoCAD 2000
 90
        0
280
     0
281
     1
  0
CLASS
  1
HATCH
  2
AcDbHatch
  3
AutoCAD 2000
 90
        0
280
     0
281
     1
  0
CLASS
  1
XRECORD
  2
AcDbXrecord
  3
AutoCAD 2000
 90
        0
280
     0
281
     0
  0
CLASS
  1
LONG_TRANSACTION
  2
AcDbLongTransaction
  3
ObjectDBX Classes
 90
   -65536
280
     1
281
     0
  0
CLASS
  1
LWPOLYLINE
  2
AcDbPolyline
  3
AutoCAD 2000
 90
        0
280
     0
281
     1
  0
CLASS
  1
HATCH
  2
AcDbHatch
  3
AutoCAD 2000
 90
        0
280
     0
281
     1
  0
CLASS
  1
XRECORD
  2
AcDbXrecord
  3
AutoCAD 2000
 90
        0
280
     0
281
     0
  0
CLASS
  1
LONG_TRANSACTION
  2
AcDbLongTransaction
  3
ObjectDBX Classes
 90
   -65536
280
     1
281
     0
  0
CLASS
  1
LWPOLYLINE
  2
AcDbPolyline
  3
AutoCAD 2000
 90
        0
280
     0
281
     1
  0
CLASS
  1
HATCH
  2
AcDbHatch
  3
AutoCAD 2000
 90
        0
280
     0
281
     1
  0
CLASS
  1
XRECORD
  2
AcDbXrecord
  3
AutoCAD 2000
 90
        0
280
     0
281
     0
  0
CLASS
  1
LONG_TRANSACTION
  2
AcDbLongTransaction
  3
ObjectDBX Classes
 90
   -65536
280
     1
281
     0
  0
CLASS
  1
LWPOLYLINE
  2
AcDbPolyline
  3
AutoCAD 2000
 90
        0
280
     0
281
     1
  0
CLASS
  1
HATCH
  2
AcDbHatch
  3
AutoCAD 2000
 90
        0
280
     0
281
     1
  0
CLASS
  1
XRECORD
  2
AcDbXrecord
  3
AutoCAD 2000
 90
        0
280
     0
281
     0
  0
CLASS
  1
TABLESTYLE
  2
AcDbTableStyle
  3
ObjectDBX Classes
 90
     2047
280
     1
281
     0
  0
CLASS
  1
DICTIONARYVAR
  2
AcDbDictionaryVar
  3
AutoCAD 2000
 90
        0
280
     0
281
     0
  0
CLASS
  1
SORTENTSTABLE
  2
AcDbSortentsTable
  3
AutoCAD 2000
 90
        0
280
     0
281
     0
  0
ENDSEC
  0
SECTION
  2
TABLES
  0
TABLE
  2
VPORT
  5
8
330
0
100
AcDbSymbolTable
 70
     4
  0
VPORT
  5
93A
330
8
100
AcDbSymbolTableRecord
100
AcDbViewportTableRecord
  2
*Active
 70
     0
 10
0.0
 20
0.0
 11
1.0
 21
1.0
 12
3.450603641304284
 22
3.978587899913247
 13
0.0
 23
0.0
 14
0.03125
 24
0.03125
 15
0.25
 25
0.25
 16
0.0
 26
0.0
 36
1.0
 17
0.0
 27
0.0
 37
0.0
 40
20.83497785327376
 41
1.87741935483871
 42
50.0
 43
0.0
 44
0.0
 50
0.0
 51
0.0
 71
     0
 72
   100
 73
     1
 74
     1
 75
     0
 76
     0
 77
     0
 78
     0
281
     0
 65
     1
110
0.0
120
0.0
130
0.0
111
1.0
121
0.0
131
0.0
112
0.0
122
1.0
132
0.0
 79
     0
146
0.0
  0
ENDTAB
  0
TABLE
  2
LTYPE
  5
5
330
0
100
AcDbSymbolTable
 70
     4
  0
LTYPE
  5
13
330
5
100
AcDbSymbolTableRecord
100
AcDbLinetypeTableRecord
  2
ByBlock
 70
     0
  3

 72
    65
 73
     0
 40
0.0
  0
LTYPE
  5
14
330
5
100
AcDbSymbolTableRecord
100
AcDbLinetypeTableRecord
  2
ByLayer
 70
     0
  3

 72
    65
 73
     0
 40
0.0
  0
LTYPE
  5
15
330
5
100
AcDbSymbolTableRecord
100
AcDbLinetypeTableRecord
  2
CONTINUOUS
 70
     0
  3
Solid line
 72
    65
 73
     0
 40
0.0
  0
LTYPE
  5
2F
330
5
100
AcDbSymbolTableRecord
100
AcDbLinetypeTableRecord
  2
DASHED
 70
     0
  3
__ __ __ __ __ __ __ __ __ __ __ __ __ __ __
 72
    65
 73
     2
 40
0.75
 49
0.5
 74
     0
 49
-0.25
 74
     0
  0
ENDTAB
  0
TABLE
  2
LAYER
  5
2
102
{ACAD_XDICTIONARY
360
8C4
102
}
330
0
100
AcDbSymbolTable
 70
    12
  0
LAYER
  5
10
330
2
100
AcDbSymbolTableRecord
100
AcDbLayerTableRecord
  2
0
 70
     0
 62
     7
  6
CONTINUOUS
370
    -3
390
F
  0
LAYER
  5
3F
330
2
100
AcDbSymbolTableRecord
100
AcDbLayerTableRecord
  2
DASHED
 70
     0
 62
     8
  6
DASHED
370
    -3
390
F
  0
ENDTAB
  0
TABLE
  2
STYLE
  5
3
330
0
100
AcDbSymbolTable
 70
     4
  0
STYLE
  5
11
330
3
100
AcDbSymbolTableRecord
100
AcDbTextStyleTableRecord
  2
STANDARD
 70
     0
 40
0.0
 41
1.0
 50
0.0
 71
     0
 42
0.225
  3
TXT
  4

  0
ENDTAB
  0
TABLE
  2
VIEW
  5
6
330
0
100
AcDbSymbolTable
 70
     0
  0
ENDTAB
  0
TABLE
  2
UCS
  5
7
330
0
100
AcDbSymbolTable
 70
     0
  0
ENDTAB
  0
TABLE
  2
APPID
  5
9
330
0
100
AcDbSymbolTable
 70
     3
  0
APPID
  5
12
330
9
100
AcDbSymbolTableRecord
100
AcDbRegAppTableRecord
  2
ACAD
 70
     0
  0
APPID
  5
871
330
9
100
AcDbSymbolTableRecord
100
AcDbRegAppTableRecord
  2
ACAD_PSEXT
 70
     0
  0
APPID
  5
87D
330
9
100
AcDbSymbolTableRecord
100
AcDbRegAppTableRecord
  2
CONTENTBLOCKICON
 70
     0
  0
ENDTAB
  0
TABLE
  2
DIMSTYLE
  5
A
330
0
100
AcDbSymbolTable
 70
     1
100
AcDbDimStyleTable
  0
DIMSTYLE
105
472
330
A
100
AcDbSymbolTableRecord
100
AcDbDimStyleTableRecord
  2
Standard
 70
     0
  3

  4

340
11
  0
ENDTAB
  0
TABLE
  2
BLOCK_RECORD
  5
1
330
0
100
AcDbSymbolTable
 70
     8
  0
BLOCK_RECORD
  5
1E
330
1
100
AcDbSymbolTableRecord
100
AcDbBlockTableRecord
  2
*Model_Space
340
21
  0
BLOCK_RECORD
  5
1A
330
1
100
AcDbSymbolTableRecord
100
AcDbBlockTableRecord
  2
*Paper_Space
340
1D
  0
ENDTAB
  0
ENDSEC
  0
SECTION
  2
BLOCKS
  0
BLOCK
  5
46
330
1E
100
AcDbEntity
  8
0
100
AcDbBlockBegin
  2
*Model_Space
 70
     0
 10
0.0
 20
0.0
 30
0.0
  3
*Model_Space
  1

  4

  0
ENDBLK
  5
47
330
1E
100
AcDbEntity
  8
0
100
AcDbBlockEnd
  0
BLOCK
  5
44
330
1A
100
AcDbEntity
 67
     1
  8
0
100
AcDbBlockBegin
  2
*Paper_Space
 70
     0
 10
0.0
 20
0.0
 30
0.0
  3
*Paper_Space
  1

  4

  0
ENDBLK
  5
45
330
1A
100
AcDbEntity
 67
     1
  8
0
100
AcDbBlockEnd
  0
ENDSEC
  0
SECTION
  2
ENTITIES
  0
LINE
  5
2E5
330
1E
100
AcDbEntity
  8
0
100
AcDbLine
 10
-1.779121336780186
 20
7.627472512166232
 30
0.0
 11
-1.779121336780186
 21
2.221222512166232
 31
0.0
  0
LINE
  5
2E6
330
1E
100
AcDbEntity
  8
0
100
AcDbLine
 10
1.783378663219814
 20
2.221222512166232
 30
0.0
 11
1.783378663219814
 21
7.627472512166232
 31
0.0
  0
LINE
  5
2E7
330
1E
100
AcDbEntity
  8
0
100
AcDbLine
 10
1.877128663219814
 20
7.627472512166232
 30
0.0
 11
1.783378663219814
 21
7.627472512166232
 31
0.0
  0
LINE
  5
2E8
330
1E
100
AcDbEntity
  8
0
100
AcDbLine
 10
1.877128663219814
 20
2.221222512166232
 30
0.0
 11
1.877128663219814
 21
7.627472512166232
 31
0.0
  0
LINE
  5
2E9
330
1E
100
AcDbEntity
  8
0
100
AcDbLine
 10
-1.872871336780186
 20
7.627472512166232
 30
0.0
 11
-1.872871336780186
 21
2.221222512166232
 31
0.0
  0
LINE
  5
2EA
330
1E
100
AcDbEntity
  8
0
100
AcDbLine
 10
-1.779121336780186
 20
7.627472512166232
 30
0.0
 11
-1.872871336780186
 21
7.627472512166232
 31
0.0
  0
LINE
  5
2EB
330
1E
100
AcDbEntity
  8
DASHED
100
AcDbLine
 10
-1.029121336780186
 20
2.252472512166232
 30
0.0
 11
1.033378663219814
 21
2.252472512166232
 31
0.0
  0
ARC
  5
2EC
330
1E
100
AcDbEntity
  8
DASHED
100
AcDbCircle
 10
1.030296917740593
 20
2.121705333057523
 30
0.0
 40
0.1308034872900828
100
AcDbArc
 50
19.377064972092
 51
88.649979810327
  0
LINE
  5
2ED
330
1E
100
AcDbEntity
  8
0
100
AcDbLine
 10
1.877128663219814
 20
7.252472512166232
 30
0.0
 11
1.783378663219814
 21
7.252472512166232
 31
0.0
  0
LINE
  5
2EE
330
1E
100
AcDbEntity
  8
0
100
AcDbLine
 10
-1.779121336780186
 20
7.252472512166232
 30
0.0
 11
-1.872871336780186
 21
7.252472512166232
 31
0.0
  0
LINE
  5
2EF
330
1E
100
AcDbEntity
  8
0
100
AcDbLine
 10
-1.872871336780186
 20
2.314972512166232
 30
0.0
 11
-1.779121336780186
 21
2.314972512166232
 31
0.0
  0
LINE
  5
2F0
330
1E
100
AcDbEntity
  8
0
100
AcDbLine
 10
1.783378663219814
 20
2.314972512166232
 30
0.0
 11
1.877128663219814
 21
2.314972512166232
 31
0.0
  0
LINE
  5
2F1
330
1E
100
AcDbEntity
  8
DASHED
100
AcDbLine
 10
-0.9666213367801859
 20
2.16970840239701
 30
0.0
 11
0.9708786632198141
 21
2.16970840239701
 31
0.0
  0
ARC
  5
2F2
330
1E
100
AcDbEntity
  8
DASHED
100
AcDbCircle
 10
-0.9529726275654049
 20
2.096416777627571
 30
0.0
 40
0.0745516567527064
100
AcDbArc
 50
100.5490500697311
 51
155.3819847586444
  0
ARC
  5
2F3
330
1E
100
AcDbEntity
  8
DASHED
100
AcDbCircle
 10
0.9581203908258402
 20
2.09667919562553
 30
0.0
 40
0.074135272011036
100
AcDbArc
 50
20.13379751069788
 51
80.09038004288981
  0
LINE
  5
2F4
330
1E
100
AcDbEntity
  8
0
100
AcDbLine
 10
7.749096090345141
 20
7.252472512166232
 30
0.0
 11
7.749096090345145
 21
2.338410012166232
 31
0.0
  0
ARC
  5
2F5
330
1E
100
AcDbEntity
  8
0
100
AcDbCircle
 10
7.749096090345141
 20
2.252472512166232
 30
0.0
 40
0.0859375
100
AcDbArc
 50
90.0
 51
180.0
  0
ARC
  5
2F6
330
1E
100
AcDbEntity
  8
0
100
AcDbCircle
 10
4.749096090345141
 20
2.252472512166232
 30
0.0
 40
0.0859375
100
AcDbArc
 50
0.0
 51
90.0
  0
LINE
  5
2F7
330
1E
100
AcDbEntity
  8
0
100
AcDbLine
 10
7.66316140549486
 20
2.251776921817754
 30
0.0
 11
7.664926426720692
 21
2.033722512166232
 31
0.0
  0
LINE
  5
2F8
330
1E
100
AcDbEntity
  8
0
100
AcDbLine
 10
7.749096090345143
 20
2.033722512166232
 30
0.0
 11
4.749096090345139
 21
2.033722512166232
 31
0.0
  0
LINE
  5
2F9
330
1E
100
AcDbEntity
  8
DASHED
100
AcDbLine
 10
7.279912935950419
 20
2.252472512166232
 30
0.0
 11
5.217412935950531
 21
2.252472512166232
 31
0.0
  0
LINE
  5
2FA
330
1E
100
AcDbEntity
  8
DASHED
100
AcDbLine
 10
7.248662935950421
 20
2.158722512166232
 30
0.0
 11
5.248662935950417
 21
2.158722512166225
 31
0.0
  0
LINE
  5
2FB
330
1E
100
AcDbEntity
  8
DASHED
100
AcDbLine
 10
5.123662935950415
 20
2.158722512166232
 30
0.0
 11
5.123662935950417
 21
2.158722629498083
 31
0.0
  0
ARC
  5
2FC
330
1E
100
AcDbEntity
  8
DASHED
100
AcDbCircle
 10
7.279912935950419
 20
2.158722512166232
 30
0.0
 40
0.09375
100
AcDbArc
 50
0.0
 51
90.00000000000003
  0
LINE
  5
2FD
330
1E
100
AcDbEntity
  8
DASHED
100
AcDbLine
 10
5.217412935950417
 20
2.096222512166239
 30
0.0
 11
5.217412935950417
 21
2.127472512166225
 31
0.0
  0
LINE
  5
2FE
330
1E
100
AcDbEntity
  8
DASHED
100
AcDbLine
 10
7.279912935950421
 20
2.096222512166232
 30
0.0
 11
7.279912935950421
 21
2.127472512166232
 31
0.0
  0
ARC
  5
2FF
330
1E
100
AcDbEntity
  8
DASHED
100
AcDbCircle
 10
5.248662935950417
 20
2.127472512166225
 30
0.0
 40
0.03125
100
AcDbArc
 50
90.00000000000011
 51
180.0000000000016
  0
ARC
  5
300
330
1E
100
AcDbEntity
  8
DASHED
100
AcDbCircle
 10
7.248662935950421
 20
2.127472512166232
 30
0.0
 40
0.03125
100
AcDbArc
 50
0.0000000000008283
 51
90.00000000000011
  0
LINE
  5
301
330
1E
100
AcDbEntity
  8
0
100
AcDbLine
 10
7.749096090345145
 20
2.127472512166232
 30
0.0
 11
7.664167576027481
 21
2.127472512166232
 31
0.0
  0
ARC
  5
302
330
1E
100
AcDbEntity
  8
DASHED
100
AcDbCircle
 10
7.339768862039477
 20
2.093632634576249
 30
0.0
 40
0.0599119299798438
100
AcDbArc
 50
177.5224415360111
 51
269.5549286813268
  0
LINE
  5
303
330
1E
100
AcDbEntity
  8
DASHED
100
AcDbLine
 10
1.027725358039787
 20
2.122197563427871
 30
0.0
 11
1.03478849996781
 21
2.096222512166232
 31
0.0
  0
LINE
  5
304
330
1E
100
AcDbEntity
  8
DASHED
100
AcDbLine
 10
-1.020747924516712
 20
2.127472512166232
 30
0.0
 11
-1.031505870711996
 21
2.096222512166232
 31
0.0
  0
LINE
  5
305
330
1E
100
AcDbEntity
  8
0
100
AcDbLine
 10
1.220878663219814
 20
2.033722512166232
 30
0.0
 11
1.689628663219814
 21
2.033722512166232
 31
0.0
  0
LINE
  5
306
330
1E
100
AcDbEntity
  8
0
100
AcDbLine
 10
-1.685371336780186
 20
2.033722512166232
 30
0.0
 11
1.23430392067932
 21
2.033722512166232
 31
0.0
  0
ARC
  5
307
330
1E
100
AcDbEntity
  8
DASHED
100
AcDbCircle
 10
-1.124856944961092
 20
2.134541560773034
 30
0.0
 40
0.1009097247523297
100
AcDbArc
 50
267.5708732802171
 51
337.6826732182667
  0
ARC
  5
308
330
1E
100
AcDbEntity
  8
DASHED
100
AcDbCircle
 10
1.131769676317592
 20
2.140038902589684
 30
0.0
 40
0.1064200386953881
100
AcDbArc
 50
204.3135972279613
 51
272.5289614645008
  0
LINE
  5
309
330
1E
100
AcDbEntity
  8
0
100
AcDbLine
 10
-1.875
 20
0.0
 30
0.0
 11
-1.78125
 21
0.0
 31
0.0
  0
LINE
  5
30A
330
1E
100
AcDbEntity
  8
0
100
AcDbLine
 10
1.78125
 20
0.0
 30
0.0
 11
1.78125
 21
-0.0752891009051506
 31
0.0
  0
LINE
  5
30B
330
1E
100
AcDbEntity
  8
0
100
AcDbLine
 10
1.875
 20
-2.999999999999998
 30
0.0
 11
1.78125
 21
-2.999999999999998
 31
0.0
  0
LINE
  5
30C
330
1E
100
AcDbEntity
  8
0
100
AcDbLine
 10
-1.78125
 20
-2.999999999999998
 30
0.0
 11
-1.78125
 21
-2.914062499999998
 31
0.0
  0
LINE
  5
30D
330
1E
100
AcDbEntity
  8
0
100
AcDbLine
 10
1.125
 20
-2.374999999999998
 30
0.0
 11
1.125
 21
-0.6249999999999982
 31
0.0
  0
LINE
  5
30E
330
1E
100
AcDbEntity
  8
0
100
AcDbLine
 10
-1.125
 20
-2.374999999999998
 30
0.0
 11
-1.125
 21
-0.6249999999999982
 31
0.0
  0
LINE
  5
30F
330
1E
100
AcDbEntity
  8
0
100
AcDbLine
 10
-0.875
 20
-0.3749999999999982
 30
0.0
 11
0.875
 21
-0.3749999999999982
 31
0.0
  0
LINE
  5
310
330
1E
100
AcDbEntity
  8
0
100
AcDbLine
 10
-0.875
 20
-2.624999999999998
 30
0.0
 11
0.875
 21
-2.624999999999998
 31
0.0
  0
ARC
  5
311
330
1E
100
AcDbEntity
  8
0
100
AcDbCircle
 10
0.3249999999999993
 20
-1.319599999999998
 30
0.0
 40
0.34375
100
AcDbArc
 50
299.0336440552464
 51
134.2308059588106
  0
ARC
  5
312
330
1E
100
AcDbEntity
  8
0
100
AcDbCircle
 10
-0.375
 20
-1.499999999999998
 30
0.0
 40
0.34375
100
AcDbArc
 50
90.00000000000003
 51
270.0
  0
LINE
  5
313
330
1E
100
AcDbEntity
  8
0
100
AcDbLine
 10
-0.375
 20
-1.843749999999998
 30
0.0
 11
0.0
 21
-1.843749999999998
 31
0.0
  0
LINE
  5
314
330
1E
100
AcDbEntity
  8
0
100
AcDbLine
 10
-0.375
 20
-1.156249999999998
 30
0.0
 11
-0.0380972892459397
 21
-1.156249999999998
 31
0.0
  0
LINE
  5
315
330
1E
100
AcDbEntity
  8
0
100
AcDbLine
 10
0.0272980663886671
 20
-1.129675218357837
 30
0.0
 11
0.0852170293397769
 21
-1.073290866021253
 31
0.0
  0
LINE
  5
316
330
1E
100
AcDbEntity
  8
0
100
AcDbLine
 10
0.4918298200671458
 20
-1.620152613757329
 30
0.0
 11
0.1668298200671465
 21
-1.800552613757329
 31
0.0
  0
ARC
  5
317
330
1E
100
AcDbEntity
  8
0
100
AcDbCircle
 10
0.0
 20
-1.499999999999998
 30
0.0
 40
0.34375
100
AcDbArc
 50
270.0
 51
299.0336502689925
  0
ARC
  5
318
330
1E
100
AcDbEntity
  8
0
100
AcDbCircle
 10
-0.0380972892459397
 20
-1.062499999999998
 30
0.0
 40
0.09375
100
AcDbArc
 50
270.0
 51
314.2308059588109
  0
ARC
  5
319
330
1E
100
AcDbEntity
  8
0
100
AcDbCircle
 10
-0.0380972892459397
 20
-1.062499999999998
 30
0.0
 40
0.09375
100
AcDbArc
 50
270.0
 51
314.2308059588103
  0
ARC
  5
31A
330
1E
100
AcDbEntity
  8
0
100
AcDbCircle
 10
-0.875
 20
-0.6249999999999982
 30
0.0
 40
0.25
100
AcDbArc
 50
90.0
 51
180.0
  0
ARC
  5
31B
330
1E
100
AcDbEntity
  8
0
100
AcDbCircle
 10
-0.875
 20
-2.374999999999998
 30
0.0
 40
0.25
100
AcDbArc
 50
180.0
 51
270.0
  0
ARC
  5
31C
330
1E
100
AcDbEntity
  8
0
100
AcDbCircle
 10
0.875
 20
-2.374999999999998
 30
0.0
 40
0.25
100
AcDbArc
 50
270.0
 51
0.0
  0
ARC
  5
31D
330
1E
100
AcDbEntity
  8
0
100
AcDbCircle
 10
0.875
 20
-0.6249999999999982
 30
0.0
 40
0.25
100
AcDbArc
 50
0.0
 51
90.0
  0
LINE
  5
31E
330
1E
100
AcDbEntity
  8
0
100
AcDbLine
 10
1.875
 20
-2.914062499999998
 30
0.0
 11
1.6558125
 21
-2.914062499999998
 31
0.0
  0
LINE
  5
31F
330
1E
100
AcDbEntity
  8
0
100
AcDbLine
 10
-1.875
 20
-0.0859374999999982
 30
0.0
 11
-1.6558125
 21
-0.0859374999999982
 31
0.0
  0
LINE
  5
320
330
1E
100
AcDbEntity
  8
0
100
AcDbLine
 10
-1.5933125
 20
-2.999999999999998
 30
0.0
 11
-1.5933125
 21
-2.976562499999998
 31
0.0
  0
LINE
  5
321
330
1E
100
AcDbEntity
  8
0
100
AcDbLine
 10
1.5933125
 20
0.0000000000000018
 30
0.0
 11
1.5933125
 21
-0.0234374999999982
 31
0.0
  0
LINE
  5
322
330
1E
100
AcDbEntity
  8
0
100
AcDbLine
 10
-1.6558125
 20
-2.914062499999998
 30
0.0
 11
-1.875
 21
-2.914062499999998
 31
0.0
  0
LINE
  5
323
330
1E
100
AcDbEntity
  8
0
100
AcDbLine
 10
1.6558125
 20
-0.0859374999999982
 30
0.0
 11
1.875
 21
-0.0859374999999982
 31
0.0
  0
LINE
  5
324
330
1E
100
AcDbEntity
  8
0
100
AcDbLine
 10
1.5933125
 20
-2.976562499999998
 30
0.0
 11
1.5933125
 21
-2.999999999999998
 31
0.0
  0
LINE
  5
325
330
1E
100
AcDbEntity
  8
0
100
AcDbLine
 10
-1.5933125
 20
-0.0234374999999982
 30
0.0
 11
-1.5933125
 21
0.0000000000000018
 31
0.0
  0
ARC
  5
326
330
1E
100
AcDbEntity
  8
0
100
AcDbCircle
 10
-1.6558125
 20
-2.976562499999998
 30
0.0
 40
0.0625
100
AcDbArc
 50
0.0
 51
90.0
  0
ARC
  5
327
330
1E
100
AcDbEntity
  8
0
100
AcDbCircle
 10
1.6558125
 20
-2.976562499999998
 30
0.0
 40
0.0625
100
AcDbArc
 50
90.0
 51
180.0
  0
ARC
  5
328
330
1E
100
AcDbEntity
  8
0
100
AcDbCircle
 10
-1.6558125
 20
-0.0234374999999982
 30
0.0
 40
0.0625
100
AcDbArc
 50
270.0
 51
0.0
  0
ARC
  5
329
330
1E
100
AcDbEntity
  8
0
100
AcDbCircle
 10
1.6558125
 20
-0.0234374999999982
 30
0.0
 40
0.0625
100
AcDbArc
 50
180.0
 51
270.0
  0
LINE
  5
356
330
1E
100
AcDbEntity
  8
0
100
AcDbLine
 10
1.875
 20
0.0
 30
0.0
 11
1.875
 21
-2.999999999999998
 31
0.0
  0
LINE
  5
357
330
1E
100
AcDbEntity
  8
0
100
AcDbLine
 10
-1.875
 20
-2.999999999999998
 30
0.0
 11
-1.875
 21
0.0
 31
0.0
  0
LINE
  5
358
330
1E
100
AcDbEntity
  8
0
100
AcDbLine
 10
-1.5933125
 20
0.0
 30
0.0
 11
1.5933125
 21
0.0
 31
0.0
  0
LINE
  5
359
330
1E
100
AcDbEntity
  8
0
100
AcDbLine
 10
-1.78125
 20
-0.0859375
 30
0.0
 11
-1.78125
 21
0.0
 31
0.0
  0
LINE
  5
35A
330
1E
100
AcDbEntity
  8
0
100
AcDbLine
 10
-1.78125
 20
-2.999999999999998
 30
0.0
 11
-1.875
 21
-2.999999999999998
 31
0.0
  0
LINE
  5
35B
330
1E
100
AcDbEntity
  8
DASHED
100
AcDbLine
 10
-1.78125
 20
-2.914062499999998
 30
0.0
 11
-1.78125
 21
-0.0859374999999982
 31
0.0
  0
LINE
  5
35C
330
1E
100
AcDbEntity
  8
0
100
AcDbLine
 10
1.5933125
 20
-2.999999999999998
 30
0.0
 11
-1.5933125
 21
-2.999999999999998
 31
0.0
  0
LINE
  5
35D
330
1E
100
AcDbEntity
  8
0
100
AcDbLine
 10
1.78125
 20
-2.914062499999998
 30
0.0
 11
1.78125
 21
-2.999999999999998
 31
0.0
  0
LINE
  5
35E
330
1E
100
AcDbEntity
  8
0
100
AcDbLine
 10
1.78125
 20
0.0000000000000018
 30
0.0
 11
1.875
 21
0.0
 31
0.0
  0
LINE
  5
35F
330
1E
100
AcDbEntity
  8
0
100
AcDbLine
 10
1.78125
 20
-0.0752891009051506
 30
0.0
 11
1.78125
 21
-0.0859375
 31
0.0
  0
LINE
  5
360
330
1E
100
AcDbEntity
  8
DASHED
100
AcDbLine
 10
1.78125
 20
-0.0859375
 30
0.0
 11
1.781249999999998
 21
-2.914062499999998
 31
0.0
  0
LINE
  5
365
330
1E
100
AcDbEntity
  8
0
100
AcDbLine
 10
-1.685371336780186
 20
2.127472512166232
 30
0.0
 11
1.21608076747575
 21
2.127472512166232
 31
0.0
  0
ARC
  5
366
330
1E
100
AcDbEntity
  8
DASHED
100
AcDbCircle
 10
-1.209997235993674
 20
2.230338842404539
 30
0.0
 40
0.1030793898309754
100
AcDbArc
 50
266.3155124740434
 51
330.0565720033476
  0
ARC
  5
367
330
1E
100
AcDbEntity
  8
DASHED
100
AcDbCircle
 10
-1.029121336780186
 20
2.158722512166232
 30
0.0
 40
0.09375
100
AcDbArc
 50
90.00000000000003
 51
167.5791208078593
  0
LINE
  5
368
330
1E
100
AcDbEntity
  8
0
100
AcDbLine
 10
1.220878663219814
 20
2.127472512166232
 30
0.0
 11
1.689628663219814
 21
2.127472512166232
 31
0.0
  0
ARC
  5
369
330
1E
100
AcDbEntity
  8
DASHED
100
AcDbCircle
 10
1.221321773193775
 20
2.207058223704532
 30
0.0
 40
0.0795869450821369
100
AcDbArc
 50
211.8132528557083
 51
269.6809971470815
  0
ARC
  5
36A
330
1E
100
AcDbEntity
  8
0
100
AcDbCircle
 10
-1.685371336780186
 20
2.221222512166232
 30
0.0
 40
0.09375
100
AcDbArc
 50
180.0
 51
270.0
  0
ARC
  5
36B
330
1E
100
AcDbEntity
  8
0
100
AcDbCircle
 10
1.689628663219814
 20
2.221222512166232
 30
0.0
 40
0.09375
100
AcDbArc
 50
270.0
 51
0.0
  0
ARC
  5
36C
330
1E
100
AcDbEntity
  8
0
100
AcDbCircle
 10
1.689628663219814
 20
2.221222512166232
 30
0.0
 40
0.1875
100
AcDbArc
 50
270.0
 51
0.0
  0
ARC
  5
36D
330
1E
100
AcDbEntity
  8
0
100
AcDbCircle
 10
-1.685371336780186
 20
2.221222512166232
 30
0.0
 40
0.1875
100
AcDbArc
 50
180.0
 51
270.0
  0
LINE
  5
36E
330
1E
100
AcDbEntity
  8
0
100
AcDbLine
 10
4.835023819958916
 20
2.251176676655167
 30
0.0
 11
4.835023819958918
 21
2.033722512166232
 31
0.0
  0
ARC
  5
36F
330
1E
100
AcDbEntity
  8
DASHED
100
AcDbCircle
 10
5.217412935950531
 20
2.158722512166232
 30
0.0
 40
0.09375
100
AcDbArc
 50
90.0
 51
180.0
  0
LINE
  5
370
330
1E
100
AcDbEntity
  8
DASHED
100
AcDbLine
 10
5.092412935950415
 20
2.127472512166232
 30
0.0
 11
4.835023819958918
 21
2.127472512166232
 31
0.0
  0
ARC
  5
371
330
1E
100
AcDbEntity
  8
DASHED
100
AcDbCircle
 10
5.092412935950415
 20
2.158722512166232
 30
0.0
 40
0.03125
100
AcDbArc
 50
270.0
 51
0.0000000000065138
  0
ARC
  5
372
330
1E
100
AcDbEntity
  8
DASHED
100
AcDbCircle
 10
5.154912935950417
 20
2.096222512166232
 30
0.0
 40
0.0625
100
AcDbArc
 50
270.0000000000017
 51
0.0000000000032569
  0
ARC
  5
373
330
1E
100
AcDbEntity
  8
DASHED
100
AcDbCircle
 10
7.404912935950403
 20
2.158722512166232
 30
0.0
 40
0.03125
100
AcDbArc
 50
180.0
 51
270.0
  0
LINE
  5
37C
330
1E
100
AcDbEntity
  8
DASHED
100
AcDbLine
 10
-0.9041213367801859
 20
2.268097512166232
 30
0.0
 11
0.9083786632198141
 21
2.268097512166232
 31
0.0
  0
LINE
  5
385
330
1E
100
AcDbEntity
  8
0
100
AcDbLine
 10
-1.742371336780186
 20
3.078790916052771
 30
0.0
 11
-1.742371336780186
 21
2.146790916052769
 31
0.0
  0
LINE
  5
386
330
1E
100
AcDbEntity
  8
0
100
AcDbLine
 10
1.746628663219815
 20
3.078790916052771
 30
0.0
 11
1.746628663219815
 21
2.146790916052769
 31
0.0
  0
LINE
  5
387
330
1E
100
AcDbEntity
  8
DASHED
100
AcDbLine
 10
-1.614124927255624
 20
3.146790916052769
 30
0.0
 11
1.617990550106402
 21
3.146790916052769
 31
0.0
  0
LINE
  5
388
330
1E
100
AcDbEntity
  8
0
100
AcDbLine
 10
-1.617371336780186
 20
3.203790916052771
 30
0.0
 11
1.621628663219815
 21
3.203790916052771
 31
0.0
  0
ARC
  5
389
330
1E
100
AcDbEntity
  8
0
100
AcDbCircle
 10
1.649636202100949
 20
3.181298134676286
 30
0.0
 40
0.1422975532330006
100
AcDbArc
 50
256.3495079349769
 51
312.4157560101746
  0
ARC
  5
38A
330
1E
100
AcDbEntity
  8
0
100
AcDbCircle
 10
1.621628663219815
 20
3.078790916052771
 30
0.0
 40
0.125
100
AcDbArc
 50
0.0
 51
90.0
  0
ARC
  5
38B
330
1E
100
AcDbEntity
  8
0
100
AcDbCircle
 10
-1.617371336780186
 20
3.078790916052771
 30
0.0
 40
0.125
100
AcDbArc
 50
90.0
 51
180.0
  0
LINE
  5
38C
330
1E
100
AcDbEntity
  8
0
100
AcDbLine
 10
-1.617371336780186
 20
3.203790916052771
 30
0.0
 11
-1.557314260124528
 21
2.149317244917636
 31
0.0
  0
LINE
  5
38D
330
1E
100
AcDbEntity
  8
0
100
AcDbLine
 10
-1.742371336780186
 20
2.146790916052769
 30
0.0
 11
1.746628663219815
 21
2.146790916052769
 31
0.0
  0
LINE
  5
38E
330
1E
100
AcDbEntity
  8
0
100
AcDbLine
 10
1.621628663219815
 20
3.203790916052771
 30
0.0
 11
1.554325251102183
 21
2.149317244917636
 31
0.0
  0
ARC
  5
38F
330
1E
100
AcDbEntity
  8
0
100
AcDbCircle
 10
-1.651649708228611
 20
3.181298134676286
 30
0.0
 40
0.1422975532330006
100
AcDbArc
 50
230.3907214283796
 51
283.6504920650231
  0
CIRCLE
  5
3EE
330
1E
100
AcDbEntity
  8
0
100
AcDbCircle
 10
6.999096090345139
 20
7.003952244319759
 30
0.0
 40
0.0859375
  0
CIRCLE
  5
3EF
330
1E
100
AcDbEntity
  8
0
100
AcDbCircle
 10
7.249096090345139
 20
5.691452244319759
 30
0.0
 40
0.0859375
  0
CIRCLE
  5
3F0
330
1E
100
AcDbEntity
  8
0
100
AcDbCircle
 10
6.999096090345139
 20
4.378952244319759
 30
0.0
 40
0.0859375
  0
CIRCLE
  5
3F1
330
1E
100
AcDbEntity
  8
0
100
AcDbCircle
 10
5.249096090345139
 20
4.378952244319759
 30
0.0
 40
0.0859375
  0
CIRCLE
  5
3F2
330
1E
100
AcDbEntity
  8
0
100
AcDbCircle
 10
5.499096090345139
 20
5.701728162052635
 30
0.0
 40
0.0859375
  0
CIRCLE
  5
3F3
330
1E
100
AcDbEntity
  8
0
100
AcDbCircle
 10
5.249096090345139
 20
7.003952244319759
 30
0.0
 40
0.0859375
  0
CIRCLE
  5
42D
330
1E
100
AcDbEntity
  8
0
100
AcDbCircle
 10
6.249096090345139
 20
4.877472512166232
 30
0.0
 40
0.28125
  0
CIRCLE
  5
42E
330
1E
100
AcDbEntity
  8
0
100
AcDbCircle
 10
6.249096090345139
 20
6.877472512166232
 30
0.0
 40
0.28125
  0
LINE
  5
42F
330
1E
100
AcDbEntity
  8
0
100
AcDbLine
 10
7.374096090345139
 20
7.627472512166232
 30
0.0
 11
7.749096090345139
 21
7.252472512166232
 31
0.0
  0
LINE
  5
430
330
1E
100
AcDbEntity
  8
0
100
AcDbLine
 10
5.124096090345139
 20
7.627472512166232
 30
0.0
 11
4.749096090345139
 21
7.252472512166232
 31
0.0
  0
LINE
  5
431
330
1E
100
AcDbEntity
  8
0
100
AcDbLine
 10
4.749096090345139
 20
2.033722512166232
 30
0.0
 11
4.749096090345139
 21
2.127472512166232
 31
0.0
  0
LINE
  5
432
330
1E
100
AcDbEntity
  8
0
100
AcDbLine
 10
5.124096090345139
 20
7.627472512166232
 30
0.0
 11
7.374096090345139
 21
7.627472512166232
 31
0.0
  0
LINE
  5
43C
330
1E
100
AcDbEntity
  8
0
100
AcDbLine
 10
7.936596090345143
 20
2.936157463738635
 30
0.0
 11
7.936596090345141
 21
2.134157463738635
 31
0.0
  0
LINE
  5
43D
330
1E
100
AcDbEntity
  8
0
100
AcDbLine
 10
4.561596090345139
 20
2.134157463738635
 30
0.0
 11
4.561596090345139
 21
2.936157463738635
 31
0.0
  0
LINE
  5
43E
330
1E
100
AcDbEntity
  8
0
100
AcDbLine
 10
4.561596090345139
 20
2.134157463738635
 30
0.0
 11
4.835023819958916
 21
2.134157463738635
 31
0.0
  0
LINE
  5
43F
330
1E
100
AcDbEntity
  8
0
100
AcDbLine
 10
7.936596090345141
 20
2.134157463738635
 30
0.0
 11
7.664113465306045
 21
2.134157463738635
 31
0.0
  0
LINE
  5
440
330
1E
100
AcDbEntity
  8
DASHED
100
AcDbLine
 10
4.75959609034514
 20
3.134157463738635
 30
0.0
 11
7.738596090345142
 21
3.134157463738635
 31
0.0
  0
LINE
  5
44C
330
1E
100
AcDbEntity
  8
DASHED
100
AcDbLine
 10
-0.875
 20
-0.275999999999998
 30
0.0
 11
0.875
 21
-0.275999999999998
 31
0.0
  0
ARC
  5
44D
330
1E
100
AcDbEntity
  8
DASHED
100
AcDbCircle
 10
-0.875
 20
-0.6249999999999982
 30
0.0
 40
0.349
100
AcDbArc
 50
90.0
 51
180.0
  0
LINE
  5
44E
330
1E
100
AcDbEntity
  8
DASHED
100
AcDbLine
 10
-1.224
 20
-2.374999999999998
 30
0.0
 11
-1.224
 21
-0.6249999999999982
 31
0.0
  0
ARC
  5
44F
330
1E
100
AcDbEntity
  8
DASHED
100
AcDbCircle
 10
-0.875
 20
-2.374999999999998
 30
0.0
 40
0.349
100
AcDbArc
 50
180.0
 51
270.0
  0
LINE
  5
450
330
1E
100
AcDbEntity
  8
DASHED
100
AcDbLine
 10
-0.875
 20
-2.723999999999998
 30
0.0
 11
0.875
 21
-2.723999999999998
 31
0.0
  0
ARC
  5
451
330
1E
100
AcDbEntity
  8
DASHED
100
AcDbCircle
 10
0.875
 20
-2.374999999999998
 30
0.0
 40
0.349
100
AcDbArc
 50
270.0
 51
0.0
  0
LINE
  5
452
330
1E
100
AcDbEntity
  8
DASHED
100
AcDbLine
 10
1.224
 20
-2.374999999999998
 30
0.0
 11
1.224
 21
-0.6249999999999982
 31
0.0
  0
ARC
  5
453
330
1E
100
AcDbEntity
  8
DASHED
100
AcDbCircle
 10
0.875
 20
-0.6249999999999982
 30
0.0
 40
0.349
100
AcDbArc
 50
0.0
 51
90.0
  0
LINE
  5
454
330
1E
100
AcDbEntity
  8
0
100
AcDbLine
 10
7.749096090345145
 20
2.127472512166232
 30
0.0
 11
7.749096090345143
 21
2.033722512166232
 31
0.0
  0
LINE
  5
455
330
1E
100
AcDbEntity
  8
0
100
AcDbLine
 10
4.835023819958918
 20
2.127472512166232
 30
0.0
 11
4.749096090345139
 21
2.127472512166232
 31
0.0
  0
LINE
  5
456
330
1E
100
AcDbEntity
  8
0
100
AcDbLine
 10
4.749096090345139
 20
2.338410012166232
 30
0.0
 11
4.749096090345139
 21
7.252472512166232
 31
0.0
  0
ARC
  5
457
330
1E
100
AcDbEntity
  8
0
100
AcDbCircle
 10
4.75959609034514
 20
2.936157463738635
 30
0.0
 40
0.198
100
AcDbArc
 50
90.0
 51
180.0
  0
ARC
  5
458
330
1E
100
AcDbEntity
  8
0
100
AcDbCircle
 10
7.738596090345142
 20
2.936157463738635
 30
0.0
 40
0.198
100
AcDbArc
 50
0.0
 51
90.0
  0
LINE
  5
459
330
1E
100
AcDbEntity
  8
0
100
AcDbLine
 10
1.593312500000002
 20
2.033722512166232
 30
0.0
 11
1.5933125
 21
2.127472512166232
 31
0.0
  0
LINE
  5
45A
330
1E
100
AcDbEntity
  8
0
100
AcDbLine
 10
-1.5933125
 20
2.033722512166232
 30
0.0
 11
-1.5933125
 21
2.127472512166232
 31
0.0
  0
LINE
  5
8F5
330
1E
100
AcDbEntity
  8
0
100
AcDbLine
 10
-7.744838763905513
 20
7.252472512166232
 30
0.0
 11
-7.744838763905516
 21
2.338410012166232
 31
0.0
  0
ARC
  5
8F6
330
1E
100
AcDbEntity
  8
0
100
AcDbCircle
 10
-7.744838763905513
 20
2.252472512166232
 30
0.0
 40
0.0859375
100
AcDbArc
 50
0.000000000000007
 51
90.0
  0
ARC
  5
8F7
330
1E
100
AcDbEntity
  8
0
100
AcDbCircle
 10
-4.744838763905513
 20
2.252472512166232
 30
0.0
 40
0.0859375
100
AcDbArc
 50
90.0
 51
180.0
  0
LINE
  5
8F8
330
1E
100
AcDbEntity
  8
0
100
AcDbLine
 10
-7.658904079055231
 20
2.251776921817754
 30
0.0
 11
-7.660669100281064
 21
2.033722512166232
 31
0.0
  0
LINE
  5
8F9
330
1E
100
AcDbEntity
  8
0
100
AcDbLine
 10
-7.744838763905515
 20
2.033722512166232
 30
0.0
 11
-4.744838763905511
 21
2.033722512166232
 31
0.0
  0
LINE
  5
8FA
330
1E
100
AcDbEntity
  8
DASHED
100
AcDbLine
 10
-7.275655609510791
 20
2.252472512166232
 30
0.0
 11
-5.213155609510903
 21
2.252472512166232
 31
0.0
  0
LINE
  5
8FB
330
1E
100
AcDbEntity
  8
DASHED
100
AcDbLine
 10
-7.244405609510793
 20
2.158722512166232
 30
0.0
 11
-5.244405609510789
 21
2.158722512166225
 31
0.0
  0
LINE
  5
8FC
330
1E
100
AcDbEntity
  8
DASHED
100
AcDbLine
 10
-5.119405609510787
 20
2.158722512166232
 30
0.0
 11
-5.119405609510789
 21
2.158722629498083
 31
0.0
  0
ARC
  5
8FD
330
1E
100
AcDbEntity
  8
DASHED
100
AcDbCircle
 10
-7.275655609510791
 20
2.158722512166232
 30
0.0
 40
0.09375
100
AcDbArc
 50
89.99999999999999
 51
180.0
  0
LINE
  5
8FE
330
1E
100
AcDbEntity
  8
DASHED
100
AcDbLine
 10
-5.213155609510789
 20
2.096222512166239
 30
0.0
 11
-5.213155609510789
 21
2.127472512166225
 31
0.0
  0
LINE
  5
8FF
330
1E
100
AcDbEntity
  8
DASHED
100
AcDbLine
 10
-7.275655609510793
 20
2.096222512166232
 30
0.0
 11
-7.275655609510793
 21
2.127472512166232
 31
0.0
  0
ARC
  5
900
330
1E
100
AcDbEntity
  8
DASHED
100
AcDbCircle
 10
-5.244405609510789
 20
2.127472512166225
 30
0.0
 40
0.03125
100
AcDbArc
 50
359.9999999999984
 51
89.9999999999999
  0
ARC
  5
901
330
1E
100
AcDbEntity
  8
DASHED
100
AcDbCircle
 10
-7.244405609510793
 20
2.127472512166232
 30
0.0
 40
0.03125
100
AcDbArc
 50
89.9999999999999
 51
179.9999999999992
  0
LINE
  5
902
330
1E
100
AcDbEntity
  8
0
100
AcDbLine
 10
-7.744838763905516
 20
2.127472512166232
 30
0.0
 11
-7.659910249587853
 21
2.127472512166232
 31
0.0
  0
ARC
  5
903
330
1E
100
AcDbEntity
  8
DASHED
100
AcDbCircle
 10
-7.335511535599849
 20
2.093632634576249
 30
0.0
 40
0.0599119299798438
100
AcDbArc
 50
270.4450713186732
 51
2.477558463988953
  0
LINE
  5
904
330
1E
100
AcDbEntity
  8
0
100
AcDbLine
 10
-4.830766493519288
 20
2.251176676655167
 30
0.0
 11
-4.83076649351929
 21
2.033722512166232
 31
0.0
  0
ARC
  5
905
330
1E
100
AcDbEntity
  8
DASHED
100
AcDbCircle
 10
-5.213155609510903
 20
2.158722512166232
 30
0.0
 40
0.09375
100
AcDbArc
 50
0.000000000000007
 51
90.0
  0
LINE
  5
906
330
1E
100
AcDbEntity
  8
DASHED
100
AcDbLine
 10
-5.088155609510787
 20
2.127472512166232
 30
0.0
 11
-4.83076649351929
 21
2.127472512166232
 31
0.0
  0
ARC
  5
907
330
1E
100
AcDbEntity
  8
DASHED
100
AcDbCircle
 10
-5.088155609510787
 20
2.158722512166232
 30
0.0
 40
0.03125
100
AcDbArc
 50
179.9999999999935
 51
270.0
  0
ARC
  5
908
330
1E
100
AcDbEntity
  8
DASHED
100
AcDbCircle
 10
-5.150655609510789
 20
2.096222512166232
 30
0.0
 40
0.0625
100
AcDbArc
 50
179.9999999999967
 51
269.9999999999984
  0
ARC
  5
909
330
1E
100
AcDbEntity
  8
DASHED
100
AcDbCircle
 10
-7.400655609510775
 20
2.158722512166232
 30
0.0
 40
0.03125
100
AcDbArc
 50
270.0
 51
0.000000000000007
  0
CIRCLE
  5
90A
330
1E
100
AcDbEntity
  8
0
100
AcDbCircle
 10
-7.244838763905511
 20
7.377472512166232
 30
0.0
 40
0.0859375
  0
CIRCLE
  5
90B
330
1E
100
AcDbEntity
  8
0
100
AcDbCircle
 10
-6.994838763905511
 20
6.252472512166232
 30
0.0
 40
0.0859375
  0
CIRCLE
  5
90C
330
1E
100
AcDbEntity
  8
0
100
AcDbCircle
 10
-7.244838763905511
 20
5.127472512166232
 30
0.0
 40
0.0859375
  0
CIRCLE
  5
90D
330
1E
100
AcDbEntity
  8
0
100
AcDbCircle
 10
-5.494838763905511
 20
5.127472512166232
 30
0.0
 40
0.0859375
  0
CIRCLE
  5
90E
330
1E
100
AcDbEntity
  8
0
100
AcDbCircle
 10
-5.244838763905511
 20
6.262748429899109
 30
0.0
 40
0.0859375
  0
CIRCLE
  5
90F
330
1E
100
AcDbEntity
  8
0
100
AcDbCircle
 10
-5.494838763905511
 20
7.377472512166232
 30
0.0
 40
0.0859375
  0
CIRCLE
  5
91C
330
1E
100
AcDbEntity
  8
0
100
AcDbCircle
 10
-6.244838763905511
 20
4.877472512166232
 30
0.0
 40
0.28125
  0
CIRCLE
  5
91D
330
1E
100
AcDbEntity
  8
0
100
AcDbCircle
 10
-6.244838763905511
 20
6.877472512166232
 30
0.0
 40
0.28125
  0
LINE
  5
91E
330
1E
100
AcDbEntity
  8
0
100
AcDbLine
 10
-7.369838763905511
 20
7.627472512166232
 30
0.0
 11
-7.744838763905511
 21
7.252472512166232
 31
0.0
  0
LINE
  5
91F
330
1E
100
AcDbEntity
  8
0
100
AcDbLine
 10
-5.119838763905511
 20
7.627472512166232
 30
0.0
 11
-4.744838763905511
 21
7.252472512166232
 31
0.0
  0
LINE
  5
920
330
1E
100
AcDbEntity
  8
0
100
AcDbLine
 10
-4.744838763905511
 20
2.033722512166232
 30
0.0
 11
-4.744838763905511
 21
2.127472512166232
 31
0.0
  0
LINE
  5
921
330
1E
100
AcDbEntity
  8
0
100
AcDbLine
 10
-5.119838763905511
 20
7.627472512166232
 30
0.0
 11
-7.369838763905511
 21
7.627472512166232
 31
0.0
  0
LINE
  5
922
330
1E
100
AcDbEntity
  8
0
100
AcDbLine
 10
-7.932338763905515
 20
2.936157463738635
 30
0.0
 11
-7.932338763905513
 21
2.134157463738635
 31
0.0
  0
LINE
  5
923
330
1E
100
AcDbEntity
  8
0
100
AcDbLine
 10
-4.557338763905511
 20
2.134157463738635
 30
0.0
 11
-4.557338763905511
 21
2.936157463738635
 31
0.0
  0
LINE
  5
924
330
1E
100
AcDbEntity
  8
0
100
AcDbLine
 10
-4.557338763905511
 20
2.134157463738635
 30
0.0
 11
-4.830766493519288
 21
2.134157463738635
 31
0.0
  0
LINE
  5
925
330
1E
100
AcDbEntity
  8
0
100
AcDbLine
 10
-7.932338763905513
 20
2.134157463738635
 30
0.0
 11
-7.659856138866417
 21
2.134157463738635
 31
0.0
  0
LINE
  5
926
330
1E
100
AcDbEntity
  8
DASHED
100
AcDbLine
 10
-4.755338763905511
 20
3.134157463738635
 30
0.0
 11
-7.734338763905514
 21
3.134157463738635
 31
0.0
  0
LINE
  5
927
330
1E
100
AcDbEntity
  8
0
100
AcDbLine
 10
-7.744838763905516
 20
2.127472512166232
 30
0.0
 11
-7.744838763905515
 21
2.033722512166232
 31
0.0
  0
LINE
  5
928
330
1E
100
AcDbEntity
  8
0
100
AcDbLine
 10
-4.83076649351929
 20
2.127472512166232
 30
0.0
 11
-4.744838763905511
 21
2.127472512166232
 31
0.0
  0
LINE
  5
929
330
1E
100
AcDbEntity
  8
0
100
AcDbLine
 10
-4.744838763905511
 20
2.338410012166232
 30
0.0
 11
-4.744838763905511
 21
7.252472512166232
 31
0.0
  0
ARC
  5
92A
330
1E
100
AcDbEntity
  8
0
100
AcDbCircle
 10
-4.755338763905511
 20
2.936157463738635
 30
0.0
 40
0.198
100
AcDbArc
 50
0.000000000000007
 51
90.0
  0
ARC
  5
92B
330
1E
100
AcDbEntity
  8
0
100
AcDbCircle
 10
-7.734338763905514
 20
2.936157463738635
 30
0.0
 40
0.198
100
AcDbArc
 50
90.0
 51
180.0
  0
ENDSEC
  0
SECTION
  2
OBJECTS
  0
DICTIONARY
  5
C
330
0
100
AcDbDictionary
281
     1
  3
ACAD_COLOR
350
848
  3
ACAD_GROUP
350
D
  3
ACAD_LAYOUT
350
19
  3
ACAD_MATERIAL
350
847
  3
ACAD_MLINESTYLE
350
16
  3
ACAD_PLOTSETTINGS
350
18
  3
ACAD_PLOTSTYLENAME
350
E
  3
ACAD_TABLESTYLE
350
849
  3
ACDBHEADERROUNDTRIPXREC
350
945
  3
AcDbVariableDictionary
350
8A0
  0
DICTIONARY
  5
8C4
330
2
100
AcDbDictionary
280
     1
281
     1
  3
ACAD_LAYERFILTERS
360
92D
  3
ACAD_LAYERSTATES
360
8C5
  3
ACLYDICTIONARY
360
92C
  0
DICTIONARY
  5
848
102
{ACAD_REACTORS
330
C
102
}
330
C
100
AcDbDictionary
281
     1
  0
DICTIONARY
  5
D
102
{ACAD_REACTORS
330
C
102
}
330
C
100
AcDbDictionary
281
     1
  0
DICTIONARY
  5
19
102
{ACAD_REACTORS
330
C
102
}
330
C
100
AcDbDictionary
281
     1
  3
Layout1
350
1D
  3
Model
350
21
  0
DICTIONARY
  5
847
102
{ACAD_REACTORS
330
C
102
}
330
C
100
AcDbDictionary
281
     1
  0
DICTIONARY
  5
16
102
{ACAD_REACTORS
330
C
102
}
330
C
100
AcDbDictionary
281
     1
  3
Standard
350
17
  0
DICTIONARY
  5
18
102
{ACAD_REACTORS
330
C
102
}
330
C
100
AcDbDictionary
281
     1
  0
ACDBDICTIONARYWDFLT
  5
E
102
{ACAD_REACTORS
330
C
102
}
330
C
100
AcDbDictionary
281
     1
  3
Normal
350
F
100
AcDbDictionaryWithDefault
340
F
  0
DICTIONARY
  5
849
102
{ACAD_REACTORS
330
C
102
}
330
C
100
AcDbDictionary
281
     1
  3
Standard
350
84A
  0
DICTIONARY
  5
945
102
{ACAD_REACTORS
330
C
102
}
330
C
100
AcDbDictionary
281
     1
  3
COLORDICT
350
946
  3
MATERIALDICT
350
947
  0
DICTIONARY
  5
8A0
102
{ACAD_REACTORS
330
C
102
}
330
C
100
AcDbDictionary
281
     1
  3
CTABLESTYLE
350
8A1
  0
DICTIONARY
  5
92D
102
{ACAD_REACTORS
330
8C4
102
}
330
8C4
100
AcDbDictionary
281
     1
  0
DICTIONARY
  5
8C5
102
{ACAD_REACTORS
330
8C4
102
}
330
8C4
100
AcDbDictionary
281
     1
  0
DICTIONARY
  5
92C
102
{ACAD_REACTORS
330
8C4
102
}
330
8C4
100
AcDbDictionary
281
     1
1001
ACAD
1000
<All
  0
LAYOUT
  5
1D
102
{ACAD_REACTORS
330
19
102
}
102
{ACAD_XDICTIONARY
360
948
102
}
330
19
100
AcDbPlotSettings
  1

  2
HP LaserJet 2100 Series PS
  4

  6

 40
0.0
 41
0.0
 42
0.0
 43
0.0
 44
0.0
 45
0.0
 46
0.0
 47
0.0
 48
0.0
 49
0.0
140
0.0
141
0.0
142
1.0
143
1.0
 70
   688
 72
     0
 73
     0
 74
     5
  7
monochrome.ctb
 75
    16
147
1.0
148
0.0
149
0.0
100
AcDbLayout
  1
Layout1
 70
     0
 71
     1
 10
0.0
 20
0.0
 11
12.0
 21
9.0
 12
0.0
 22
0.0
 32
0.0
 14
1.000000000000000E+20
 24
1.000000000000000E+20
 34
1.000000000000000E+20
 15
-1.000000000000000E+20
 25
-1.000000000000000E+20
 35
-1.000000000000000E+20
146
0.0
 13
0.0
 23
0.0
 33
0.0
 16
1.0
 26
0.0
 36
0.0
 17
0.0
 27
1.0
 37
0.0
 76
     0
330
1A
  0
LAYOUT
  5
21
102
{ACAD_REACTORS
330
19
102
}
102
{ACAD_XDICTIONARY
360
94A
102
}
330
19
100
AcDbPlotSettings
  1

  2
HP LaserJet 2100 Series PS
  4
Letter
  6

 40
5.365749835968018
 41
5.408073902130127
 42
5.132904052734375
 43
5.090576171875
 44
215.8999938964844
 45
279.3999938964844
 46
0.0
 47
0.0
 48
0.0
 49
0.0
140
0.0
141
0.0
142
1.0
143
2.479533908317576
 70
 11952
 72
     0
 73
     2
 74
     2
  7
monochrome.ctb
 75
     0
147
0.4033016030333396
148
0.0
149
0.0
100
AcDbLayout
  1
Model
 70
     1
 71
     0
 10
0.0
 20
0.0
 11
12.0
 21
9.0
 12
0.0
 22
0.0
 32
0.0
 14
0.0
 24
0.0
 34
0.0
 15
0.0
 25
0.0
 35
0.0
146
0.0
 13
0.0
 23
0.0
 33
0.0
 16
1.0
 26
0.0
 36
0.0
 17
0.0
 27
1.0
 37
0.0
 76
     0
330
1E
1001
ACAD_PSEXT
1000
HP LaserJet 2100 Series PS
1000
HP LaserJet 2100 Series PS
1000
LPT1:
1000

1070
     0
  0
MLINESTYLE
  5
17
102
{ACAD_REACTORS
330
16
102
}
330
16
100
AcDbMlineStyle
  2
STANDARD
 70
     0
  3

 62
   256
 51
90.0
 52
90.0
 71
     2
 49
0.5
 62
   256
  6
BYLAYER
 49
-0.5
 62
   256
  6
BYLAYER
  0
ACDBPLACEHOLDER
  5
F
102
{ACAD_REACTORS
330
E
102
}
330
E
  0
ACAD_PROXY_OBJECT
  5
84A
102
{ACAD_REACTORS
330
849
102
}
330
849
100
AcDbProxyObject
 90
      499
 91
      535
 95
   983063
 70
     0
 93
     1841
310
4214DD185B99185C9928B81E85EB51B8AE3F2E07A17AD46E2B8FC02B5E8DC0F42B1CFD028000000C1008070000C3001FDFF8000000C1003FBFF000000182007F7FE00000030400FEFFC00000060801FDFF8000000C1003FBFF00000018200000000000000681FA0B0000001820100E000186003FBFF000000182007F7FE000
310
00030400FEFFC00000060801FDFF8000000C1003FBFF000000182007F7FE000000304000AD7A3703D0AC73F4160000003040201C00030C007F7FE00000030400FEFFC00000060801FDFF8000000C1003FBFF000000182007F7FE00000030400FEFFC000000608000
340
11
340
11
340
11
 94
        0
  0
XRECORD
  5
946
102
{ACAD_REACTORS
330
945
102
}
330
945
100
AcDbXrecord
340
848
  0
XRECORD
  5
947
102
{ACAD_REACTORS
330
945
102
}
330
945
100
AcDbXrecord
340
847
  0
DICTIONARYVAR
  5
8A1
102
{ACAD_REACTORS
330
8A0
102
}
330
8A0
100
DictionaryVariables
280
     0
  1
STANDARD
  0
DICTIONARY
  5
948
330
1D
100
AcDbDictionary
280
     1
281
     1
  3
ACAD_XREC_ROUNDTRIP
360
949
  0
DICTIONARY
  5
94A
330
21
100
AcDbDictionary
280
     1
281
     1
  3
ACAD_XREC_ROUNDTRIP
360
94B
  0
XRECORD
  5
949
102
{ACAD_REACTORS
330
948
102
}
330
948
100
AcDbXrecord
102
SHADEPLOT
 70
     0
102
SHADEPLOTRESLEVEL
 70
     2
102
SHADEPLOTCUSTOMDPI
 70
   300
  0
XRECORD
  5
94B
102
{ACAD_REACTORS
330
94A
102
}
330
94A
100
AcDbXrecord
102
SHADEPLOT
 70
     0
102
SHADEPLOTRESLEVEL
 70
     2
102
SHADEPLOTCUSTOMDPI
 70
   300
  0
ENDSEC
  0
EOF
