  0
SECTION
  2
HEADER
  9
$ACADVER
  1
AC1015
  9
$ACADMAINTVER
 70
     6
  9
$DWGCODEPAGE
  3
ANSI_1252
  9
$INSBASE
 10
0.0
 20
0.0
 30
0.0
  9
$EXTMIN
 10
-9.77386477085118
 20
-6.509443352510914
 30
-0.000000000000013
  9
$EXTMAX
 10
10.11749277289546
 20
8.718165421736202
 30
0.0000000000000023
  9
$LIMMIN
 10
0.0
 20
0.0
  9
$LIMMAX
 10
20.0
 20
26.25
  9
$ORTHOMODE
 70
     1
  9
$REGENMODE
 70
     1
  9
$FILLMODE
 70
     1
  9
$QTEXTMODE
 70
     0
  9
$MIRRTEXT
 70
     0
  9
$LTSCALE
 40
0.4
  9
$ATTMODE
 70
     1
  9
$TEXTSIZE
 40
0.225
  9
$TRACEWID
 40
0.05
  9
$TEXTSTYLE
  7
STANDARD
  9
$CLAYER
  8
0
  9
$CELTYPE
  6
ByLayer
  9
$CECOLOR
 62
   256
  9
$CELTSCALE
 40
1.0
  9
$DISPSILH
 70
     0
  9
$DIMSCALE
 40
2.5
  9
$DIMASZ
 40
0.125
  9
$DIMEXO
 40
0.062
  9
$DIMDLI
 40
0.375
  9
$DIMRND
 40
0.0
  9
$DIMDLE
 40
0.0
  9
$DIMEXE
 40
0.08
  9
$DIMTP
 40
0.0
  9
$DIMTM
 40
0.0
  9
$DIMTXT
 40
0.09
  9
$DIMCEN
 40
-0.03125
  9
$DIMTSZ
 40
0.0
  9
$DIMTOL
 70
     0
  9
$DIMLIM
 70
     0
  9
$DIMTIH
 70
     1
  9
$DIMTOH
 70
     1
  9
$DIMSE1
 70
     0
  9
$DIMSE2
 70
     0
  9
$DIMTAD
 70
     0
  9
$DIMZIN
 70
     0
  9
$DIMBLK
  1

  9
$DIMASO
 70
     0
  9
$DIMSHO
 70
     0
  9
$DIMPOST
  1

  9
$DIMAPOST
  1

  9
$DIMALT
 70
     0
  9
$DIMALTD
 70
     2
  9
$DIMALTF
 40
25.4
  9
$DIMLFAC
 40
1.0
  9
$DIMTOFL
 70
     0
  9
$DIMTVP
 40
0.0
  9
$DIMTIX
 70
     0
  9
$DIMSOXD
 70
     0
  9
$DIMSAH
 70
     0
  9
$DIMBLK1
  1

  9
$DIMBLK2
  1

  9
$DIMSTYLE
  2
Standard
  9
$DIMCLRD
 70
     0
  9
$DIMCLRE
 70
     0
  9
$DIMCLRT
 70
     0
  9
$DIMTFAC
 40
1.0
  9
$DIMGAP
 40
0.09
  9
$DIMJUST
 70
     0
  9
$DIMSD1
 70
     0
  9
$DIMSD2
 70
     0
  9
$DIMTOLJ
 70
     1
  9
$DIMTZIN
 70
     0
  9
$DIMALTZ
 70
     0
  9
$DIMALTTZ
 70
     0
  9
$DIMUPT
 70
     0
  9
$DIMDEC
 70
     5
  9
$DIMTDEC
 70
     5
  9
$DIMALTU
 70
     5
  9
$DIMALTTD
 70
     2
  9
$DIMTXSTY
  7
STANDARD
  9
$DIMAUNIT
 70
     0
  9
$DIMADEC
 70
     0
  9
$DIMALTRND
 40
0.0
  9
$DIMAZIN
 70
     0
  9
$DIMDSEP
 70
    46
  9
$DIMATFIT
 70
     3
  9
$DIMFRAC
 70
     0
  9
$DIMLDRBLK
  1

  9
$DIMLUNIT
 70
     5
  9
$DIMLWD
 70
    -2
  9
$DIMLWE
 70
    -2
  9
$DIMTMOVE
 70
     2
  9
$LUNITS
 70
     5
  9
$LUPREC
 70
     5
  9
$SKETCHINC
 40
0.1
  9
$FILLETRAD
 40
0.0
  9
$AUNITS
 70
     0
  9
$AUPREC
 70
     0
  9
$MENU
  1
acad
  9
$ELEVATION
 40
0.0
  9
$PELEVATION
 40
0.0
  9
$THICKNESS
 40
0.0
  9
$LIMCHECK
 70
     0
  9
$CHAMFERA
 40
0.375
  9
$CHAMFERB
 40
0.375
  9
$CHAMFERC
 40
0.0
  9
$CHAMFERD
 40
0.0
  9
$SKPOLY
 70
     0
  9
$TDCREATE
 40
2449248.789130787
  9
$TDUCREATE
 40
2449249.12246412
  9
$TDUPDATE
 40
2454949.651763368
  9
$TDUUPDATE
 40
2454949.985096701
  9
$TDINDWG
 40
0.1510086458
  9
$TDUSRTIMER
 40
0.1510086458
  9
$USRTIMER
 70
     1
  9
$ANGBASE
 50
0.0
  9
$ANGDIR
 70
     0
  9
$PDMODE
 70
     0
  9
$PDSIZE
 40
0.0
  9
$PLINEWID
 40
0.0
  9
$SPLFRAME
 70
     0
  9
$SPLINETYPE
 70
     6
  9
$SPLINESEGS
 70
     8
  9
$HANDSEED
  5
FAC
  9
$SURFTAB1
 70
     6
  9
$SURFTAB2
 70
     6
  9
$SURFTYPE
 70
     6
  9
$SURFU
 70
     6
  9
$SURFV
 70
     6
  9
$UCSBASE
  2

  9
$UCSNAME
  2

  9
$UCSORG
 10
0.0
 20
0.0
 30
0.0
  9
$UCSXDIR
 10
1.0
 20
0.0
 30
0.0
  9
$UCSYDIR
 10
0.0
 20
1.0
 30
0.0
  9
$UCSORTHOREF
  2

  9
$UCSORTHOVIEW
 70
     0
  9
$UCSORGTOP
 10
0.0
 20
0.0
 30
0.0
  9
$UCSORGBOTTOM
 10
0.0
 20
0.0
 30
0.0
  9
$UCSORGLEFT
 10
0.0
 20
0.0
 30
0.0
  9
$UCSORGRIGHT
 10
0.0
 20
0.0
 30
0.0
  9
$UCSORGFRONT
 10
0.0
 20
0.0
 30
0.0
  9
$UCSORGBACK
 10
0.0
 20
0.0
 30
0.0
  9
$PUCSBASE
  2

  9
$PUCSNAME
  2

  9
$PUCSORG
 10
0.0
 20
0.0
 30
0.0
  9
$PUCSXDIR
 10
1.0
 20
0.0
 30
0.0
  9
$PUCSYDIR
 10
0.0
 20
1.0
 30
0.0
  9
$PUCSORTHOREF
  2

  9
$PUCSORTHOVIEW
 70
     0
  9
$PUCSORGTOP
 10
0.0
 20
0.0
 30
0.0
  9
$PUCSORGBOTTOM
 10
0.0
 20
0.0
 30
0.0
  9
$PUCSORGLEFT
 10
0.0
 20
0.0
 30
0.0
  9
$PUCSORGRIGHT
 10
0.0
 20
0.0
 30
0.0
  9
$PUCSORGFRONT
 10
0.0
 20
0.0
 30
0.0
  9
$PUCSORGBACK
 10
0.0
 20
0.0
 30
0.0
  9
$USERI1
 70
     0
  9
$USERI2
 70
     0
  9
$USERI3
 70
     0
  9
$USERI4
 70
     0
  9
$USERI5
 70
     0
  9
$USERR1
 40
0.0
  9
$USERR2
 40
0.0
  9
$USERR3
 40
0.0
  9
$USERR4
 40
0.0
  9
$USERR5
 40
0.0
  9
$WORLDVIEW
 70
     1
  9
$SHADEDGE
 70
     3
  9
$SHADEDIF
 70
    70
  9
$TILEMODE
 70
     1
  9
$MAXACTVP
 70
    16
  9
$PINSBASE
 10
0.0
 20
0.0
 30
0.0
  9
$PLIMCHECK
 70
     0
  9
$PEXTMIN
 10
1.000000000000000E+20
 20
1.000000000000000E+20
 30
1.000000000000000E+20
  9
$PEXTMAX
 10
-1.000000000000000E+20
 20
-1.000000000000000E+20
 30
-1.000000000000000E+20
  9
$PLIMMIN
 10
0.0
 20
0.0
  9
$PLIMMAX
 10
12.0
 20
9.0
  9
$UNITMODE
 70
     0
  9
$VISRETAIN
 70
     0
  9
$PLINEGEN
 70
     0
  9
$PSLTSCALE
 70
     0
  9
$TREEDEPTH
 70
  3020
  9
$CMLSTYLE
  2
Standard
  9
$CMLJUST
 70
     0
  9
$CMLSCALE
 40
1.0
  9
$PROXYGRAPHICS
 70
     1
  9
$MEASUREMENT
 70
     0
  9
$CELWEIGHT
370
    -1
  9
$ENDCAPS
280
     0
  9
$JOINSTYLE
280
     0
  9
$LWDISPLAY
290
     0
  9
$INSUNITS
 70
     0
  9
$HYPERLINKBASE
  1

  9
$STYLESHEET
  1
monochrome.ctb
  9
$XEDIT
290
     1
  9
$CEPSNTYPE
380
     0
  9
$PSTYLEMODE
290
     1
  9
$FINGERPRINTGUID
  2
{8F85BB19-6A71-4F71-8742-1BE6537EB20F}
  9
$VERSIONGUID
  2
{29B98839-86AD-46CF-AE4B-60859602467B}
  9
$EXTNAMES
290
     1
  9
$PSVPSCALE
 40
0.0
  9
$OLESTARTUP
290
     0
  0
ENDSEC
  0
SECTION
  2
CLASSES
  0
CLASS
  1
ACDBDICTIONARYWDFLT
  2
AcDbDictionaryWithDefault
  3
AutoCAD 2000
 90
        0
280
     0
281
     0
  0
CLASS
  1
ACDBPLACEHOLDER
  2
AcDbPlaceHolder
  3
ObjectDBX Classes
 90
        0
280
     0
281
     0
  0
CLASS
  1
LAYOUT
  2
AcDbLayout
  3
ObjectDBX Classes
 90
        0
280
     0
281
     0
  0
CLASS
  1
LONG_TRANSACTION
  2
AcDbLongTransaction
  3
ObjectDBX Classes
 90
   -65536
280
     1
281
     0
  0
CLASS
  1
LWPOLYLINE
  2
AcDbPolyline
  3
AutoCAD 2000
 90
        0
280
     0
281
     1
  0
CLASS
  1
HATCH
  2
AcDbHatch
  3
AutoCAD 2000
 90
        0
280
     0
281
     1
  0
CLASS
  1
XRECORD
  2
AcDbXrecord
  3
AutoCAD 2000
 90
        0
280
     0
281
     0
  0
CLASS
  1
LONG_TRANSACTION
  2
AcDbLongTransaction
  3
ObjectDBX Classes
 90
   -65536
280
     1
281
     0
  0
CLASS
  1
LWPOLYLINE
  2
AcDbPolyline
  3
AutoCAD 2000
 90
        0
280
     0
281
     1
  0
CLASS
  1
HATCH
  2
AcDbHatch
  3
AutoCAD 2000
 90
        0
280
     0
281
     1
  0
CLASS
  1
XRECORD
  2
AcDbXrecord
  3
AutoCAD 2000
 90
        0
280
     0
281
     0
  0
CLASS
  1
LONG_TRANSACTION
  2
AcDbLongTransaction
  3
ObjectDBX Classes
 90
   -65536
280
     1
281
     0
  0
CLASS
  1
LWPOLYLINE
  2
AcDbPolyline
  3
AutoCAD 2000
 90
        0
280
     0
281
     1
  0
CLASS
  1
HATCH
  2
AcDbHatch
  3
AutoCAD 2000
 90
        0
280
     0
281
     1
  0
CLASS
  1
XRECORD
  2
AcDbXrecord
  3
AutoCAD 2000
 90
        0
280
     0
281
     0
  0
CLASS
  1
LONG_TRANSACTION
  2
AcDbLongTransaction
  3
ObjectDBX Classes
 90
   -65536
280
     1
281
     0
  0
CLASS
  1
LWPOLYLINE
  2
AcDbPolyline
  3
AutoCAD 2000
 90
        0
280
     0
281
     1
  0
CLASS
  1
HATCH
  2
AcDbHatch
  3
AutoCAD 2000
 90
        0
280
     0
281
     1
  0
CLASS
  1
XRECORD
  2
AcDbXrecord
  3
AutoCAD 2000
 90
        0
280
     0
281
     0
  0
CLASS
  1
LONG_TRANSACTION
  2
AcDbLongTransaction
  3
ObjectDBX Classes
 90
   -65536
280
     1
281
     0
  0
CLASS
  1
LWPOLYLINE
  2
AcDbPolyline
  3
AutoCAD 2000
 90
        0
280
     0
281
     1
  0
CLASS
  1
HATCH
  2
AcDbHatch
  3
AutoCAD 2000
 90
        0
280
     0
281
     1
  0
CLASS
  1
XRECORD
  2
AcDbXrecord
  3
AutoCAD 2000
 90
        0
280
     0
281
     0
  0
CLASS
  1
LONG_TRANSACTION
  2
AcDbLongTransaction
  3
ObjectDBX Classes
 90
   -65536
280
     1
281
     0
  0
CLASS
  1
LWPOLYLINE
  2
AcDbPolyline
  3
AutoCAD 2000
 90
        0
280
     0
281
     1
  0
CLASS
  1
HATCH
  2
AcDbHatch
  3
AutoCAD 2000
 90
        0
280
     0
281
     1
  0
CLASS
  1
XRECORD
  2
AcDbXrecord
  3
AutoCAD 2000
 90
        0
280
     0
281
     0
  0
CLASS
  1
LONG_TRANSACTION
  2
AcDbLongTransaction
  3
ObjectDBX Classes
 90
   -65536
280
     1
281
     0
  0
CLASS
  1
LWPOLYLINE
  2
AcDbPolyline
  3
AutoCAD 2000
 90
        0
280
     0
281
     1
  0
CLASS
  1
HATCH
  2
AcDbHatch
  3
AutoCAD 2000
 90
        0
280
     0
281
     1
  0
CLASS
  1
XRECORD
  2
AcDbXrecord
  3
AutoCAD 2000
 90
        0
280
     0
281
     0
  0
CLASS
  1
TABLESTYLE
  2
AcDbTableStyle
  3
ObjectDBX Classes
 90
     2047
280
     1
281
     0
  0
CLASS
  1
SORTENTSTABLE
  2
AcDbSortentsTable
  3
AutoCAD 2000
 90
        0
280
     0
281
     0
  0
CLASS
  1
DICTIONARYVAR
  2
AcDbDictionaryVar
  3
AutoCAD 2000
 90
        0
280
     0
281
     0
  0
ENDSEC
  0
SECTION
  2
TABLES
  0
TABLE
  2
VPORT
  5
8
330
0
100
AcDbSymbolTable
 70
     5
  0
VPORT
  5
F9E
330
8
100
AcDbSymbolTableRecord
100
AcDbViewportTableRecord
  2
*Active
 70
     0
 10
0.0
 20
0.0
 11
1.0
 21
1.0
 12
4.004033776659092
 22
2.520455545779313
 13
0.0
 23
0.0
 14
0.03125
 24
0.03125
 15
0.25
 25
0.25
 16
0.0
 26
0.0
 36
1.0
 17
0.0
 27
0.0
 37
0.0
 40
24.73895558799606
 41
1.77079107505071
 42
50.0
 43
0.0
 44
0.0
 50
0.0
 51
0.0
 71
     0
 72
   100
 73
     1
 74
     0
 75
     0
 76
     0
 77
     0
 78
     0
281
     0
 65
     1
110
0.0
120
0.0
130
0.0
111
1.0
121
0.0
131
0.0
112
0.0
122
1.0
132
0.0
 79
     0
146
0.0
  0
ENDTAB
  0
TABLE
  2
LTYPE
  5
5
330
0
100
AcDbSymbolTable
 70
     4
  0
LTYPE
  5
13
330
5
100
AcDbSymbolTableRecord
100
AcDbLinetypeTableRecord
  2
ByBlock
 70
     0
  3

 72
    65
 73
     0
 40
0.0
  0
LTYPE
  5
14
330
5
100
AcDbSymbolTableRecord
100
AcDbLinetypeTableRecord
  2
ByLayer
 70
     0
  3

 72
    65
 73
     0
 40
0.0
  0
LTYPE
  5
15
330
5
100
AcDbSymbolTableRecord
100
AcDbLinetypeTableRecord
  2
CONTINUOUS
 70
     0
  3
Solid line
 72
    65
 73
     0
 40
0.0
  0
LTYPE
  5
31
330
5
100
AcDbSymbolTableRecord
100
AcDbLinetypeTableRecord
  2
HIDDEN
 70
     0
  3
_ _ _ _ _ _ _ _ _ _ _ _ _ _ _ _ _ _ _ _ _ _ _
 72
    65
 73
     2
 40
0.375
 49
0.25
 74
     0
 49
-0.125
 74
     0
  0
LTYPE
  5
32
330
5
100
AcDbSymbolTableRecord
100
AcDbLinetypeTableRecord
  2
DASHED
 70
     0
  3
__ __ __ __ __ __ __ __ __ __ __ __ __ __ __
 72
    65
 73
     2
 40
0.75
 49
0.5
 74
     0
 49
-0.25
 74
     0
  0
LTYPE
  5
34
330
5
100
AcDbSymbolTableRecord
100
AcDbLinetypeTableRecord
  2
CENTER
 70
     0
  3
____ _ ____ _ ____ _ ____ _ ____ _ ____ _ ____
 72
    65
 73
     4
 40
2.0
 49
1.25
 74
     0
 49
-0.25
 74
     0
 49
0.25
 74
     0
 49
-0.25
 74
     0
  0
ENDTAB
  0
TABLE
  2
LAYER
  5
2
102
{ACAD_XDICTIONARY
360
E43
102
}
330
0
100
AcDbSymbolTable
 70
    12
  0
LAYER
  5
10
330
2
100
AcDbSymbolTableRecord
100
AcDbLayerTableRecord
  2
0
 70
     0
 62
     7
  6
CONTINUOUS
370
    -3
390
F
  0
LAYER
  5
38
330
2
100
AcDbSymbolTableRecord
100
AcDbLayerTableRecord
  2
NOTE
 70
     0
 62
     1
  6
CONTINUOUS
370
    -3
390
F
  0
LAYER
  5
39
330
2
100
AcDbSymbolTableRecord
100
AcDbLayerTableRecord
  2
TITLE
 70
     0
 62
     5
  6
CONTINUOUS
370
    -3
390
F
  0
LAYER
  5
3A
330
2
100
AcDbSymbolTableRecord
100
AcDbLayerTableRecord
  2
BORDER
 70
     0
 62
     7
  6
CONTINUOUS
370
    -3
390
F
  0
LAYER
  5
3B
330
2
100
AcDbSymbolTableRecord
100
AcDbLayerTableRecord
  2
ATTRIBUTES
 70
     0
 62
     1
  6
CONTINUOUS
370
    -3
390
F
  0
LAYER
  5
3C
330
2
100
AcDbSymbolTableRecord
100
AcDbLayerTableRecord
  2
REV
 70
     0
 62
     1
  6
CONTINUOUS
370
    -3
390
F
  0
LAYER
  5
3D
330
2
100
AcDbSymbolTableRecord
100
AcDbLayerTableRecord
  2
DIM
 70
     0
 62
     5
  6
CONTINUOUS
370
    -3
390
F
  0
LAYER
  5
3E
330
2
100
AcDbSymbolTableRecord
100
AcDbLayerTableRecord
  2
OBJECT
 70
     0
 62
     7
  6
CONTINUOUS
370
    -3
390
F
  0
LAYER
  5
40
330
2
100
AcDbSymbolTableRecord
100
AcDbLayerTableRecord
  2
HIDDEN
 70
     0
 62
   253
  6
HIDDEN
370
    -3
390
F
  0
LAYER
  5
41
330
2
100
AcDbSymbolTableRecord
100
AcDbLayerTableRecord
  2
CENTER
 70
     0
 62
     6
  6
CENTER
370
    -3
390
F
  0
LAYER
  5
42
330
2
100
AcDbSymbolTableRecord
100
AcDbLayerTableRecord
  2
DASHED
 70
     0
 62
     8
  6
DASHED
370
    -3
390
F
  0
LAYER
  5
45
330
2
100
AcDbSymbolTableRecord
100
AcDbLayerTableRecord
  2
ATTRIBUTE
 70
     0
 62
     1
  6
CONTINUOUS
370
    -3
390
F
  0
ENDTAB
  0
TABLE
  2
STYLE
  5
3
330
0
100
AcDbSymbolTable
 70
     4
  0
STYLE
  5
11
330
3
100
AcDbSymbolTableRecord
100
AcDbTextStyleTableRecord
  2
STANDARD
 70
     0
 40
0.0
 41
1.0
 50
0.0
 71
     0
 42
0.225
  3
TXT
  4

  0
STYLE
  5
2F
330
3
100
AcDbSymbolTableRecord
100
AcDbTextStyleTableRecord
  2
COMPLEX
 70
     0
 40
0.0
 41
1.0
 50
0.0
 71
     0
 42
0.125
  3
COMPLEX
  4

  0
STYLE
  5
6EC
330
3
100
AcDbSymbolTableRecord
100
AcDbTextStyleTableRecord
  2
TIM
 70
     0
 40
0.0
 41
1.0
 50
33.0
 71
     0
 42
0.11
  3
txt
  4

  0
STYLE
  5
E41
330
3
100
AcDbSymbolTableRecord
100
AcDbTextStyleTableRecord
  2
HELVETICA
 70
     0
 40
0.0
 41
1.0
 50
0.0
 71
     0
 42
0.27
  3
SIMPLEX.SHX
  4

  0
ENDTAB
  0
TABLE
  2
VIEW
  5
6
330
0
100
AcDbSymbolTable
 70
     0
  0
ENDTAB
  0
TABLE
  2
UCS
  5
7
330
0
100
AcDbSymbolTable
 70
     0
  0
ENDTAB
  0
TABLE
  2
APPID
  5
9
330
0
100
AcDbSymbolTable
 70
     2
  0
APPID
  5
12
330
9
100
AcDbSymbolTableRecord
100
AcDbRegAppTableRecord
  2
ACAD
 70
     0
  0
APPID
  5
E42
330
9
100
AcDbSymbolTableRecord
100
AcDbRegAppTableRecord
  2
ACAD_PSEXT
 70
     0
  0
ENDTAB
  0
TABLE
  2
DIMSTYLE
  5
A
330
0
100
AcDbSymbolTable
 70
     1
100
AcDbDimStyleTable
  0
DIMSTYLE
105
6AE
330
A
100
AcDbSymbolTableRecord
100
AcDbDimStyleTableRecord
  2
Standard
 70
     0
  3

  4

340
11
  0
ENDTAB
  0
TABLE
  2
BLOCK_RECORD
  5
1
330
0
100
AcDbSymbolTable
 70
    11
  0
BLOCK_RECORD
  5
1E
330
1
100
AcDbSymbolTableRecord
100
AcDbBlockTableRecord
  2
*Model_Space
340
21
  0
BLOCK_RECORD
  5
1A
330
1
100
AcDbSymbolTableRecord
100
AcDbBlockTableRecord
  2
*Paper_Space
340
1D
  0
BLOCK_RECORD
  5
28
330
1
100
AcDbSymbolTableRecord
100
AcDbBlockTableRecord
  2
03A1T152
340
0
  0
BLOCK_RECORD
  5
2A
330
1
100
AcDbSymbolTableRecord
100
AcDbBlockTableRecord
  2
REV
340
0
  0
BLOCK_RECORD
  5
2B
330
1
100
AcDbSymbolTableRecord
100
AcDbBlockTableRecord
  2
TRIANGLE
340
0
102
{BLKREFS
331
2D0
102
}
  0
BLOCK_RECORD
  5
2E
330
1
100
AcDbSymbolTableRecord
100
AcDbBlockTableRecord
  2
GUBORDER
340
0
  0
BLOCK_RECORD
  5
6D6
330
1
100
AcDbSymbolTableRecord
100
AcDbBlockTableRecord
  2
Zmax
340
0
  0
BLOCK_RECORD
  5
950
330
1
100
AcDbSymbolTableRecord
100
AcDbBlockTableRecord
  2
UseWarning
340
0
310
2800000020000000200000000100080000000000000400000000000000000000000000000000000000000000000080000080000000808000800000008000800080800000C0C0C000C0DCC000F0CAA6000000FF007F7FFF000000A5005252A50000007F003F3F7F0000004C0026264C000000260013132600003FFF007F9FFF
310
000029A5005267A500001F7F003F4F7F0000134C00262F4C000009260013172600007FFF007FBFFF000052A500527CA500003F7F003F5F7F0000264C0026394C0000132600131C260000BFFF007FDFFF00007CA5005291A500005F7F003F6F7F0000394C0026424C00001C26001321260000FFFF007FFFFF0000A5A50052A5
310
A500007F7F003F7F7F00004C4C00264C4C00002626001326260000FFBF007FFFDF0000A57C0052A59100007F5F003F7F6F00004C3900264C420000261C001326210000FF7F007FFFBF0000A5520052A57C00007F3F003F7F5F00004C2600264C39000026130013261C0000FF3F007FFF9F0000A5290052A56700007F1F003F
310
7F4F00004C1300264C2F00002609001326170000FF00007FFF7F0000A5000052A55200007F00003F7F3F00004C0000264C260000260000132613003FFF00009FFF7F0029A5000067A552001F7F00004F7F3F00134C00002F4C260009260000172613007FFF0000BFFF7F0052A500007CA552003F7F00005F7F3F00264C0000
310
394C2600132600001C261300BFFF0000DFFF7F007CA5000091A552005F7F00006F7F3F00394C0000424C26001C26000021261300FFFF0000FFFF7F00A5A50000A5A552007F7F00007F7F3F004C4C00004C4C26002626000026261300FFBF0000FFDF7F00A57C0000A59152007F5F00007F6F3F004C3900004C422600261C00
310
0026211300FF7F0000FFBF7F00A5520000A57C52007F3F00007F5F3F004C2600004C39260026130000261C1300FF3F0000FF9F7F00A5290000A56752007F1F00007F4F3F004C1300004C2F26002609000026171300FF000000FF7F7F00A5000000A55252007F0000007F3F3F004C0000004C2626002600000026131300FF00
310
3F00FF7F9F00A5002900A55267007F001F007F3F4F004C0013004C262F002600090026131700FF007F00FF7FBF00A5005200A5527C007F003F007F3F5F004C0026004C2639002600130026131C00FF00BF00FF7FDF00A5007C00A55291007F005F007F3F6F004C0039004C26420026001C0026132100FF00FF00FF7FFF00A5
310
00A500A552A5007F007F007F3F7F004C004C004C264C002600260026132600BF00FF00DF7FFF007C00A5009152A5005F007F006F3F7F0039004C0042264C001C002600211326007F00FF00BF7FFF005200A5007C52A5003F007F005F3F7F0026004C0039264C00130026001C1326003F00FF009F7FFF002900A5006752A500
310
1F007F004F3F7F00F0FBFF00A56E3A00808080000000FF0000FF000000FFFF00FF000000FF00FF00FFFF0000FFFFFF0007070707070707070707070707070707070707070707070707070707070707070707070707070707070707070707070707070707070707070707070707070707070707070707070707070707070707
310
07070707070707070707070707070707070707070707070707070707070707070707070707070707070707070707070707070707070707070707070707070707070707070707070707070707070707070707070707070707070707070707070707070707070707070707070707070707070707070707070707070707070707
310
07070707070707070707070707070707070707070707070707070707070707070707070707070707070707070707070707070707070707070707070707070707070707070707070707070707070707070707070707070707070707070707070707070707070707070707070707070707070707070707070707070707070707
310
0707070707070707070707070707070707070707B4B4B4B4B4B4B4B4B4B4B4B4B4B4B4B4B4B4B4B4B4B4B4B4B4B4B4B4B4B40707B407070707070707070707070707070707070707070707070707070707B40707B407B407B4B407B4B4B4B4B4B4B4B4B4B4B4B4B4B4B4B4B4B4B407B407B40707B407B4B4B4B4B4B4B4B4B4
310
B4B4B4B4B4B4B4B4B4B407B4B4B4B4B4B407B40707B4070707B407070707070707B4B40707070707070707B40707B4B40707B40707B4070707B4B4B4B40707B4B40707B407B4B407B4B4B4B4B4B4B4070707B40707B40707B4B4B4B4B4B407B4B40707B4B4B4B4B4B4B4B4B407B4B4B40707B40707B40707B4B4B4B4B40707
310
B40707B407B4B4B4B4B4B4B4B4B4B4B4B40707B40707B407070707070707070707070707070707070707070707070707070707B40707B4B4B4B4B4B4B4B4B4B4B4B4B4B4B4B4B4B4B4B4B4B4B4B4B4B4B4B4B4B407070707070707070707070707070707070707070707070707070707070707070707070707070707070707
310
07070707070707070707070707070707070707070707070707070707070707070707070707070707070707070707070707070707070707070707070707070707070707070707070707070707070707070707070707070707070707070707070707070707070707070707070707070707070707070707070707070707070707
310
07070707070707070707070707070707070707070707070707070707070707070707070707070707070707070707070707070707070707070707070707070707070707070707070707070707070707070707070707070707070707070707070707070707070707070707070707070707070707070707070707070707070707
310
0707070707070707070707070707070707070707070707070707070707070707070707070707070707070707070707070707070707070707
1001
ACAD
1000
DesignCenter Data
1002
{
1070
     1
1070
     1
1002
}
  0
BLOCK_RECORD
  5
E0B
330
1
100
AcDbSymbolTableRecord
100
AcDbBlockTableRecord
  2
Notes1port
340
0
  0
BLOCK_RECORD
  5
E39
102
{ACAD_XDICTIONARY
360
E3A
102
}
330
1
100
AcDbSymbolTableRecord
100
AcDbBlockTableRecord
  2
Copyright tag
340
0
  0
BLOCK_RECORD
  5
E9F
102
{ACAD_XDICTIONARY
360
EA0
102
}
330
1
100
AcDbSymbolTableRecord
100
AcDbBlockTableRecord
  2
Notes2port
340
0
  0
BLOCK_RECORD
  5
EAF
102
{ACAD_XDICTIONARY
360
EB0
102
}
330
1
100
AcDbSymbolTableRecord
100
AcDbBlockTableRecord
  2
Copyright tag 08
340
0
  0
BLOCK_RECORD
  5
F07
102
{ACAD_XDICTIONARY
360
F08
102
}
330
1
100
AcDbSymbolTableRecord
100
AcDbBlockTableRecord
  2
Copyright tag 07-08
340
0
  0
ENDTAB
  0
ENDSEC
  0
SECTION
  2
BLOCKS
  0
BLOCK
  5
4A
330
1E
100
AcDbEntity
  8
0
100
AcDbBlockBegin
  2
*Model_Space
 70
     0
 10
0.0
 20
0.0
 30
0.0
  3
*Model_Space
  1

  4

  0
ENDBLK
  5
4B
330
1E
100
AcDbEntity
  8
0
100
AcDbBlockEnd
  0
BLOCK
  5
48
330
1A
100
AcDbEntity
 67
     1
  8
0
100
AcDbBlockBegin
  2
*Paper_Space
 70
     0
 10
0.0
 20
0.0
 30
0.0
  3
*Paper_Space
  1

  4

  0
ENDBLK
  5
49
330
1A
100
AcDbEntity
 67
     1
  8
0
100
AcDbBlockEnd
  0
BLOCK
  5
23F
330
28
100
AcDbEntity
  8
0
100
AcDbBlockBegin
  2
03A1T152
 70
     2
 10
93.98088982234965
 20
441.2797419379988
 30
0.0
  3
03A1T152
  1

  4

  0
CIRCLE
  5
240
330
28
100
AcDbEntity
  8
0
100
AcDbCircle
 10
94.41354263321856
 20
441.2929953788426
 30
0.0
 40
0.046875
  0
TEXT
  5
241
330
28
100
AcDbEntity
  8
0
100
AcDbText
 10
94.39245935304228
 20
441.2555028178428
 30
0.0
 40
0.075
  1
R
100
AcDbText
  0
LINE
  5
242
330
28
100
AcDbEntity
  8
0
100
AcDbLine
 10
94.39251214372817
 20
441.2578791069202
 30
0.0
 11
94.39251214372817
 21
441.2510142718076
 31
0.0
  0
ATTDEF
  5
243
330
28
100
AcDbEntity
  8
ATTRIBUTE
100
AcDbText
 10
93.96058693364999
 20
440.8939219793438
 30
0.0
 40
0.09
  1

 72
     1
 11
93.96058693364999
 21
440.8939219793438
 31
0.0
100
AcDbAttributeDefinition
  3
Enter pat.# or ICBO #
  2
APPROVAL
 70
     0
  0
ATTDEF
  5
244
330
28
100
AcDbEntity
  8
ATTRIBUTE
100
AcDbText
 10
93.97073837799981
 20
441.0310315514279
 30
0.0
 40
0.09
  1

 72
     1
 11
93.97073837799981
 21
441.0310315514279
 31
0.0
100
AcDbAttributeDefinition
  3
Enter model number
  2
MODEL
 70
     0
  0
TEXT
  5
245
330
28
100
AcDbEntity
  8
0
100
AcDbText
 10
93.54806258604991
 20
441.177754819654
 30
0.0
 40
0.08999991
  1
Strong-Tie
100
AcDbText
  0
TEXT
  5
246
330
28
100
AcDbEntity
  8
0
100
AcDbText
 10
93.54806258604991
 20
441.327754669654
 30
0.0
 40
0.08999991
  1
 SIMPSON
100
AcDbText
  0
ENDBLK
  5
247
330
28
100
AcDbEntity
  8
0
100
AcDbBlockEnd
  0
BLOCK
  5
2CF
330
2A
100
AcDbEntity
  8
0
100
AcDbBlockBegin
  2
REV
 70
     2
 10
5.421199
 20
5.289662
 30
0.0
  3
REV
  1

  4

  0
INSERT
  5
2D0
330
2A
100
AcDbEntity
  8
0
100
AcDbBlockReference
  2
TRIANGLE
 10
5.450488
 20
5.353121
 30
0.0
 41
0.9
 42
0.9
 43
0.9
  0
ATTDEF
  5
2D1
330
2A
100
AcDbEntity
  8
0
100
AcDbText
 10
5.391039
 20
5.245119
 30
0.0
 40
0.09
  1
A
100
AcDbAttributeDefinition
  3
Revision level
  2
REVISION
 70
     0
  0
ENDBLK
  5
2D2
330
2A
100
AcDbEntity
  8
0
100
AcDbBlockEnd
  0
BLOCK
  5
2D3
330
2B
100
AcDbEntity
  8
0
100
AcDbBlockBegin
  2
TRIANGLE
 70
     0
 10
5.451708999999999
 20
5.353121
 30
0.0
  3
TRIANGLE
  1

  4

  0
LINE
  5
2D4
330
2B
100
AcDbEntity
  8
0
100
AcDbLine
 10
5.418628
 20
5.413703
 30
0.0
 11
5.324878
 21
5.226203
 31
0.0
  0
LINE
  5
2D5
330
2B
100
AcDbEntity
  8
0
100
AcDbLine
 10
5.418628
 20
5.413703
 30
0.0
 11
5.512378
 21
5.226203
 31
0.0
  0
LINE
  5
2D6
330
2B
100
AcDbEntity
  8
0
100
AcDbLine
 10
5.324878
 20
5.226203
 30
0.0
 11
5.512378
 21
5.226203
 31
0.0
  0
ENDBLK
  5
2D7
330
2B
100
AcDbEntity
  8
0
100
AcDbBlockEnd
  0
BLOCK
  5
465
330
2E
100
AcDbEntity
  8
0
100
AcDbBlockBegin
  2
GUBORDER
 70
     2
 10
0.0
 20
0.0
 30
0.0
  3
GUBORDER
  1

  4

  0
ATTDEF
  5
466
330
2E
100
AcDbEntity
  8
ATTRIBUTES
100
AcDbText
 10
5.457999999999999
 20
0.333
 30
0.0
 40
0.1
  1

100
AcDbAttributeDefinition
  3
Enter drawing scale
  2
SCALE
 70
     0
  0
ATTDEF
  5
467
330
2E
100
AcDbEntity
  8
ATTRIBUTES
100
AcDbText
 10
7.247999999999999
 20
0.333
 30
0.0
 40
0.1
  1

100
AcDbAttributeDefinition
  3
Enter date
  2
DATE
 70
     0
  0
ATTDEF
  5
468
330
2E
100
AcDbEntity
  8
ATTRIBUTES
100
AcDbText
 10
6.513999999999999
 20
0.084
 30
0.0
 40
0.1
  1

100
AcDbAttributeDefinition
  3
Enter model number
  2
MODEL#
 70
     0
  0
ATTDEF
  5
469
330
2E
100
AcDbEntity
  8
ATTRIBUTES
100
AcDbText
 10
3.562
 20
0.071
 30
0.0
 40
0.1
  1

100
AcDbAttributeDefinition
  3
Enter drawing number
  2
DRAWING#
 70
     0
  0
ATTDEF
  5
46A
330
2E
100
AcDbEntity
  8
ATTRIBUTES
100
AcDbText
 10
7.215
 20
0.583
 30
0.0
 40
0.1
  1

100
AcDbAttributeDefinition
  3
Enter die number
  2
DIE
 70
     0
  0
LINE
  5
46B
330
2E
100
AcDbEntity
  8
TITLE
100
AcDbLine
 10
5.978
 20
0.516
 30
0.0
 11
5.978
 21
0.266
 31
0.0
  0
TEXT
  5
46C
330
2E
100
AcDbEntity
  8
TITLE
100
AcDbText
 10
6.007000000000001
 20
0.424
 30
0.0
 40
0.062
  1
CHK.
100
AcDbText
  0
TEXT
  5
46D
330
2E
100
AcDbEntity
  8
TITLE
100
AcDbText
 10
7.677333333333333
 20
1.367
 30
0.0
 40
0.062
  1
 BY
 72
     1
 11
7.791
 21
1.367
 31
0.0
100
AcDbText
  0
LINE
  5
46E
330
2E
100
AcDbEntity
  8
TITLE
100
AcDbLine
 10
7.592000000000001
 20
1.767
 30
0.0
 11
7.592000000000001
 21
1.267
 31
0.0
  0
LINE
  5
46F
330
2E
100
AcDbEntity
  8
TITLE
100
AcDbLine
 10
7.978
 20
1.517
 30
0.0
 11
4.978
 21
1.517
 31
0.0
  0
LINE
  5
470
330
2E
100
AcDbEntity
  8
TITLE
100
AcDbLine
 10
7.228
 20
1.767
 30
0.0
 11
7.228
 21
1.267
 31
0.0
  0
LINE
  5
471
330
2E
100
AcDbEntity
  8
TITLE
100
AcDbLine
 10
6.028
 20
1.767
 30
0.0
 11
6.028
 21
1.267
 31
0.0
  0
LINE
  5
472
330
2E
100
AcDbEntity
  8
TITLE
100
AcDbLine
 10
5.377999999999999
 20
1.767
 30
0.0
 11
5.377999999999999
 21
1.267
 31
0.0
  0
TEXT
  5
473
330
2E
100
AcDbEntity
  8
TITLE
100
AcDbText
 10
5.074666666666666
 20
1.367
 30
0.0
 40
0.062
  1
REV.
 72
     1
 11
5.178
 21
1.367
 31
0.0
100
AcDbText
  0
TEXT
  5
474
330
2E
100
AcDbEntity
  8
TITLE
100
AcDbText
 10
5.564333333333333
 20
1.367
 30
0.0
 40
0.062
  1
DATE
 72
     1
 11
5.678
 21
1.367
 31
0.0
100
AcDbText
  0
TEXT
  5
475
330
2E
100
AcDbEntity
  8
TITLE
100
AcDbText
 10
6.318
 20
1.367
 30
0.0
 40
0.062
  1
DESCRIPTION
 72
     1
 11
6.627999999999999
 21
1.367
 31
0.0
100
AcDbText
  0
TEXT
  5
476
330
2E
100
AcDbEntity
  8
TITLE
100
AcDbText
 10
7.304
 20
1.367
 30
0.0
 40
0.062
  1
APPR.
 72
     1
 11
7.428
 21
1.367
 31
0.0
100
AcDbText
  0
TRACE
  5
477
330
2E
100
AcDbEntity
  8
TITLE
100
AcDbTrace
 10
4.979
 20
1.038
 30
0.0
 11
4.979
 21
1.013
 31
0.0
 12
7.988
 22
1.038
 32
0.0
 13
7.988
 23
1.013
 33
0.0
  0
TRACE
  5
478
330
2E
100
AcDbEntity
  8
BORDER
100
AcDbTrace
 10
4.975
 20
0.26
 30
0.0
 11
4.975
 21
0.285
 31
0.0
 12
2.913
 22
0.26
 32
0.0
 13
2.913
 23
0.285
 33
0.0
  0
TEXT
  5
479
330
2E
100
AcDbEntity
  8
TITLE
100
AcDbText
 10
3.013
 20
0.075
 30
0.0
 40
0.062
  1
DWG. NO.
100
AcDbText
  0
TEXT
  5
47A
330
2E
100
AcDbEntity
  8
TITLE
100
AcDbText
 10
5.682
 20
0.8270000000000001
 30
0.0
 40
0.1
  1
PRODUCTION DRAWING
100
AcDbText
  0
TEXT
  5
47B
330
2E
100
AcDbEntity
  8
TITLE
100
AcDbText
 10
5.075
 20
0.825
 30
0.0
 40
0.062
  1
TITLE:
100
AcDbText
  0
TRACE
  5
47C
330
2E
100
AcDbEntity
  8
TITLE
100
AcDbTrace
 10
7.975
 20
1.262
 30
0.0
 11
7.975
 21
1.282
 31
0.0
 12
4.975
 22
1.262
 32
0.0
 13
4.975
 23
1.282
 33
0.0
  0
LINE
  5
47D
330
2E
100
AcDbEntity
  8
BORDER
100
AcDbLine
 10
6.725
 20
0.272
 30
0.0
 11
6.725
 21
0.7659999999999999
 31
0.0
  0
LINE
  5
47E
330
2E
100
AcDbEntity
  8
BORDER
100
AcDbLine
 10
5.625
 20
0.272
 30
0.0
 11
5.625
 21
0.022
 31
0.0
  0
TEXT
  5
47F
330
2E
100
AcDbEntity
  8
TITLE
100
AcDbText
 10
3.640000000000001
 20
1.122
 30
0.0
 40
0.07
  1
CONFIDENTIAL
 72
     1
 11
4.025
 21
1.122
 31
0.0
100
AcDbText
  0
TEXT
  5
480
330
2E
100
AcDbEntity
  8
TITLE
100
AcDbText
 10
3.075
 20
0.972
 30
0.0
 40
0.062
  1
THIS DRAWING IS THE EXCLUSIVE
100
AcDbText
  0
TEXT
  5
481
330
2E
100
AcDbEntity
  8
TITLE
100
AcDbText
 10
3.075
 20
0.818
 30
0.0
 40
0.062
  1
PROPERTY OF SIMPSON STRONG TIE
100
AcDbText
  0
TEXT
  5
482
330
2E
100
AcDbEntity
  8
TITLE
100
AcDbText
 10
3.175
 20
0.664
 30
0.0
 40
0.062
  1
COMPANY INC. AND MAY NOT BE
100
AcDbText
  0
TEXT
  5
483
330
2E
100
AcDbEntity
  8
TITLE
100
AcDbText
 10
3.225
 20
0.51
 30
0.0
 40
0.062
  1
REPRODUCED WITHOUT THEIR
100
AcDbText
  0
TEXT
  5
484
330
2E
100
AcDbEntity
  8
TITLE
100
AcDbText
 10
3.225
 20
0.355
 30
0.0
 40
0.062
  1
EXPRESS WRITTEN CONSENT!
100
AcDbText
  0
TEXT
  5
485
330
2E
100
AcDbEntity
  8
TITLE
100
AcDbText
 10
5.075
 20
0.622
 30
0.0
 40
0.062
  1
DR. BY
100
AcDbText
  0
TEXT
  5
486
330
2E
100
AcDbEntity
  8
TITLE
100
AcDbText
 10
6.814
 20
0.604
 30
0.0
 40
0.062
  1
DIE NO.
100
AcDbText
  0
TEXT
  5
487
330
2E
100
AcDbEntity
  8
TITLE
100
AcDbText
 10
6.811
 20
0.354
 30
0.0
 40
0.062
  1
DATE
100
AcDbText
  0
TEXT
  5
488
330
2E
100
AcDbEntity
  8
TITLE
100
AcDbText
 10
5.021
 20
0.172
 30
0.0
 40
0.062
  1
REV.
100
AcDbText
  0
TEXT
  5
489
330
2E
100
AcDbEntity
  8
TITLE
100
AcDbText
 10
5.702999999999999
 20
0.104
 30
0.0
 40
0.062
  1
%%UMODEL NO:
100
AcDbText
  0
TEXT
  5
48A
330
2E
100
AcDbEntity
  8
TITLE
100
AcDbText
 10
5.175
 20
1.072
 30
0.0
 40
0.1
  1
SIMPSON STRONG-TIE CO., INC.
  7
COMPLEX
100
AcDbText
  0
TEXT
  5
48B
330
2E
100
AcDbEntity
  8
TITLE
100
AcDbText
 10
5.075
 20
0.357
 30
0.0
 40
0.062
  1
SCALE:
100
AcDbText
  0
TRACE
  5
48C
330
2E
100
AcDbEntity
  8
BORDER
100
AcDbTrace
 10
0.275
 20
10.475
 30
0.0
 11
0.25
 21
10.5
 31
0.0
 12
0.275
 22
0.0
 32
0.0
 13
0.25
 23
0.0
 33
0.0
  0
TRACE
  5
48D
330
2E
100
AcDbEntity
  8
BORDER
100
AcDbTrace
 10
7.975
 20
10.475
 30
0.0
 11
8.0
 21
10.5
 31
0.0
 12
0.25
 22
10.475
 32
0.0
 13
0.25
 23
10.5
 33
0.0
  0
TRACE
  5
48E
330
2E
100
AcDbEntity
  8
BORDER
100
AcDbTrace
 10
7.975
 20
0.025
 30
0.0
 11
8.0
 21
0.0
 31
0.0
 12
7.975
 22
10.475
 32
0.0
 13
8.0
 23
10.5
 33
0.0
  0
TRACE
  5
48F
330
2E
100
AcDbEntity
  8
BORDER
100
AcDbTrace
 10
4.971
 20
1.254
 30
0.0
 11
4.971
 21
1.279
 31
0.0
 12
2.921
 22
1.254
 32
0.0
 13
2.896
 23
1.279
 33
0.0
  0
TRACE
  5
490
330
2E
100
AcDbEntity
  8
BORDER
100
AcDbTrace
 10
4.961
 20
0.016
 30
0.0
 11
4.981
 21
0.016
 31
0.0
 12
4.961
 22
1.279
 32
0.0
 13
4.981
 23
1.279
 33
0.0
  0
LINE
  5
491
330
2E
100
AcDbEntity
  8
BORDER
100
AcDbLine
 10
7.971
 20
0.266
 30
0.0
 11
4.971
 21
0.266
 31
0.0
  0
LINE
  5
492
330
2E
100
AcDbEntity
  8
BORDER
100
AcDbLine
 10
4.971
 20
0.516
 30
0.0
 11
7.971
 21
0.516
 31
0.0
  0
LINE
  5
493
330
2E
100
AcDbEntity
  8
BORDER
100
AcDbLine
 10
7.971
 20
0.7659999999999999
 30
0.0
 11
4.971
 21
0.7659999999999999
 31
0.0
  0
LINE
  5
494
330
2E
100
AcDbEntity
  8
BORDER
100
AcDbLine
 10
7.971
 20
1.766
 30
0.0
 11
4.971
 21
1.766
 31
0.0
  0
TEXT
  5
495
330
2E
100
AcDbEntity
  8
NOTE
100
AcDbText
 10
5.685
 20
0.583
 30
0.0
 40
0.1
  1
G. MOLINA
100
AcDbText
  0
TRACE
  5
496
330
2E
100
AcDbEntity
  8
BORDER
100
AcDbTrace
 10
2.896
 20
0.021
 30
0.0
 11
2.921
 21
0.021
 31
0.0
 12
2.896
 22
1.279
 32
0.0
 13
2.921
 23
1.279
 33
0.0
  0
LINE
  5
497
330
2E
100
AcDbEntity
  8
BORDER
100
AcDbLine
 10
4.971
 20
1.766
 30
0.0
 11
4.971
 21
1.27
 31
0.0
  0
TRACE
  5
498
330
2E
100
AcDbEntity
  8
BORDER
100
AcDbTrace
 10
0.25
 20
0.025
 30
0.0
 11
0.25
 21
0.0
 31
0.0
 12
7.975
 22
0.025
 32
0.0
 13
8.0
 23
0.0
 33
0.0
  0
ENDBLK
  5
499
330
2E
100
AcDbEntity
  8
0
100
AcDbBlockEnd
  0
BLOCK
  5
6EA
330
6D6
100
AcDbEntity
  8
0
100
AcDbBlockBegin
  2
Zmax
 70
     0
 10
0.0
 20
0.0
 30
0.0
  3
Zmax
  1

  4

  0
LWPOLYLINE
  5
6D7
330
6D6
100
AcDbEntity
  8
0
100
AcDbPolyline
 90
        4
 70
     0
 43
0.015
 10
0.7501727987507799
 20
0.4875458760184934
 10
1.123060349258082
 20
0.4875458760184934
 10
0.9289044710833364
 20
0.1821282250367788
 10
1.180880910785527
 20
0.1821282250367788
  0
LWPOLYLINE
  5
6D8
330
6D6
100
AcDbEntity
  8
0
100
AcDbPolyline
 90
        4
 70
     0
 43
0.015
 10
0.7097895367803166
 20
0.4475458760184934
 10
1.025442428114533
 20
0.4475458760184934
 10
0.8312865499397875
 20
0.1421282250367784
 10
1.140666068285618
 20
0.1421282250367788
  0
LWPOLYLINE
  5
6D9
330
6D6
100
AcDbEntity
  8
0
100
AcDbPolyline
 90
        4
 70
     0
 43
0.015
 10
0.6694062748098533
 20
0.4075458760184934
 10
0.9278245069709842
 20
0.4075458760184934
 10
0.7336686287962384
 20
0.1021282250367783
 10
1.100451225785708
 20
0.1021282250367788
  0
LWPOLYLINE
  5
6DA
330
6D6
100
AcDbEntity
  8
0
100
AcDbPolyline
 90
        8
 70
     0
 43
0.0192
 10
1.111717415103744
 20
0.3347423304301318
 10
1.197281221600957
 20
0.4819710498776491
 10
1.200154131140998
 20
0.4810632853027859
 10
1.200154131140998
 20
0.3432018548639466
 10
1.20304431962962
 20
0.3422819051700377
 10
1.28404763595996
 20
0.4819832349966948
 10
1.286937824448583
 20
0.4810632853027859
 10
1.286937824448582
 20
0.336105647487339
  0
LWPOLYLINE
  5
6DB
330
6D6
100
AcDbEntity
  8
0
100
AcDbPolyline
 90
        4
 70
     0
 43
0.0192
 10
1.315968126250603
 20
0.3358727355566049
 10
1.399404145678041
 20
0.4821804000361103
 10
1.402243197179828
 20
0.4812961972335195
 10
1.402243197179828
 20
0.3358727355566049
  0
LWPOLYLINE
  5
6DC
330
6D6
100
AcDbEntity
  8
0
100
AcDbPolyline
 90
        2
 70
     0
 43
0.0192
 10
1.430862478340834
 20
0.3358727355566049
 10
1.519807816756447
 20
0.4862961972335198
  0
LWPOLYLINE
  5
6DD
330
6D6
100
AcDbEntity
  8
0
100
AcDbPolyline
 90
        2
 70
     0
 43
0.0192
 10
1.436266591110903
 20
0.4895569642637987
 10
1.546764802809499
 20
0.3358727355566049
  0
LWPOLYLINE
  5
6DE
330
6D6
100
AcDbEntity
  8
0
100
AcDbPolyline
 90
        2
 70
     0
 43
0.0192
 10
1.356403605330181
 20
0.3852500648722537
 10
1.394168816923372
 20
0.3852500648722537
  0
TEXT
  5
6DF
330
6D6
100
AcDbEntity
  8
DIM
100
AcDbText
 10
1.027211711341372
 20
0.2147163305872766
 30
0.0
 40
0.05
  1
TRIPLE ZINC
 41
1.028946901953848
 51
33.0
  7
TIM
 72
     5
 11
1.541685162318296
 21
0.2147163305872766
 31
0.0
100
AcDbText
  0
TEXT
  5
6E0
330
6D6
100
AcDbEntity
  8
DIM
100
AcDbText
 10
1.172525491556399
 20
0.1331666474592128
 30
0.0
 40
0.05
  1
COATING
 41
1.022906763267083
 51
33.0
  7
TIM
 72
     5
 11
1.496445966590976
 21
0.1331666474592128
 31
0.0
100
AcDbText
  0
TEXT
  5
6E1
330
6D6
100
AcDbEntity
  8
DIM
100
AcDbText
 10
1.546420523313362
 20
0.4066331068637326
 30
0.0
 40
0.025
  1
TM
100
AcDbText
  0
LINE
  5
6E2
330
6D6
100
AcDbEntity
  8
DIM
100
AcDbLine
 10
0.5942785256907028
 20
0.6026545498027024
 30
0.0
 11
1.648880555957447
 21
0.6026545498027024
 31
0.0
  0
LINE
  5
6E3
330
6D6
100
AcDbEntity
  8
DIM
100
AcDbLine
 10
1.648880555957447
 20
0.6026545498027024
 30
0.0
 11
1.648880555957447
 21
0.0
 31
0.0
  0
LINE
  5
6E4
330
6D6
100
AcDbEntity
  8
DIM
100
AcDbLine
 10
1.648880555957447
 20
0.0
 30
0.0
 11
0.5942785256907028
 21
0.0
 31
0.0
  0
LINE
  5
6E5
330
6D6
100
AcDbEntity
  8
DIM
100
AcDbLine
 10
0.5942785256907028
 20
0.0
 30
0.0
 11
0.5942785256907028
 21
0.6026545498027024
 31
0.0
  0
TEXT
  5
6E6
330
6D6
100
AcDbEntity
  8
DIM
100
AcDbText
 10
0.5665795408240748
 20
-0.1493663137105598
 30
0.0
 40
0.09
  1
APPLY STICKER
 72
     1
 11
1.121579540824075
 21
-0.1493663137105598
 31
0.0
100
AcDbText
  0
TEXT
  5
6E7
330
6D6
100
AcDbEntity
  8
DIM
100
AcDbText
 10
0.5665795408240749
 20
-0.2993663137105598
 30
0.0
 40
0.09
  1
(DO NOT APPLY
 72
     1
 11
1.121579540824075
 21
-0.2993663137105598
 31
0.0
100
AcDbText
  0
TEXT
  5
6E8
330
6D6
100
AcDbEntity
  8
DIM
100
AcDbText
 10
0.5665795408240748
 20
-0.4493663137105597
 30
0.0
 40
0.09
  1
OVER EXISTING
 72
     1
 11
1.121579540824075
 21
-0.4493663137105597
 31
0.0
100
AcDbText
  0
TEXT
  5
6E9
330
6D6
100
AcDbEntity
  8
DIM
100
AcDbText
 10
0.6565795408240749
 20
-0.5991088101474411
 30
0.0
 40
0.09
  1
PART STAMP)
 72
     1
 11
1.121579540824075
 21
-0.5991088101474411
 31
0.0
100
AcDbText
  0
ENDBLK
  5
6EB
330
6D6
100
AcDbEntity
  8
0
100
AcDbBlockEnd
  0
BLOCK
  5
954
330
950
100
AcDbEntity
  8
0
100
AcDbBlockBegin
  2
UseWarning
 70
     0
 10
0.0
 20
0.0
 30
0.0
  3
UseWarning
  1

  4

  0
TEXT
  5
951
330
950
100
AcDbEntity
  8
NOTE
100
AcDbText
 10
6.102363906550261
 20
4.385581924099017
 30
0.0
 40
0.135375
  1
strongtie.com/info
 72
     4
 11
7.162801406550261
 21
4.430706924099017
 31
0.0
100
AcDbText
  0
LWPOLYLINE
  5
952
330
950
100
AcDbEntity
  8
NOTE
100
AcDbPolyline
 90
        4
 70
     1
 43
0.0
 10
6.002643771226076
 20
4.934316349387466
 10
8.321572596741454
 20
4.934316349387466
 10
8.321572596741454
 20
4.210455756597643
 10
6.002643771226076
 20
4.210455756597643
  0
TEXT
  5
953
330
950
100
AcDbEntity
  8
NOTE
100
AcDbText
 10
6.237738906550261
 20
4.649986220974017
 30
0.0
 40
0.135375
  1
Use & Warnings:
 72
     4
 11
7.162801406550261
 21
4.695111220974017
 31
0.0
100
AcDbText
  0
ENDBLK
  5
955
330
950
100
AcDbEntity
  8
0
100
AcDbBlockEnd
  0
BLOCK
  5
E1A
330
E0B
100
AcDbEntity
  8
0
100
AcDbBlockBegin
  2
Notes1port
 70
     2
 10
0.0
 20
0.0
 30
0.0
  3
Notes1port
  1

  4

  0
TEXT
  5
E0C
330
E0B
100
AcDbEntity
  8
0
100
AcDbText
 10
12.48795549854992
 20
5.448537038604606
 30
0.0
 40
0.09
  1
IS LABELED; LABEL MUST ADHERE
100
AcDbText
  0
TEXT
  5
E0D
330
E0B
100
AcDbEntity
  8
0
100
AcDbText
 10
12.48795549854992
 20
5.298537038604572
 30
0.0
 40
0.09
  1
& UPC BARCODE BE SCANNABLE.
100
AcDbText
  0
TEXT
  5
E0E
330
E0B
100
AcDbEntity
  8
0
100
AcDbText
 10
12.31468889604537
 20
5.598537038604583
 30
0.0
 40
0.09
  1
6. OIL CHECK REQUIRED IF PART
100
AcDbText
  0
ATTDEF
  5
E0F
330
E0B
100
AcDbEntity
  8
ATTRIBUTES
100
AcDbText
 10
13.84277148858416
 20
5.734322869453116
 30
0.0
 40
0.09
  1
1T
100
AcDbAttributeDefinition
  3
Enter bend radius.
  2
BEND
 70
     0
  0
TEXT
  5
E10
330
E0B
100
AcDbEntity
  8
0
100
AcDbText
 10
12.31446373333836
 20
6.218344522478027
 30
0.0
 40
0.09
  1
2. LINEAR DIMENSIONS: %%P
100
AcDbText
  0
TEXT
  5
E11
330
E0B
100
AcDbEntity
  8
0
100
AcDbText
 10
12.31446373333836
 20
6.66295340450737
 30
0.0
 40
0.09
  1
UNLESS OTHERWISE NOTED
  7
COMPLEX
100
AcDbText
  0
TEXT
  5
E12
330
E0B
100
AcDbEntity
  8
0
100
AcDbText
 10
12.34414120943757
 20
6.368344522478061
 30
0.0
 40
0.09
  1
1. NO BURRS GREATER THAN 0.015
100
AcDbText
  0
TEXT
  5
E13
330
E0B
100
AcDbEntity
  8
0
100
AcDbText
 10
12.31446373333836
 20
6.061207977746371
 30
0.0
 40
0.09
  1
3. HOLE/SLOT DIMENSIONS: %%P
100
AcDbText
  0
TEXT
  5
E14
330
E0B
100
AcDbEntity
  8
0
100
AcDbText
 10
12.31446373333836
 20
5.146165328208419
 30
0.0
 40
0.09
  1
7. MATERIAL:
100
AcDbText
  0
ATTDEF
  5
E15
330
E0B
100
AcDbEntity
  8
ATTRIBUTES
100
AcDbText
 10
13.2811895133766
 20
5.147107972948085
 30
0.0
 40
0.09
  1
(MAT'L. SPEC.)
100
AcDbAttributeDefinition
  3
Enter material specification.
  2
GAUGE
 70
     0
  0
TEXT
  5
E16
330
E0B
100
AcDbEntity
  8
0
100
AcDbText
 10
12.31446373333836
 20
5.734581137741579
 30
0.0
 40
0.09
  1
5. ALL BEND RADII:
100
AcDbText
  0
TEXT
  5
E17
330
E0B
100
AcDbEntity
  8
0
100
AcDbText
 10
12.31446373333836
 20
5.888759564651458
 30
0.0
 40
0.09
  1
4. ALL ANGLES: %%P1%%D
100
AcDbText
  0
ATTDEF
  5
E18
330
E0B
100
AcDbEntity
  8
ATTRIBUTES
100
AcDbText
 10
14.49784889778778
 20
6.060949709457908
 30
0.0
 40
0.09
  1
0.004
100
AcDbAttributeDefinition
  3
Enter DECIMAL tolerance.
  2
0.004
 70
     0
  0
ATTDEF
  5
E19
330
E0B
100
AcDbEntity
  8
ATTRIBUTES
100
AcDbText
 10
14.20568806010567
 20
6.218086254189565
 30
0.0
 40
0.09
  1
1/16
100
AcDbAttributeDefinition
  3
Enter fractional tolerance.
  2
1/16
 70
     0
  0
ENDBLK
  5
E1B
330
E0B
100
AcDbEntity
  8
0
100
AcDbBlockEnd
  0
BLOCK
  5
E3C
330
E39
100
AcDbEntity
  8
0
100
AcDbBlockBegin
  2
Copyright tag
 70
     0
 10
0.0
 20
0.0
 30
0.0
  3
Copyright tag
  1

  4

  0
CIRCLE
  5
E3D
330
E39
100
AcDbEntity
  8
0
100
AcDbCircle
 10
0.0000737601064827
 20
0.0000852766280307
 30
0.0
 40
0.0556875
  0
MTEXT
  5
E3E
330
E39
100
AcDbEntity
  8
0
100
AcDbMText
 10
0.1100467221198371
 20
0.0482410781232456
 30
0.0
 40
0.09
 41
4.218763062488314
 71
     1
 72
     5
  1
{\C7;2007 Simpson Strong-Tie Co., Inc.}
 73
     1
 44
1.0
  0
MTEXT
  5
E3F
330
E39
100
AcDbEntity
  8
0
100
AcDbMText
 10
-0.0344360417428936
 20
0.039853740393888
 30
0.0
 40
0.08316
 41
0.3046914287922317
 71
     1
 72
     5
  1
{\Fcomplex.shx|c0;C}
  7
HELVETICA
 73
     1
 44
1.0
  0
ENDBLK
  5
E40
330
E39
100
AcDbEntity
  8
0
100
AcDbBlockEnd
  0
BLOCK
  5
EA1
330
E9F
100
AcDbEntity
  8
0
100
AcDbBlockBegin
  2
Notes2port
 70
     2
 10
0.0
 20
0.0
 30
0.0
  3
Notes2port
  1

  4

  0
ATTDEF
  5
EA2
330
E9F
100
AcDbEntity
  8
ATTRIBUTES
100
AcDbText
 10
1.851967804424362
 20
-0.5092664749352593
 30
0.0
 40
0.09
  1
1/16
100
AcDbAttributeDefinition
  3
Enter fractional tolerance.
  2
1/16
 70
     0
  0
TEXT
  5
EA3
330
E9F
100
AcDbEntity
  8
0
100
AcDbText
 10
0.0090907579401573
 20
-0.359008206646763
 30
0.0
 40
0.09
  1
1. NO BURRS GREATER THAN 0.015
100
AcDbText
  0
TEXT
  5
EA4
330
E9F
100
AcDbEntity
  8
0
100
AcDbText
 10
-0.020586718159052
 20
-0.0643993246174546
 30
0.0
 40
0.09
  1
UNLESS OTHERWISE NOTED
  7
COMPLEX
100
AcDbText
  0
TEXT
  5
EA5
330
E9F
100
AcDbEntity
  8
0
100
AcDbText
 10
-0.020586718159052
 20
-0.5090082066467971
 30
0.0
 40
0.09
  1
2. LINEAR DIMENSIONS: %%P
100
AcDbText
  0
TEXT
  5
EA6
330
E9F
100
AcDbEntity
  8
0
100
AcDbText
 10
-0.020586718159052
 20
-0.813304962581185
 30
0.0
 40
0.09
  1
4. ALL ANGLES: %%P1%%D
100
AcDbText
  0
ATTDEF
  5
EA7
330
E9F
100
AcDbEntity
  8
ATTRIBUTES
100
AcDbText
 10
0.9461390618791938
 20
-1.413893485889616
 30
0.0
 40
0.09
  1
(MAT'L. SPEC.)
100
AcDbAttributeDefinition
  3
Enter material specification.
  2
GAUGE
 70
     0
  0
TEXT
  5
EA8
330
E9F
100
AcDbEntity
  8
0
100
AcDbText
 10
-0.020586718159052
 20
-1.414836130629283
 30
0.0
 40
0.09
  1
6. MATERIAL:
100
AcDbText
  0
TEXT
  5
EA9
330
E9F
100
AcDbEntity
  8
0
100
AcDbText
 10
-0.0203615554520411
 20
-0.9643829060170219
 30
0.0
 40
0.09
  1
5. OIL CHECK REQUIRED IF PART
100
AcDbText
  0
TEXT
  5
EAA
330
E9F
100
AcDbEntity
  8
0
100
AcDbText
 10
0.1714664410926616
 20
-1.276746594292831
 30
0.0
 40
0.09
  1
& UPC BARCODE BE SCANNABLE.
100
AcDbText
  0
TEXT
  5
EAB
330
E9F
100
AcDbEntity
  8
0
100
AcDbText
 10
0.1714664410926616
 20
-1.126746594292797
 30
0.0
 40
0.09
  1
IS LABELED; LABEL MUST ADHERE
100
AcDbText
  0
TEXT
  5
EAC
330
E9F
100
AcDbEntity
  8
0
100
AcDbText
 10
-0.020586718159052
 20
-0.6633049625812078
 30
0.0
 40
0.09
  1
3. HOLE/SLOT DIMENSIONS: %%P
100
AcDbText
  0
ATTDEF
  5
EAD
330
E9F
100
AcDbEntity
  8
ATTRIBUTES
100
AcDbText
 10
2.160919251507607
 20
-0.66356323086967
 30
0.0
 40
0.09
  1
0.004
100
AcDbAttributeDefinition
  3
Enter decimal tolerance.
  2
0.004
 70
     0
  0
ENDBLK
  5
EAE
330
E9F
100
AcDbEntity
  8
0
100
AcDbBlockEnd
  0
BLOCK
  5
EB2
330
EAF
100
AcDbEntity
  8
0
100
AcDbBlockBegin
  2
Copyright tag 08
 70
     0
 10
0.0
 20
0.0
 30
0.0
  3
Copyright tag 08
  1

  4

  0
CIRCLE
  5
EB3
330
EAF
100
AcDbEntity
  8
0
100
AcDbCircle
 10
0.0000737601064827
 20
0.0000852766280307
 30
0.0
 40
0.041765625
  0
MTEXT
  5
EB4
330
EAF
100
AcDbEntity
  8
0
100
AcDbMText
 10
0.0825534816164985
 20
0.0362021277494419
 30
0.0
 40
0.0675
 41
2.039
 71
     1
 72
     5
  1
{\C7;2008 Simpson Strong-Tie Co. Inc.}
 73
     1
 44
1.0
  0
MTEXT
  5
EB5
330
EAF
100
AcDbEntity
  8
0
100
AcDbMText
 10
-0.0258085912805495
 20
0.0299116244524237
 30
0.0
 40
0.06237
 41
0.2285185715941737
 71
     1
 72
     5
  1
{\Fcomplex.shx|c0;C}
  7
HELVETICA
 73
     1
 44
1.0
  0
ENDBLK
  5
EB6
330
EAF
100
AcDbEntity
  8
0
100
AcDbBlockEnd
  0
BLOCK
  5
F0A
330
F07
100
AcDbEntity
  8
0
100
AcDbBlockBegin
  2
Copyright tag 07-08
 70
     0
 10
0.0
 20
0.0
 30
0.0
  3
Copyright tag 07-08
  1

  4

  0
CIRCLE
  5
F0B
330
F07
100
AcDbEntity
  8
0
100
AcDbCircle
 10
0.0000737601064827
 20
0.0000852766280307
 30
0.0
 40
0.041765625
  0
MTEXT
  5
F0C
330
F07
100
AcDbEntity
  8
0
100
AcDbMText
 10
0.0825534816164985
 20
0.0362021277494419
 30
0.0
 40
0.0675
 41
2.264
 71
     1
 72
     5
  1
{\C7;2007-2008 Simpson Strong-Tie Co. Inc.}
 73
     1
 44
1.0
  0
MTEXT
  5
F0D
330
F07
100
AcDbEntity
  8
0
100
AcDbMText
 10
-0.0258085912805495
 20
0.0299116244524237
 30
0.0
 40
0.06237
 41
0.2285185715941737
 71
     1
 72
     5
  1
{\Fcomplex.shx|c0;C}
  7
HELVETICA
 73
     1
 44
1.0
  0
ENDBLK
  5
F0E
330
F07
100
AcDbEntity
  8
0
100
AcDbBlockEnd
  0
ENDSEC
  0
SECTION
  2
ENTITIES
  0
LINE
  5
4B2
330
1E
100
AcDbEntity
  8
DASHED
100
AcDbLine
 10
-0.838774689217523
 20
1.903623805258217
 30
0.0
 11
0.973725310782477
 21
1.903623805258217
 31
0.0
  0
LINE
  5
4B3
330
1E
100
AcDbEntity
  8
0
100
AcDbLine
 10
-1.479024689217525
 20
2.667442209144756
 30
0.0
 11
1.613975310782479
 21
2.667442209144756
 31
0.0
  0
LINE
  5
4B5
330
1E
100
AcDbEntity
  8
0
100
AcDbLine
 10
-1.677024689217525
 20
2.469442209144756
 30
0.0
 11
-1.677024689217525
 21
1.653768423805911
 31
0.0
  0
LINE
  5
4B6
330
1E
100
AcDbEntity
  8
0
100
AcDbLine
 10
-1.551247709516374
 20
2.653800109270875
 30
0.0
 11
-1.493368881940285
 21
1.637571827879736
 31
0.0
  0
LINE
  5
4B7
330
1E
100
AcDbEntity
  8
DASHED
100
AcDbLine
 10
-0.838774689217523
 20
1.903623805258217
 30
0.0
 11
-0.838774689217523
 21
1.736571827879738
 31
0.0
  0
LINE
  5
4B8
330
1E
100
AcDbEntity
  8
DASHED
100
AcDbLine
 10
-0.276274689217523
 20
1.903623805258217
 30
0.0
 11
-0.276274689217523
 21
1.736571827879738
 31
0.0
  0
ARC
  5
4B9
330
1E
100
AcDbEntity
  8
0
100
AcDbCircle
 10
-1.586303060665948
 20
2.644949427768271
 30
0.0
 40
0.1422975532330006
100
AcDbArc
 50
234.9492034304758
 51
287.7071051057122
  0
LINE
  5
4BB
330
1E
100
AcDbEntity
  8
0
100
AcDbLine
 10
1.811975310782479
 20
2.469442209144756
 30
0.0
 11
1.811975310782479
 21
1.660412287158605
 31
0.0
  0
LINE
  5
4BC
330
1E
100
AcDbEntity
  8
0
100
AcDbLine
 10
1.686106867973179
 20
2.653835914181681
 30
0.0
 11
1.621242241673786
 21
1.637571827879736
 31
0.0
  0
LINE
  5
4BD
330
1E
100
AcDbEntity
  8
DASHED
100
AcDbLine
 10
0.411225310782477
 20
1.903623805258217
 30
0.0
 11
0.411225310782477
 21
1.736571827879738
 31
0.0
  0
LINE
  5
4BE
330
1E
100
AcDbEntity
  8
DASHED
100
AcDbLine
 10
0.973725310782477
 20
1.903623805258217
 30
0.0
 11
0.973725310782477
 21
1.731748805258217
 31
0.0
  0
ARC
  5
4BF
330
1E
100
AcDbEntity
  8
0
100
AcDbCircle
 10
1.714982849663613
 20
2.644949427768271
 30
0.0
 40
0.1422975532330006
100
AcDbArc
 50
254.4310766266246
 51
307.5832024775403
  0
LINE
  5
5EB
330
1E
100
AcDbEntity
  8
DASHED
100
AcDbLine
 10
-0.9607312322036101
 20
2.049143179661545
 30
0.0
 11
1.087868767796547
 21
2.049143179661545
 31
0.0
  0
LINE
  5
5EC
330
1E
100
AcDbEntity
  8
0
100
AcDbLine
 10
-1.686850862542769
 20
1.543821827879736
 30
0.0
 11
1.247492246381192
 21
1.543821827879736
 31
0.0
  0
LINE
  5
5ED
330
1E
100
AcDbEntity
  8
0
100
AcDbLine
 10
-1.811850862542769
 20
8.637571827879739
 30
0.0
 11
-1.811850862542769
 21
1.668821827879736
 31
0.0
  0
LINE
  5
5EE
330
1E
100
AcDbEntity
  8
0
100
AcDbLine
 10
-1.718100862542769
 20
8.637571827879739
 30
0.0
 11
-1.718100862542769
 21
1.731321827879736
 31
0.0
  0
ARC
  5
5F0
330
1E
100
AcDbEntity
  8
0
100
AcDbCircle
 10
-1.624350862542769
 20
1.731321827879736
 30
0.0
 40
0.09375
100
AcDbArc
 50
180.0
 51
270.0
  0
ARC
  5
5F4
330
1E
100
AcDbEntity
  8
0
100
AcDbCircle
 10
-1.686850862542769
 20
1.668821827879736
 30
0.0
 40
0.125
100
AcDbArc
 50
180.0
 51
270.0
  0
LINE
  5
5F5
330
1E
100
AcDbEntity
  8
0
100
AcDbLine
 10
-1.811850862542769
 20
1.825071827879736
 30
0.0
 11
-1.718100862542769
 21
1.825071827879736
 31
0.0
  0
LINE
  5
5F8
330
1E
100
AcDbEntity
  8
0
100
AcDbLine
 10
-1.624350862542769
 20
1.637571827879736
 30
0.0
 11
1.750649137457231
 21
1.637571827879738
 31
0.0
  0
LINE
  5
5F9
330
1E
100
AcDbEntity
  8
0
100
AcDbLine
 10
-1.618780198512329
 20
1.543821827879736
 30
0.0
 11
-1.618780198512329
 21
1.644151611800265
 31
0.0
  0
LINE
  5
5FA
330
1E
100
AcDbEntity
  8
0
100
AcDbLine
 10
-1.412131232203453
 20
1.543821827879736
 30
0.0
 11
-1.412131232203453
 21
1.637571827879736
 31
0.0
  0
LINE
  5
5FB
330
1E
100
AcDbEntity
  8
DASHED
100
AcDbLine
 10
-1.461953971531667
 20
1.637571827879736
 30
0.0
 11
-1.461953971531667
 21
1.642821827879736
 31
0.0
  0
LINE
  5
5FC
330
1E
100
AcDbEntity
  8
DASHED
100
AcDbLine
 10
-0.9607312322036101
 20
2.049143179661545
 30
0.0
 11
-1.092931232203608
 21
1.916943179661548
 31
0.0
  0
LINE
  5
5FD
330
1E
100
AcDbEntity
  8
0
100
AcDbLine
 10
-1.27665285972153
 20
1.543821827879736
 30
0.0
 11
-1.27665285972153
 21
1.637571827879736
 31
0.0
  0
LINE
  5
5FE
330
1E
100
AcDbEntity
  8
0
100
AcDbLine
 10
-1.092931232203608
 20
1.543821827879736
 30
0.0
 11
-1.092931232203608
 21
1.637571827879736
 31
0.0
  0
LINE
  5
603
330
1E
100
AcDbEntity
  8
0
100
AcDbLine
 10
-1.718100862542769
 20
8.372331828468816
 30
0.0
 11
-1.811850862542769
 21
8.372331828468816
 31
0.0
  0
LINE
  5
604
330
1E
100
AcDbEntity
  8
0
100
AcDbLine
 10
-1.718100862542769
 20
8.637571827879739
 30
0.0
 11
-1.811850862542769
 21
8.637571827879739
 31
0.0
  0
LINE
  5
608
330
1E
100
AcDbEntity
  8
0
100
AcDbLine
 10
1.938149137457231
 20
1.668821827879736
 30
0.0
 11
1.938149137457231
 21
8.637571827879739
 31
0.0
  0
LINE
  5
609
330
1E
100
AcDbEntity
  8
0
100
AcDbLine
 10
1.844399137457231
 20
1.731321827879736
 30
0.0
 11
1.844399137457231
 21
8.637571827879739
 31
0.0
  0
LINE
  5
60B
330
1E
100
AcDbEntity
  8
0
100
AcDbLine
 10
1.247492246381192
 20
1.543821827879736
 30
0.0
 11
1.813149137457231
 21
1.543821827879736
 31
0.0
  0
LINE
  5
610
330
1E
100
AcDbEntity
  8
DASHED
100
AcDbLine
 10
1.087868767796547
 20
2.049143179661552
 30
0.0
 11
1.220068767796551
 21
1.916943179661555
 31
0.0
  0
LINE
  5
611
330
1E
100
AcDbEntity
  8
0
100
AcDbLine
 10
1.220068767796551
 20
1.543821827879736
 30
0.0
 11
1.220068767796551
 21
1.637571827879736
 31
0.0
  0
LINE
  5
612
330
1E
100
AcDbEntity
  8
0
100
AcDbLine
 10
1.405183930045951
 20
1.543821827879736
 30
0.0
 11
1.405183930045951
 21
1.637571827879738
 31
0.0
  0
ARC
  5
613
330
1E
100
AcDbEntity
  8
0
100
AcDbCircle
 10
1.813149137457231
 20
1.668821827879736
 30
0.0
 40
0.125
100
AcDbArc
 50
270.0
 51
0.0
  0
ARC
  5
614
330
1E
100
AcDbEntity
  8
0
100
AcDbCircle
 10
1.750649137457231
 20
1.731321827879736
 30
0.0
 40
0.09375
100
AcDbArc
 50
270.0
 51
0.0
  0
LINE
  5
615
330
1E
100
AcDbEntity
  8
0
100
AcDbLine
 10
1.537620382511634
 20
1.543821827879736
 30
0.0
 11
1.537620382511634
 21
1.637571827879738
 31
0.0
  0
LINE
  5
616
330
1E
100
AcDbEntity
  8
DASHED
100
AcDbLine
 10
1.581765801301977
 20
1.637571827879736
 30
0.0
 11
1.581765801301977
 21
1.642821827879738
 31
0.0
  0
LINE
  5
617
330
1E
100
AcDbEntity
  8
0
100
AcDbLine
 10
1.758347672558003
 20
1.543821827879736
 30
0.0
 11
1.758347672558003
 21
1.644151611800265
 31
0.0
  0
LINE
  5
618
330
1E
100
AcDbEntity
  8
0
100
AcDbLine
 10
1.844399137457231
 20
1.825071827879736
 30
0.0
 11
1.938149137457231
 21
1.825071827879736
 31
0.0
  0
LINE
  5
61A
330
1E
100
AcDbEntity
  8
0
100
AcDbLine
 10
1.938149137457231
 20
8.372331828468816
 30
0.0
 11
1.844399137457231
 21
8.372331828468816
 31
0.0
  0
LINE
  5
61B
330
1E
100
AcDbEntity
  8
0
100
AcDbLine
 10
1.938149137457231
 20
8.637571827879739
 30
0.0
 11
1.844399137457231
 21
8.637571827879739
 31
0.0
  0
LINE
  5
68C
330
1E
100
AcDbEntity
  8
DASHED
100
AcDbLine
 10
1.220068767796551
 20
1.637571827879736
 30
0.0
 11
1.220068767796551
 21
1.916943179661555
 31
0.0
  0
LINE
  5
68D
330
1E
100
AcDbEntity
  8
DASHED
100
AcDbLine
 10
-1.092931232203608
 20
1.637571827879736
 30
0.0
 11
-1.092931232203608
 21
1.916943179661548
 31
0.0
  0
LINE
  5
68E
330
1E
100
AcDbEntity
  8
DASHED
100
AcDbLine
 10
-1.368203971531667
 20
1.736571827879736
 30
0.0
 11
1.488015801301977
 21
1.736571827879738
 31
0.0
  0
ARC
  5
68F
330
1E
100
AcDbEntity
  8
DASHED
100
AcDbCircle
 10
-1.368203971531667
 20
1.642821827879736
 30
0.0
 40
0.09375
100
AcDbArc
 50
90.00000000000003
 51
180.0
  0
ARC
  5
690
330
1E
100
AcDbEntity
  8
DASHED
100
AcDbCircle
 10
1.488015801301977
 20
1.642821827879738
 30
0.0
 40
0.09375
100
AcDbArc
 50
0.0
 51
90.0
  0
LINE
  5
691
330
1E
100
AcDbEntity
  8
DASHED
100
AcDbLine
 10
-1.479024689217525
 20
2.568442209144756
 30
0.0
 11
1.613975310782479
 21
2.568442209144756
 31
0.0
  0
LINE
  5
692
330
1E
100
AcDbEntity
  8
DASHED
100
AcDbLine
 10
1.712975310782479
 20
2.469442209144756
 30
0.0
 11
1.712975310782479
 21
1.660412287158605
 31
0.0
  0
LINE
  5
693
330
1E
100
AcDbEntity
  8
DASHED
100
AcDbLine
 10
-1.578024689217525
 20
2.469442209144756
 30
0.0
 11
-1.578024689217525
 21
1.653768423805911
 31
0.0
  0
ARC
  5
694
330
1E
100
AcDbEntity
  8
DASHED
100
AcDbCircle
 10
-1.479024689217525
 20
2.469442209144756
 30
0.0
 40
0.099
100
AcDbArc
 50
90.0
 51
131.7554324348386
  0
ARC
  5
695
330
1E
100
AcDbEntity
  8
0
100
AcDbCircle
 10
-1.479024689217525
 20
2.469442209144756
 30
0.0
 40
0.099
100
AcDbArc
 50
131.7554324348386
 51
159.9585246280428
  0
ARC
  5
696
330
1E
100
AcDbEntity
  8
DASHED
100
AcDbCircle
 10
-1.479024689217525
 20
2.469442209144756
 30
0.0
 40
0.099
100
AcDbArc
 50
159.9585246280428
 51
180.0
  0
ARC
  5
697
330
1E
100
AcDbEntity
  8
DASHED
100
AcDbCircle
 10
1.613975310782479
 20
2.469442209144756
 30
0.0
 40
0.099
100
AcDbArc
 50
0.0
 51
19.73216009657688
  0
ARC
  5
698
330
1E
100
AcDbEntity
  8
0
100
AcDbCircle
 10
1.613975310782479
 20
2.469442209144756
 30
0.0
 40
0.198
100
AcDbArc
 50
0.0
 51
90.0
  0
ARC
  5
699
330
1E
100
AcDbEntity
  8
DASHED
100
AcDbCircle
 10
1.613975310782479
 20
2.469442209144756
 30
0.0
 40
0.099
100
AcDbArc
 50
48.86810517093134
 51
90.0
  0
ARC
  5
69A
330
1E
100
AcDbEntity
  8
0
100
AcDbCircle
 10
1.613975310782479
 20
2.469442209144756
 30
0.0
 40
0.099
100
AcDbArc
 50
19.73216009657688
 51
48.86810517093134
  0
ARC
  5
69B
330
1E
100
AcDbEntity
  8
0
100
AcDbCircle
 10
-1.479024689217525
 20
2.469442209144756
 30
0.0
 40
0.198
100
AcDbArc
 50
90.0
 51
180.0
  0
ENDSEC
  0
SECTION
  2
OBJECTS
  0
DICTIONARY
  5
C
330
0
100
AcDbDictionary
281
     1
  3
ACAD_COLOR
350
E33
  3
ACAD_GROUP
350
D
  3
ACAD_LAYOUT
350
19
  3
ACAD_MATERIAL
350
E32
  3
ACAD_MLINESTYLE
350
16
  3
ACAD_PLOTSETTINGS
350
18
  3
ACAD_PLOTSTYLENAME
350
E
  3
ACAD_TABLESTYLE
350
E34
  3
ACDBHEADERROUNDTRIPXREC
350
FA5
  3
AcDbVariableDictionary
350
E97
  0
DICTIONARY
  5
E43
330
2
100
AcDbDictionary
280
     1
281
     1
  3
ACAD_LAYERFILTERS
360
F46
  3
ACAD_LAYERSTATES
360
E44
  3
ACLYDICTIONARY
360
F45
  0
DICTIONARY
  5
E3A
330
E39
100
AcDbDictionary
280
     1
281
     1
  3
ACAD_SORTENTS
360
E3B
  0
DICTIONARY
  5
EA0
330
E9F
100
AcDbDictionary
280
     1
281
     1
  0
DICTIONARY
  5
EB0
330
EAF
100
AcDbDictionary
280
     1
281
     1
  3
ACAD_SORTENTS
360
EB1
  0
DICTIONARY
  5
F08
330
F07
100
AcDbDictionary
280
     1
281
     1
  3
ACAD_SORTENTS
360
F09
  0
DICTIONARY
  5
E33
102
{ACAD_REACTORS
330
C
102
}
330
C
100
AcDbDictionary
281
     1
  0
DICTIONARY
  5
D
102
{ACAD_REACTORS
330
C
102
}
330
C
100
AcDbDictionary
281
     1
  0
DICTIONARY
  5
19
102
{ACAD_REACTORS
330
C
102
}
330
C
100
AcDbDictionary
281
     1
  3
Layout1
350
1D
  3
Model
350
21
  0
DICTIONARY
  5
E32
102
{ACAD_REACTORS
330
C
102
}
330
C
100
AcDbDictionary
281
     1
  0
DICTIONARY
  5
16
102
{ACAD_REACTORS
330
C
102
}
330
C
100
AcDbDictionary
281
     1
  3
Standard
350
17
  0
DICTIONARY
  5
18
102
{ACAD_REACTORS
330
C
102
}
330
C
100
AcDbDictionary
281
     1
  0
ACDBDICTIONARYWDFLT
  5
E
102
{ACAD_REACTORS
330
C
102
}
330
C
100
AcDbDictionary
281
     1
  3
Normal
350
F
100
AcDbDictionaryWithDefault
340
F
  0
DICTIONARY
  5
E34
102
{ACAD_REACTORS
330
C
102
}
330
C
100
AcDbDictionary
281
     1
  3
Standard
350
E35
  0
DICTIONARY
  5
FA5
102
{ACAD_REACTORS
330
C
102
}
330
C
100
AcDbDictionary
281
     1
  3
COLORDICT
350
FA6
  3
MATERIALDICT
350
FA7
  0
DICTIONARY
  5
E97
102
{ACAD_REACTORS
330
C
102
}
330
C
100
AcDbDictionary
281
     1
  3
CTABLESTYLE
350
E98
  0
DICTIONARY
  5
F46
102
{ACAD_REACTORS
330
E43
102
}
330
E43
100
AcDbDictionary
281
     1
  0
DICTIONARY
  5
E44
102
{ACAD_REACTORS
330
E43
102
}
330
E43
100
AcDbDictionary
281
     1
  0
DICTIONARY
  5
F45
102
{ACAD_REACTORS
330
E43
102
}
330
E43
100
AcDbDictionary
281
     1
1001
ACAD
1000
<All
  0
SORTENTSTABLE
  5
E3B
102
{ACAD_REACTORS
330
E3A
102
}
330
E3A
100
AcDbSortentsTable
330
E39
  0
SORTENTSTABLE
  5
EB1
102
{ACAD_REACTORS
330
EB0
102
}
330
EB0
100
AcDbSortentsTable
330
EAF
  0
SORTENTSTABLE
  5
F09
102
{ACAD_REACTORS
330
F08
102
}
330
F08
100
AcDbSortentsTable
330
F07
  0
LAYOUT
  5
1D
102
{ACAD_REACTORS
330
19
102
}
102
{ACAD_XDICTIONARY
360
FA8
102
}
330
19
100
AcDbPlotSettings
  1

  2
HP LaserJet 2100 Series PS
  4

  6

 40
0.0
 41
0.0
 42
0.0
 43
0.0
 44
0.0
 45
0.0
 46
0.0
 47
0.0
 48
0.0
 49
0.0
140
0.0
141
0.0
142
1.0
143
1.0
 70
   688
 72
     0
 73
     0
 74
     5
  7
monochrome.ctb
 75
    16
147
1.0
148
0.0
149
0.0
100
AcDbLayout
  1
Layout1
 70
     0
 71
     1
 10
0.0
 20
0.0
 11
12.0
 21
9.0
 12
0.0
 22
0.0
 32
0.0
 14
1.000000000000000E+20
 24
1.000000000000000E+20
 34
1.000000000000000E+20
 15
-1.000000000000000E+20
 25
-1.000000000000000E+20
 35
-1.000000000000000E+20
146
0.0
 13
0.0
 23
0.0
 33
0.0
 16
1.0
 26
0.0
 36
0.0
 17
0.0
 27
1.0
 37
0.0
 76
     0
330
1A
  0
LAYOUT
  5
21
102
{ACAD_REACTORS
330
19
102
}
102
{ACAD_XDICTIONARY
360
FAA
102
}
330
19
100
AcDbPlotSettings
  1

  2
HP LaserJet 2100 Series PS
  4
Letter
  6

 40
5.365749835968018
 41
5.408073902130127
 42
5.132904052734375
 43
5.090576171875
 44
215.8999938964844
 45
279.3999938964844
 46
0.0
 47
0.0
 48
0.0
 49
0.0
140
0.0
141
0.0
142
1.0
143
2.479533908317576
 70
 11952
 72
     0
 73
     2
 74
     2
  7
monochrome.ctb
 75
     0
147
0.4033016030333396
148
0.0
149
0.0
100
AcDbLayout
  1
Model
 70
     1
 71
     0
 10
0.0
 20
0.0
 11
12.0
 21
9.0
 12
0.0
 22
0.0
 32
0.0
 14
0.0
 24
0.0
 34
0.0
 15
0.0
 25
0.0
 35
0.0
146
0.0
 13
0.0
 23
0.0
 33
0.0
 16
1.0
 26
0.0
 36
0.0
 17
0.0
 27
1.0
 37
0.0
 76
     0
330
1E
1001
ACAD_PSEXT
1000
HP LaserJet 2100 Series PS
1000
HP LaserJet 2100 Series PS
1000
LPT1:
1000

1070
     0
  0
MLINESTYLE
  5
17
102
{ACAD_REACTORS
330
16
102
}
330
16
100
AcDbMlineStyle
  2
STANDARD
 70
     0
  3

 62
   256
 51
90.0
 52
90.0
 71
     2
 49
0.5
 62
   256
  6
BYLAYER
 49
-0.5
 62
   256
  6
BYLAYER
  0
ACDBPLACEHOLDER
  5
F
102
{ACAD_REACTORS
330
E
102
}
330
E
  0
ACAD_PROXY_OBJECT
  5
E35
102
{ACAD_REACTORS
330
E34
102
}
330
E34
100
AcDbProxyObject
 90
      499
 91
      531
 95
   983063
 70
     0
 93
     1841
310
4214DD185B99185C9928B81E85EB51B8AE3F2E07A17AD46E2B8FC02B5E8DC0F42B1CFD028000000C1008070000C3001FDFF8000000C1003FBFF000000182007F7FE00000030400FEFFC00000060801FDFF8000000C1003FBFF00000018200000000000000681FA0B0000001820100E000186003FBFF000000182007F7FE000
310
00030400FEFFC00000060801FDFF8000000C1003FBFF000000182007F7FE000000304000AD7A3703D0AC73F4160000003040201C00030C007F7FE00000030400FEFFC00000060801FDFF8000000C1003FBFF000000182007F7FE00000030400FEFFC000000608000
340
11
340
11
340
11
 94
        0
  0
XRECORD
  5
FA6
102
{ACAD_REACTORS
330
FA5
102
}
330
FA5
100
AcDbXrecord
340
E33
  0
XRECORD
  5
FA7
102
{ACAD_REACTORS
330
FA5
102
}
330
FA5
100
AcDbXrecord
340
E32
  0
DICTIONARYVAR
  5
E98
102
{ACAD_REACTORS
330
E97
102
}
330
E97
100
DictionaryVariables
280
     0
  1
STANDARD
  0
DICTIONARY
  5
FA8
330
1D
100
AcDbDictionary
280
     1
281
     1
  3
ACAD_XREC_ROUNDTRIP
360
FA9
  0
DICTIONARY
  5
FAA
330
21
100
AcDbDictionary
280
     1
281
     1
  3
ACAD_XREC_ROUNDTRIP
360
FAB
  0
XRECORD
  5
FA9
102
{ACAD_REACTORS
330
FA8
102
}
330
FA8
100
AcDbXrecord
102
SHADEPLOT
 70
     0
102
SHADEPLOTRESLEVEL
 70
     2
102
SHADEPLOTCUSTOMDPI
 70
   300
  0
XRECORD
  5
FAB
102
{ACAD_REACTORS
330
FAA
102
}
330
FAA
100
AcDbXrecord
102
SHADEPLOT
 70
     0
102
SHADEPLOTRESLEVEL
 70
     2
102
SHADEPLOTCUSTOMDPI
 70
   300
  0
ENDSEC
  0
EOF
