  0
SECTION
  2
HEADER
  9
$ACADVER
  1
AC1015
  9
$ACADMAINTVER
 70
     6
  9
$DWGCODEPAGE
  3
ANSI_1252
  9
$INSBASE
 10
0.0
 20
0.0
 30
0.0
  9
$EXTMIN
 10
-9.79181963247283
 20
-6.508613608111901
 30
0.0
  9
$EXTMAX
 10
10.11601492841308
 20
16.37685224443033
 30
0.0
  9
$LIMMIN
 10
0.0
 20
0.0
  9
$LIMMAX
 10
20.0
 20
26.25
  9
$ORTHOMODE
 70
     1
  9
$REGENMODE
 70
     1
  9
$FILLMODE
 70
     1
  9
$QTEXTMODE
 70
     0
  9
$MIRRTEXT
 70
     0
  9
$LTSCALE
 40
0.4
  9
$ATTMODE
 70
     1
  9
$TEXTSIZE
 40
0.225
  9
$TRACEWID
 40
0.05
  9
$TEXTSTYLE
  7
STANDARD
  9
$CLAYER
  8
0
  9
$CELTYPE
  6
ByLayer
  9
$CECOLOR
 62
   256
  9
$CELTSCALE
 40
1.0
  9
$DISPSILH
 70
     0
  9
$DIMSCALE
 40
2.5
  9
$DIMASZ
 40
0.125
  9
$DIMEXO
 40
0.062
  9
$DIMDLI
 40
0.375
  9
$DIMRND
 40
0.0
  9
$DIMDLE
 40
0.0
  9
$DIMEXE
 40
0.08
  9
$DIMTP
 40
0.0
  9
$DIMTM
 40
0.0
  9
$DIMTXT
 40
0.09
  9
$DIMCEN
 40
-0.03125
  9
$DIMTSZ
 40
0.0
  9
$DIMTOL
 70
     0
  9
$DIMLIM
 70
     0
  9
$DIMTIH
 70
     1
  9
$DIMTOH
 70
     1
  9
$DIMSE1
 70
     0
  9
$DIMSE2
 70
     0
  9
$DIMTAD
 70
     0
  9
$DIMZIN
 70
     0
  9
$DIMBLK
  1

  9
$DIMASO
 70
     0
  9
$DIMSHO
 70
     0
  9
$DIMPOST
  1

  9
$DIMAPOST
  1

  9
$DIMALT
 70
     0
  9
$DIMALTD
 70
     2
  9
$DIMALTF
 40
25.4
  9
$DIMLFAC
 40
1.0
  9
$DIMTOFL
 70
     0
  9
$DIMTVP
 40
0.0
  9
$DIMTIX
 70
     0
  9
$DIMSOXD
 70
     0
  9
$DIMSAH
 70
     0
  9
$DIMBLK1
  1

  9
$DIMBLK2
  1

  9
$DIMSTYLE
  2
Standard
  9
$DIMCLRD
 70
     0
  9
$DIMCLRE
 70
     0
  9
$DIMCLRT
 70
     0
  9
$DIMTFAC
 40
1.0
  9
$DIMGAP
 40
0.09
  9
$DIMJUST
 70
     0
  9
$DIMSD1
 70
     0
  9
$DIMSD2
 70
     0
  9
$DIMTOLJ
 70
     1
  9
$DIMTZIN
 70
     0
  9
$DIMALTZ
 70
     0
  9
$DIMALTTZ
 70
     0
  9
$DIMUPT
 70
     0
  9
$DIMDEC
 70
     5
  9
$DIMTDEC
 70
     5
  9
$DIMALTU
 70
     5
  9
$DIMALTTD
 70
     2
  9
$DIMTXSTY
  7
STANDARD
  9
$DIMAUNIT
 70
     0
  9
$DIMADEC
 70
     0
  9
$DIMALTRND
 40
0.0
  9
$DIMAZIN
 70
     0
  9
$DIMDSEP
 70
    46
  9
$DIMATFIT
 70
     3
  9
$DIMFRAC
 70
     0
  9
$DIMLDRBLK
  1

  9
$DIMLUNIT
 70
     5
  9
$DIMLWD
 70
    -2
  9
$DIMLWE
 70
    -2
  9
$DIMTMOVE
 70
     2
  9
$LUNITS
 70
     5
  9
$LUPREC
 70
     5
  9
$SKETCHINC
 40
0.1
  9
$FILLETRAD
 40
0.0
  9
$AUNITS
 70
     0
  9
$AUPREC
 70
     0
  9
$MENU
  1
acad
  9
$ELEVATION
 40
0.0
  9
$PELEVATION
 40
0.0
  9
$THICKNESS
 40
0.0
  9
$LIMCHECK
 70
     0
  9
$CHAMFERA
 40
0.375
  9
$CHAMFERB
 40
0.375
  9
$CHAMFERC
 40
0.0
  9
$CHAMFERD
 40
0.0
  9
$SKPOLY
 70
     0
  9
$TDCREATE
 40
2449248.789130787
  9
$TDUCREATE
 40
2449249.12246412
  9
$TDUPDATE
 40
2454949.654064537
  9
$TDUUPDATE
 40
2454949.987397871
  9
$TDINDWG
 40
0.1526603356
  9
$TDUSRTIMER
 40
0.1526603356
  9
$USRTIMER
 70
     1
  9
$ANGBASE
 50
0.0
  9
$ANGDIR
 70
     0
  9
$PDMODE
 70
     0
  9
$PDSIZE
 40
0.0
  9
$PLINEWID
 40
0.0
  9
$SPLFRAME
 70
     0
  9
$SPLINETYPE
 70
     6
  9
$SPLINESEGS
 70
     8
  9
$HANDSEED
  5
1042
  9
$SURFTAB1
 70
     6
  9
$SURFTAB2
 70
     6
  9
$SURFTYPE
 70
     6
  9
$SURFU
 70
     6
  9
$SURFV
 70
     6
  9
$UCSBASE
  2

  9
$UCSNAME
  2

  9
$UCSORG
 10
0.0
 20
0.0
 30
0.0
  9
$UCSXDIR
 10
1.0
 20
0.0
 30
0.0
  9
$UCSYDIR
 10
0.0
 20
1.0
 30
0.0
  9
$UCSORTHOREF
  2

  9
$UCSORTHOVIEW
 70
     0
  9
$UCSORGTOP
 10
0.0
 20
0.0
 30
0.0
  9
$UCSORGBOTTOM
 10
0.0
 20
0.0
 30
0.0
  9
$UCSORGLEFT
 10
0.0
 20
0.0
 30
0.0
  9
$UCSORGRIGHT
 10
0.0
 20
0.0
 30
0.0
  9
$UCSORGFRONT
 10
0.0
 20
0.0
 30
0.0
  9
$UCSORGBACK
 10
0.0
 20
0.0
 30
0.0
  9
$PUCSBASE
  2

  9
$PUCSNAME
  2

  9
$PUCSORG
 10
0.0
 20
0.0
 30
0.0
  9
$PUCSXDIR
 10
1.0
 20
0.0
 30
0.0
  9
$PUCSYDIR
 10
0.0
 20
1.0
 30
0.0
  9
$PUCSORTHOREF
  2

  9
$PUCSORTHOVIEW
 70
     0
  9
$PUCSORGTOP
 10
0.0
 20
0.0
 30
0.0
  9
$PUCSORGBOTTOM
 10
0.0
 20
0.0
 30
0.0
  9
$PUCSORGLEFT
 10
0.0
 20
0.0
 30
0.0
  9
$PUCSORGRIGHT
 10
0.0
 20
0.0
 30
0.0
  9
$PUCSORGFRONT
 10
0.0
 20
0.0
 30
0.0
  9
$PUCSORGBACK
 10
0.0
 20
0.0
 30
0.0
  9
$USERI1
 70
     0
  9
$USERI2
 70
     0
  9
$USERI3
 70
     0
  9
$USERI4
 70
     0
  9
$USERI5
 70
     0
  9
$USERR1
 40
0.0
  9
$USERR2
 40
0.0
  9
$USERR3
 40
0.0
  9
$USERR4
 40
0.0
  9
$USERR5
 40
0.0
  9
$WORLDVIEW
 70
     1
  9
$SHADEDGE
 70
     3
  9
$SHADEDIF
 70
    70
  9
$TILEMODE
 70
     1
  9
$MAXACTVP
 70
    16
  9
$PINSBASE
 10
0.0
 20
0.0
 30
0.0
  9
$PLIMCHECK
 70
     0
  9
$PEXTMIN
 10
1.000000000000000E+20
 20
1.000000000000000E+20
 30
1.000000000000000E+20
  9
$PEXTMAX
 10
-1.000000000000000E+20
 20
-1.000000000000000E+20
 30
-1.000000000000000E+20
  9
$PLIMMIN
 10
0.0
 20
0.0
  9
$PLIMMAX
 10
12.0
 20
9.0
  9
$UNITMODE
 70
     0
  9
$VISRETAIN
 70
     0
  9
$PLINEGEN
 70
     0
  9
$PSLTSCALE
 70
     0
  9
$TREEDEPTH
 70
  3020
  9
$CMLSTYLE
  2
Standard
  9
$CMLJUST
 70
     0
  9
$CMLSCALE
 40
1.0
  9
$PROXYGRAPHICS
 70
     1
  9
$MEASUREMENT
 70
     0
  9
$CELWEIGHT
370
    -1
  9
$ENDCAPS
280
     0
  9
$JOINSTYLE
280
     0
  9
$LWDISPLAY
290
     0
  9
$INSUNITS
 70
     0
  9
$HYPERLINKBASE
  1

  9
$STYLESHEET
  1
monochrome.ctb
  9
$XEDIT
290
     1
  9
$CEPSNTYPE
380
     0
  9
$PSTYLEMODE
290
     1
  9
$FINGERPRINTGUID
  2
{8F85BB19-6A71-4F71-8742-1BE6537EB20F}
  9
$VERSIONGUID
  2
{AEAA29A1-BFE9-4D97-9011-D01D90FF69B1}
  9
$EXTNAMES
290
     1
  9
$PSVPSCALE
 40
0.0
  9
$OLESTARTUP
290
     0
  0
ENDSEC
  0
SECTION
  2
CLASSES
  0
CLASS
  1
ACDBDICTIONARYWDFLT
  2
AcDbDictionaryWithDefault
  3
AutoCAD 2000
 90
        0
280
     0
281
     0
  0
CLASS
  1
ACDBPLACEHOLDER
  2
AcDbPlaceHolder
  3
ObjectDBX Classes
 90
        0
280
     0
281
     0
  0
CLASS
  1
LAYOUT
  2
AcDbLayout
  3
ObjectDBX Classes
 90
        0
280
     0
281
     0
  0
CLASS
  1
LONG_TRANSACTION
  2
AcDbLongTransaction
  3
ObjectDBX Classes
 90
   -65536
280
     1
281
     0
  0
CLASS
  1
LWPOLYLINE
  2
AcDbPolyline
  3
AutoCAD 2000
 90
        0
280
     0
281
     1
  0
CLASS
  1
HATCH
  2
AcDbHatch
  3
AutoCAD 2000
 90
        0
280
     0
281
     1
  0
CLASS
  1
XRECORD
  2
AcDbXrecord
  3
AutoCAD 2000
 90
        0
280
     0
281
     0
  0
CLASS
  1
LONG_TRANSACTION
  2
AcDbLongTransaction
  3
ObjectDBX Classes
 90
   -65536
280
     1
281
     0
  0
CLASS
  1
LWPOLYLINE
  2
AcDbPolyline
  3
AutoCAD 2000
 90
        0
280
     0
281
     1
  0
CLASS
  1
HATCH
  2
AcDbHatch
  3
AutoCAD 2000
 90
        0
280
     0
281
     1
  0
CLASS
  1
XRECORD
  2
AcDbXrecord
  3
AutoCAD 2000
 90
        0
280
     0
281
     0
  0
CLASS
  1
LONG_TRANSACTION
  2
AcDbLongTransaction
  3
ObjectDBX Classes
 90
   -65536
280
     1
281
     0
  0
CLASS
  1
LWPOLYLINE
  2
AcDbPolyline
  3
AutoCAD 2000
 90
        0
280
     0
281
     1
  0
CLASS
  1
HATCH
  2
AcDbHatch
  3
AutoCAD 2000
 90
        0
280
     0
281
     1
  0
CLASS
  1
XRECORD
  2
AcDbXrecord
  3
AutoCAD 2000
 90
        0
280
     0
281
     0
  0
CLASS
  1
LONG_TRANSACTION
  2
AcDbLongTransaction
  3
ObjectDBX Classes
 90
   -65536
280
     1
281
     0
  0
CLASS
  1
LWPOLYLINE
  2
AcDbPolyline
  3
AutoCAD 2000
 90
        0
280
     0
281
     1
  0
CLASS
  1
HATCH
  2
AcDbHatch
  3
AutoCAD 2000
 90
        0
280
     0
281
     1
  0
CLASS
  1
XRECORD
  2
AcDbXrecord
  3
AutoCAD 2000
 90
        0
280
     0
281
     0
  0
CLASS
  1
LONG_TRANSACTION
  2
AcDbLongTransaction
  3
ObjectDBX Classes
 90
   -65536
280
     1
281
     0
  0
CLASS
  1
LWPOLYLINE
  2
AcDbPolyline
  3
AutoCAD 2000
 90
        0
280
     0
281
     1
  0
CLASS
  1
HATCH
  2
AcDbHatch
  3
AutoCAD 2000
 90
        0
280
     0
281
     1
  0
CLASS
  1
XRECORD
  2
AcDbXrecord
  3
AutoCAD 2000
 90
        0
280
     0
281
     0
  0
CLASS
  1
LONG_TRANSACTION
  2
AcDbLongTransaction
  3
ObjectDBX Classes
 90
   -65536
280
     1
281
     0
  0
CLASS
  1
LWPOLYLINE
  2
AcDbPolyline
  3
AutoCAD 2000
 90
        0
280
     0
281
     1
  0
CLASS
  1
HATCH
  2
AcDbHatch
  3
AutoCAD 2000
 90
        0
280
     0
281
     1
  0
CLASS
  1
XRECORD
  2
AcDbXrecord
  3
AutoCAD 2000
 90
        0
280
     0
281
     0
  0
CLASS
  1
LONG_TRANSACTION
  2
AcDbLongTransaction
  3
ObjectDBX Classes
 90
   -65536
280
     1
281
     0
  0
CLASS
  1
LWPOLYLINE
  2
AcDbPolyline
  3
AutoCAD 2000
 90
        0
280
     0
281
     1
  0
CLASS
  1
HATCH
  2
AcDbHatch
  3
AutoCAD 2000
 90
        0
280
     0
281
     1
  0
CLASS
  1
XRECORD
  2
AcDbXrecord
  3
AutoCAD 2000
 90
        0
280
     0
281
     0
  0
CLASS
  1
TABLESTYLE
  2
AcDbTableStyle
  3
ObjectDBX Classes
 90
     2047
280
     1
281
     0
  0
CLASS
  1
SORTENTSTABLE
  2
AcDbSortentsTable
  3
AutoCAD 2000
 90
        0
280
     0
281
     0
  0
CLASS
  1
DICTIONARYVAR
  2
AcDbDictionaryVar
  3
AutoCAD 2000
 90
        0
280
     0
281
     0
  0
ENDSEC
  0
SECTION
  2
TABLES
  0
TABLE
  2
VPORT
  5
8
330
0
100
AcDbSymbolTable
 70
     3
  0
VPORT
  5
1034
330
8
100
AcDbSymbolTableRecord
100
AcDbViewportTableRecord
  2
*Active
 70
     0
 10
0.0
 20
0.0
 11
1.0
 21
1.0
 12
2.763320599414367
 22
5.57100405312978
 13
0.0
 23
0.0
 14
0.03125
 24
0.03125
 15
0.25
 25
0.25
 16
0.0
 26
0.0
 36
1.0
 17
0.0
 27
0.0
 37
0.0
 40
26.24931026873227
 41
1.77079107505071
 42
50.0
 43
0.0
 44
0.0
 50
0.0
 51
0.0
 71
     0
 72
   100
 73
     1
 74
     0
 75
     0
 76
     0
 77
     0
 78
     0
281
     0
 65
     1
110
0.0
120
0.0
130
0.0
111
1.0
121
0.0
131
0.0
112
0.0
122
1.0
132
0.0
 79
     0
146
0.0
  0
ENDTAB
  0
TABLE
  2
LTYPE
  5
5
330
0
100
AcDbSymbolTable
 70
     2
  0
LTYPE
  5
13
330
5
100
AcDbSymbolTableRecord
100
AcDbLinetypeTableRecord
  2
ByBlock
 70
     0
  3

 72
    65
 73
     0
 40
0.0
  0
LTYPE
  5
14
330
5
100
AcDbSymbolTableRecord
100
AcDbLinetypeTableRecord
  2
ByLayer
 70
     0
  3

 72
    65
 73
     0
 40
0.0
  0
LTYPE
  5
15
330
5
100
AcDbSymbolTableRecord
100
AcDbLinetypeTableRecord
  2
CONTINUOUS
 70
     0
  3
Solid line
 72
    65
 73
     0
 40
0.0
  0
LTYPE
  5
32
330
5
100
AcDbSymbolTableRecord
100
AcDbLinetypeTableRecord
  2
DASHED
 70
     0
  3
__ __ __ __ __ __ __ __ __ __ __ __ __ __ __
 72
    65
 73
     2
 40
0.75
 49
0.5
 74
     0
 49
-0.25
 74
     0
  0
ENDTAB
  0
TABLE
  2
LAYER
  5
2
102
{ACAD_XDICTIONARY
360
E43
102
}
330
0
100
AcDbSymbolTable
 70
     2
  0
LAYER
  5
10
330
2
100
AcDbSymbolTableRecord
100
AcDbLayerTableRecord
  2
0
 70
     0
 62
     7
  6
CONTINUOUS
370
    -3
390
F
  0
LAYER
  5
42
330
2
100
AcDbSymbolTableRecord
100
AcDbLayerTableRecord
  2
DASHED
 70
     0
 62
     8
  6
DASHED
370
    -3
390
F
  0
ENDTAB
  0
TABLE
  2
STYLE
  5
3
330
0
100
AcDbSymbolTable
 70
     1
  0
STYLE
  5
11
330
3
100
AcDbSymbolTableRecord
100
AcDbTextStyleTableRecord
  2
STANDARD
 70
     0
 40
0.0
 41
1.0
 50
0.0
 71
     0
 42
0.225
  3
TXT
  4

  0
ENDTAB
  0
TABLE
  2
VIEW
  5
6
330
0
100
AcDbSymbolTable
 70
     0
  0
ENDTAB
  0
TABLE
  2
UCS
  5
7
330
0
100
AcDbSymbolTable
 70
     0
  0
ENDTAB
  0
TABLE
  2
APPID
  5
9
330
0
100
AcDbSymbolTable
 70
     2
  0
APPID
  5
12
330
9
100
AcDbSymbolTableRecord
100
AcDbRegAppTableRecord
  2
ACAD
 70
     0
  0
APPID
  5
E42
330
9
100
AcDbSymbolTableRecord
100
AcDbRegAppTableRecord
  2
ACAD_PSEXT
 70
     0
  0
ENDTAB
  0
TABLE
  2
DIMSTYLE
  5
A
330
0
100
AcDbSymbolTable
 70
     1
100
AcDbDimStyleTable
  0
DIMSTYLE
105
6AE
330
A
100
AcDbSymbolTableRecord
100
AcDbDimStyleTableRecord
  2
Standard
 70
     0
  3

  4

340
11
  0
ENDTAB
  0
TABLE
  2
BLOCK_RECORD
  5
1
330
0
100
AcDbSymbolTable
 70
     0
  0
BLOCK_RECORD
  5
1E
330
1
100
AcDbSymbolTableRecord
100
AcDbBlockTableRecord
  2
*Model_Space
340
21
  0
BLOCK_RECORD
  5
1A
330
1
100
AcDbSymbolTableRecord
100
AcDbBlockTableRecord
  2
*Paper_Space
340
1D
  0
ENDTAB
  0
ENDSEC
  0
SECTION
  2
BLOCKS
  0
BLOCK
  5
4A
330
1E
100
AcDbEntity
  8
0
100
AcDbBlockBegin
  2
*Model_Space
 70
     0
 10
0.0
 20
0.0
 30
0.0
  3
*Model_Space
  1

  4

  0
ENDBLK
  5
4B
330
1E
100
AcDbEntity
  8
0
100
AcDbBlockEnd
  0
BLOCK
  5
48
330
1A
100
AcDbEntity
 67
     1
  8
0
100
AcDbBlockBegin
  2
*Paper_Space
 70
     0
 10
0.0
 20
0.0
 30
0.0
  3
*Paper_Space
  1

  4

  0
ENDBLK
  5
49
330
1A
100
AcDbEntity
 67
     1
  8
0
100
AcDbBlockEnd
  0
ENDSEC
  0
SECTION
  2
ENTITIES
  0
LINE
  5
F47
330
1E
100
AcDbEntity
  8
DASHED
100
AcDbLine
 10
-9.574351272226709
 20
2.746662028053578
 30
0.0
 11
-4.782851272226708
 21
2.746662028053578
 31
0.0
  0
LINE
  5
F48
330
1E
100
AcDbEntity
  8
0
100
AcDbLine
 10
-4.584851272226707
 20
2.548662028053577
 30
0.0
 11
-4.584851272226707
 21
1.714783718808528
 31
0.0
  0
LINE
  5
F49
330
1E
100
AcDbEntity
  8
0
100
AcDbLine
 10
-9.772351272226709
 20
1.714783718808535
 30
0.0
 11
-9.772351272226709
 21
2.548662028053577
 31
0.0
  0
LINE
  5
F4A
330
1E
100
AcDbEntity
  8
0
100
AcDbLine
 10
-9.689638605257487
 20
1.615783718808533
 30
0.0
 11
-4.689638605257493
 21
1.615783718808533
 31
0.0
  0
LINE
  5
F4B
330
1E
100
AcDbEntity
  8
0
100
AcDbLine
 10
-9.439638605257487
 20
8.716911112860871
 30
0.0
 11
-4.939638605257493
 21
8.716911112860871
 31
0.0
  0
LINE
  5
F4C
330
1E
100
AcDbEntity
  8
0
100
AcDbLine
 10
-9.772351272226707
 20
1.714783718808537
 30
0.0
 11
-9.59618658319082
 21
1.714783718808537
 31
0.0
  0
LINE
  5
F4D
330
1E
100
AcDbEntity
  8
DASHED
100
AcDbLine
 10
-8.807783898590175
 20
1.813783718808534
 30
0.0
 11
-8.495283898590465
 21
1.813783718808537
 31
0.0
  0
LINE
  5
F4E
330
1E
100
AcDbEntity
  8
0
100
AcDbLine
 10
-9.689638605257489
 20
1.615783718808533
 30
0.0
 11
-9.689638605257489
 21
1.714783718808537
 31
0.0
  0
LINE
  5
F4F
330
1E
100
AcDbEntity
  8
0
100
AcDbLine
 10
-9.59618658319082
 20
1.71478371880853
 30
0.0
 11
-9.59618658319082
 21
1.615783718808533
 31
0.0
  0
ARC
  5
F50
330
1E
100
AcDbEntity
  8
0
100
AcDbCircle
 10
-9.689588371041419
 20
1.719068112150847
 30
0.0
 40
0.0935
100
AcDbArc
 50
357.3736508865426
 51
90.03078298081768
  0
LINE
  5
F51
330
1E
100
AcDbEntity
  8
DASHED
100
AcDbLine
 10
-9.275474388989398
 20
2.13014842896472
 30
0.0
 11
-9.275474388989398
 21
1.714783718808537
 31
0.0
  0
LINE
  5
F52
330
1E
100
AcDbEntity
  8
DASHED
100
AcDbLine
 10
-9.1827338985903
 20
2.13014842896472
 30
0.0
 11
-9.1827338985903
 21
1.714783718808537
 31
0.0
  0
LINE
  5
F53
330
1E
100
AcDbEntity
  8
DASHED
100
AcDbLine
 10
-9.275474388989398
 20
1.99794842896473
 30
0.0
 11
-9.1827338985903
 21
1.99794842896473
 31
0.0
  0
LINE
  5
F54
330
1E
100
AcDbEntity
  8
DASHED
100
AcDbLine
 10
-9.275474388989396
 20
2.13014842896472
 30
0.0
 11
-9.1827338985903
 21
2.13014842896472
 31
0.0
  0
ARC
  5
F55
330
1E
100
AcDbEntity
  8
DASHED
100
AcDbCircle
 10
-8.807783898590175
 20
1.751283718808534
 30
0.0
 40
0.0625
100
AcDbArc
 50
90.0
 51
180.0
  0
LINE
  5
F56
330
1E
100
AcDbEntity
  8
DASHED
100
AcDbLine
 10
-8.870283898590175
 20
1.751283718808534
 30
0.0
 11
-8.870283898590175
 21
1.714783718808537
 31
0.0
  0
CIRCLE
  5
F58
330
1E
100
AcDbEntity
  8
0
100
AcDbCircle
 10
-5.060402172939554
 20
5.591911112860871
 30
0.0
 40
0.0855
  0
CIRCLE
  5
F5A
330
1E
100
AcDbEntity
  8
0
100
AcDbCircle
 10
-8.064618600380689
 20
8.341911112860871
 30
0.0
 40
0.0855
  0
LINE
  5
F5B
330
1E
100
AcDbEntity
  8
0
100
AcDbLine
 10
-9.689638605257487
 20
8.466911112860871
 30
0.0
 11
-9.439638605257487
 21
8.716911112860871
 31
0.0
  0
ARC
  5
F5C
330
1E
100
AcDbEntity
  8
DASHED
100
AcDbCircle
 10
-7.026483898590447
 20
1.751283718808534
 30
0.0
 40
0.0625
100
AcDbArc
 50
0.0
 51
89.99999999999946
  0
LINE
  5
F5D
330
1E
100
AcDbEntity
  8
DASHED
100
AcDbLine
 10
-8.057783898590314
 20
1.813783718808534
 30
0.0
 11
-7.745283898590332
 21
1.813783718808534
 31
0.0
  0
ARC
  5
F5E
330
1E
100
AcDbEntity
  8
DASHED
100
AcDbCircle
 10
-8.495283898590465
 20
1.751283718808537
 30
0.0
 40
0.0625
100
AcDbArc
 50
0.0
 51
90.0
  0
LINE
  5
F5F
330
1E
100
AcDbEntity
  8
DASHED
100
AcDbLine
 10
-8.432783898590465
 20
1.751283718808537
 30
0.0
 11
-8.432783898590465
 21
1.714783718808537
 31
0.0
  0
ARC
  5
F60
330
1E
100
AcDbEntity
  8
DASHED
100
AcDbCircle
 10
-8.057783898590314
 20
1.751283718808534
 30
0.0
 40
0.0625
100
AcDbArc
 50
90.0
 51
180.0
  0
LINE
  5
F61
330
1E
100
AcDbEntity
  8
DASHED
100
AcDbLine
 10
-8.120283898590314
 20
1.751283718808534
 30
0.0
 11
-8.120283898590312
 21
1.714783718808537
 31
0.0
  0
ARC
  5
F62
330
1E
100
AcDbEntity
  8
DASHED
100
AcDbCircle
 10
-7.338983898590202
 20
1.751283718808534
 30
0.0
 40
0.0625
100
AcDbArc
 50
89.99999999999953
 51
180.000000000001
  0
ARC
  5
F63
330
1E
100
AcDbEntity
  8
DASHED
100
AcDbCircle
 10
-7.745283898590332
 20
1.751283718808534
 30
0.0
 40
0.0625
100
AcDbArc
 50
0.0000000000010178
 51
90.0
  0
LINE
  5
F64
330
1E
100
AcDbEntity
  8
DASHED
100
AcDbLine
 10
-7.682783898590332
 20
1.751283718808537
 30
0.0
 11
-7.682783898590332
 21
1.714783718808537
 31
0.0
  0
LINE
  5
F65
330
1E
100
AcDbEntity
  8
DASHED
100
AcDbLine
 10
-7.338983898590202
 20
1.813783718808534
 30
0.0
 11
-7.026483898590447
 21
1.813783718808534
 31
0.0
  0
LINE
  5
F66
330
1E
100
AcDbEntity
  8
DASHED
100
AcDbLine
 10
-7.401483898590202
 20
1.751283718808534
 30
0.0
 11
-7.401483898590202
 21
1.714783718808537
 31
0.0
  0
ARC
  5
F67
330
1E
100
AcDbEntity
  8
DASHED
100
AcDbCircle
 10
-6.307683898590327
 20
1.751283718808534
 30
0.0
 40
0.0625
100
AcDbArc
 50
0.0
 51
90.0
  0
ARC
  5
F68
330
1E
100
AcDbEntity
  8
DASHED
100
AcDbCircle
 10
-6.620183898590321
 20
1.751283718808534
 30
0.0
 40
0.0625
100
AcDbArc
 50
90.0
 51
180.0
  0
LINE
  5
F69
330
1E
100
AcDbEntity
  8
DASHED
100
AcDbLine
 10
-6.963983898590447
 20
1.751283718808534
 30
0.0
 11
-6.963983898590447
 21
1.714783718808537
 31
0.0
  0
LINE
  5
F6A
330
1E
100
AcDbEntity
  8
DASHED
100
AcDbLine
 10
-6.682683898590321
 20
1.751283718808534
 30
0.0
 11
-6.682683898590321
 21
1.714783718808537
 31
0.0
  0
LINE
  5
F6B
330
1E
100
AcDbEntity
  8
DASHED
100
AcDbLine
 10
-6.620183898590321
 20
1.813783718808534
 30
0.0
 11
-6.307683898590327
 21
1.813783718808534
 31
0.0
  0
LINE
  5
F6C
330
1E
100
AcDbEntity
  8
DASHED
100
AcDbLine
 10
-6.245183898590327
 20
1.751283718808534
 30
0.0
 11
-6.245183898590327
 21
1.714783718808537
 31
0.0
  0
LINE
  5
F6D
330
1E
100
AcDbEntity
  8
DASHED
100
AcDbLine
 10
-5.870183898590168
 20
1.813783718808526
 30
0.0
 11
-5.557683898590469
 21
1.813783718808534
 31
0.0
  0
ARC
  5
F6E
330
1E
100
AcDbEntity
  8
DASHED
100
AcDbCircle
 10
-5.870183898590168
 20
1.751283718808526
 30
0.0
 40
0.0625
100
AcDbArc
 50
90.00000000000048
 51
180.0000000000021
  0
LINE
  5
F6F
330
1E
100
AcDbEntity
  8
DASHED
100
AcDbLine
 10
-5.932683898590168
 20
1.751283718808526
 30
0.0
 11
-5.932683898590167
 21
1.714783718808537
 31
0.0
  0
ARC
  5
F70
330
1E
100
AcDbEntity
  8
DASHED
100
AcDbCircle
 10
-5.557683898590469
 20
1.751283718808534
 30
0.0
 40
0.0625
100
AcDbArc
 50
0.0
 51
90.0000000000005
  0
LINE
  5
F71
330
1E
100
AcDbEntity
  8
DASHED
100
AcDbLine
 10
-5.495183898590469
 20
1.751283718808534
 30
0.0
 11
-5.495183898590469
 21
1.714783718808537
 31
0.0
  0
CIRCLE
  5
F72
330
1E
100
AcDbEntity
  8
0
100
AcDbCircle
 10
-7.189638605257484
 20
5.404411112860863
 30
0.0
 40
0.3435
  0
CIRCLE
  5
F73
330
1E
100
AcDbEntity
  8
0
100
AcDbCircle
 10
-7.189638605257484
 20
7.404411112860871
 30
0.0
 40
0.3435
  0
CIRCLE
  5
F75
330
1E
100
AcDbEntity
  8
0
100
AcDbCircle
 10
-9.316418687230225
 20
6.841911112860878
 30
0.0
 40
0.0855
  0
CIRCLE
  5
F76
330
1E
100
AcDbEntity
  8
0
100
AcDbCircle
 10
-8.058339343225793
 20
4.841911112860871
 30
0.0
 40
0.0855
  0
CIRCLE
  5
F78
330
1E
100
AcDbEntity
  8
0
100
AcDbCircle
 10
-5.064618600380687
 20
8.341911112860871
 30
0.0
 40
0.0855
  0
LINE
  5
F7A
330
1E
100
AcDbEntity
  8
0
100
AcDbLine
 10
-4.689638605257493
 20
8.466911112860871
 30
0.0
 11
-4.689638605257493
 21
1.812568112150848
 31
0.0
  0
LINE
  5
F7B
330
1E
100
AcDbEntity
  8
0
100
AcDbLine
 10
-4.783040393108081
 20
1.71478371880853
 30
0.0
 11
-4.783040393108081
 21
1.615783718808533
 31
0.0
  0
LINE
  5
F7C
330
1E
100
AcDbEntity
  8
DASHED
100
AcDbLine
 10
-5.083733898590317
 20
2.13014842896472
 30
0.0
 11
-5.083733898590317
 21
1.71478371880853
 31
0.0
  0
LINE
  5
F7D
330
1E
100
AcDbEntity
  8
DASHED
100
AcDbLine
 10
-5.182733898590321
 20
2.13014842896472
 30
0.0
 11
-5.182733898590321
 21
1.71478371880853
 31
0.0
  0
LINE
  5
F7E
330
1E
100
AcDbEntity
  8
DASHED
100
AcDbLine
 10
-5.182733898590321
 20
1.99794842896473
 30
0.0
 11
-5.083733898590317
 21
1.99794842896473
 31
0.0
  0
LINE
  5
F7F
330
1E
100
AcDbEntity
  8
DASHED
100
AcDbLine
 10
-5.182733898590321
 20
2.13014842896472
 30
0.0
 11
-5.083733898590317
 21
2.13014842896472
 31
0.0
  0
ARC
  5
F80
330
1E
100
AcDbEntity
  8
0
100
AcDbCircle
 10
-4.689638605257485
 20
1.719068112150847
 30
0.0
 40
0.0935
100
AcDbArc
 50
90.0
 51
182.6263491134573
  0
CIRCLE
  5
F82
330
1E
100
AcDbEntity
  8
0
100
AcDbCircle
 10
-6.316418687230078
 20
6.841911112860878
 30
0.0
 40
0.0855
  0
LINE
  5
F83
330
1E
100
AcDbEntity
  8
0
100
AcDbLine
 10
-4.689638605257493
 20
8.466911112860871
 30
0.0
 11
-4.939638605257493
 21
8.716911112860871
 31
0.0
  0
ARC
  5
F84
330
1E
100
AcDbEntity
  8
0
100
AcDbCircle
 10
-4.782851272226708
 20
2.548662028053577
 30
0.0
 40
0.198
100
AcDbArc
 50
0.0
 51
61.91564160083535
  0
ARC
  5
F85
330
1E
100
AcDbEntity
  8
DASHED
100
AcDbCircle
 10
-9.574351272226709
 20
2.548662028053577
 30
0.0
 40
0.198
100
AcDbArc
 50
90.0
 51
125.6096041865606
  0
ARC
  5
F86
330
1E
100
AcDbEntity
  8
DASHED
100
AcDbCircle
 10
-4.782851272226708
 20
2.548662028053577
 30
0.0
 40
0.198
100
AcDbArc
 50
61.91564160083535
 51
90.0
  0
ARC
  5
F87
330
1E
100
AcDbEntity
  8
0
100
AcDbCircle
 10
-9.574351272226709
 20
2.548662028053577
 30
0.0
 40
0.198
100
AcDbArc
 50
125.6096041865606
 51
180.0
  0
LINE
  5
F88
330
1E
100
AcDbEntity
  8
DASHED
100
AcDbLine
 10
-9.59618658319082
 20
1.714783718808537
 30
0.0
 11
-4.783040393108081
 21
1.71478371880853
 31
0.0
  0
LINE
  5
F89
330
1E
100
AcDbEntity
  8
0
100
AcDbLine
 10
-9.689638605257489
 20
1.812568098656319
 30
0.0
 11
-9.689638605257487
 21
8.466911112860871
 31
0.0
  0
LINE
  5
F8A
330
1E
100
AcDbEntity
  8
0
100
AcDbLine
 10
-4.783040393108081
 20
1.71478371880853
 30
0.0
 11
-4.584851272226707
 21
1.714783718808528
 31
0.0
  0
LINE
  5
F8B
330
1E
100
AcDbEntity
  8
0
100
AcDbLine
 10
-4.689638605257493
 20
1.714783718808528
 30
0.0
 11
-4.689638605257493
 21
1.615783718808533
 31
0.0
  0
ENDSEC
  0
SECTION
  2
OBJECTS
  0
DICTIONARY
  5
C
330
0
100
AcDbDictionary
281
     1
  3
ACAD_COLOR
350
E33
  3
ACAD_GROUP
350
D
  3
ACAD_LAYOUT
350
19
  3
ACAD_MATERIAL
350
E32
  3
ACAD_MLINESTYLE
350
16
  3
ACAD_PLOTSETTINGS
350
18
  3
ACAD_PLOTSTYLENAME
350
E
  3
ACAD_TABLESTYLE
350
E34
  3
ACDBHEADERROUNDTRIPXREC
350
103B
  3
AcDbVariableDictionary
350
E97
  0
DICTIONARY
  5
E43
330
2
100
AcDbDictionary
280
     1
281
     1
  3
ACAD_LAYERFILTERS
360
F46
  3
ACAD_LAYERSTATES
360
E44
  3
ACLYDICTIONARY
360
F45
  0
DICTIONARY
  5
E33
102
{ACAD_REACTORS
330
C
102
}
330
C
100
AcDbDictionary
281
     1
  0
DICTIONARY
  5
D
102
{ACAD_REACTORS
330
C
102
}
330
C
100
AcDbDictionary
281
     1
  0
DICTIONARY
  5
19
102
{ACAD_REACTORS
330
C
102
}
330
C
100
AcDbDictionary
281
     1
  3
Layout1
350
1D
  3
Model
350
21
  0
DICTIONARY
  5
E32
102
{ACAD_REACTORS
330
C
102
}
330
C
100
AcDbDictionary
281
     1
  0
DICTIONARY
  5
16
102
{ACAD_REACTORS
330
C
102
}
330
C
100
AcDbDictionary
281
     1
  3
Standard
350
17
  0
DICTIONARY
  5
18
102
{ACAD_REACTORS
330
C
102
}
330
C
100
AcDbDictionary
281
     1
  0
ACDBDICTIONARYWDFLT
  5
E
102
{ACAD_REACTORS
330
C
102
}
330
C
100
AcDbDictionary
281
     1
  3
Normal
350
F
100
AcDbDictionaryWithDefault
340
F
  0
DICTIONARY
  5
E34
102
{ACAD_REACTORS
330
C
102
}
330
C
100
AcDbDictionary
281
     1
  3
Standard
350
E35
  0
DICTIONARY
  5
103B
102
{ACAD_REACTORS
330
C
102
}
330
C
100
AcDbDictionary
281
     1
  3
COLORDICT
350
103C
  3
MATERIALDICT
350
103D
  0
DICTIONARY
  5
E97
102
{ACAD_REACTORS
330
C
102
}
330
C
100
AcDbDictionary
281
     1
  3
CTABLESTYLE
350
E98
  0
DICTIONARY
  5
F46
102
{ACAD_REACTORS
330
E43
102
}
330
E43
100
AcDbDictionary
281
     1
  0
DICTIONARY
  5
E44
102
{ACAD_REACTORS
330
E43
102
}
330
E43
100
AcDbDictionary
281
     1
  0
DICTIONARY
  5
F45
102
{ACAD_REACTORS
330
E43
102
}
330
E43
100
AcDbDictionary
281
     1
1001
ACAD
1000
<All
  0
LAYOUT
  5
1D
102
{ACAD_REACTORS
330
19
102
}
102
{ACAD_XDICTIONARY
360
103E
102
}
330
19
100
AcDbPlotSettings
  1

  2
HP LaserJet 2100 Series PS
  4

  6

 40
0.0
 41
0.0
 42
0.0
 43
0.0
 44
0.0
 45
0.0
 46
0.0
 47
0.0
 48
0.0
 49
0.0
140
0.0
141
0.0
142
1.0
143
1.0
 70
   688
 72
     0
 73
     0
 74
     5
  7
monochrome.ctb
 75
    16
147
1.0
148
0.0
149
0.0
100
AcDbLayout
  1
Layout1
 70
     0
 71
     1
 10
0.0
 20
0.0
 11
12.0
 21
9.0
 12
0.0
 22
0.0
 32
0.0
 14
1.000000000000000E+20
 24
1.000000000000000E+20
 34
1.000000000000000E+20
 15
-1.000000000000000E+20
 25
-1.000000000000000E+20
 35
-1.000000000000000E+20
146
0.0
 13
0.0
 23
0.0
 33
0.0
 16
1.0
 26
0.0
 36
0.0
 17
0.0
 27
1.0
 37
0.0
 76
     0
330
1A
  0
LAYOUT
  5
21
102
{ACAD_REACTORS
330
19
102
}
102
{ACAD_XDICTIONARY
360
1040
102
}
330
19
100
AcDbPlotSettings
  1

  2
HP LaserJet 2100 Series PS
  4
Letter
  6

 40
5.365749835968018
 41
5.408073902130127
 42
5.132904052734375
 43
5.090576171875
 44
215.8999938964844
 45
279.3999938964844
 46
0.0
 47
0.0
 48
0.0
 49
0.0
140
0.0
141
0.0
142
1.0
143
2.479533908317576
 70
 11952
 72
     0
 73
     2
 74
     2
  7
monochrome.ctb
 75
     0
147
0.4033016030333396
148
0.0
149
0.0
100
AcDbLayout
  1
Model
 70
     1
 71
     0
 10
0.0
 20
0.0
 11
12.0
 21
9.0
 12
0.0
 22
0.0
 32
0.0
 14
0.0
 24
0.0
 34
0.0
 15
0.0
 25
0.0
 35
0.0
146
0.0
 13
0.0
 23
0.0
 33
0.0
 16
1.0
 26
0.0
 36
0.0
 17
0.0
 27
1.0
 37
0.0
 76
     0
330
1E
1001
ACAD_PSEXT
1000
HP LaserJet 2100 Series PS
1000
HP LaserJet 2100 Series PS
1000
LPT1:
1000

1070
     0
  0
MLINESTYLE
  5
17
102
{ACAD_REACTORS
330
16
102
}
330
16
100
AcDbMlineStyle
  2
STANDARD
 70
     0
  3

 62
   256
 51
90.0
 52
90.0
 71
     2
 49
0.5
 62
   256
  6
BYLAYER
 49
-0.5
 62
   256
  6
BYLAYER
  0
ACDBPLACEHOLDER
  5
F
102
{ACAD_REACTORS
330
E
102
}
330
E
  0
ACAD_PROXY_OBJECT
  5
E35
102
{ACAD_REACTORS
330
E34
102
}
330
E34
100
AcDbProxyObject
 90
      499
 91
      531
 95
   983063
 70
     0
 93
     1841
310
4214DD185B99185C9928B81E85EB51B8AE3F2E07A17AD46E2B8FC02B5E8DC0F42B1CFD028000000C1008070000C3001FDFF8000000C1003FBFF000000182007F7FE00000030400FEFFC00000060801FDFF8000000C1003FBFF00000018200000000000000681FA0B0000001820100E000186003FBFF000000182007F7FE000
310
00030400FEFFC00000060801FDFF8000000C1003FBFF000000182007F7FE000000304000AD7A3703D0AC73F4160000003040201C00030C007F7FE00000030400FEFFC00000060801FDFF8000000C1003FBFF000000182007F7FE00000030400FEFFC000000608000
340
11
340
11
340
11
 94
        0
  0
XRECORD
  5
103C
102
{ACAD_REACTORS
330
103B
102
}
330
103B
100
AcDbXrecord
340
E33
  0
XRECORD
  5
103D
102
{ACAD_REACTORS
330
103B
102
}
330
103B
100
AcDbXrecord
340
E32
  0
DICTIONARYVAR
  5
E98
102
{ACAD_REACTORS
330
E97
102
}
330
E97
100
DictionaryVariables
280
     0
  1
STANDARD
  0
DICTIONARY
  5
103E
330
1D
100
AcDbDictionary
280
     1
281
     1
  3
ACAD_XREC_ROUNDTRIP
360
103F
  0
DICTIONARY
  5
1040
330
21
100
AcDbDictionary
280
     1
281
     1
  3
ACAD_XREC_ROUNDTRIP
360
1041
  0
XRECORD
  5
103F
102
{ACAD_REACTORS
330
103E
102
}
330
103E
100
AcDbXrecord
102
SHADEPLOT
 70
     0
102
SHADEPLOTRESLEVEL
 70
     2
102
SHADEPLOTCUSTOMDPI
 70
   300
  0
XRECORD
  5
1041
102
{ACAD_REACTORS
330
1040
102
}
330
1040
100
AcDbXrecord
102
SHADEPLOT
 70
     0
102
SHADEPLOTRESLEVEL
 70
     2
102
SHADEPLOTCUSTOMDPI
 70
   300
  0
ENDSEC
  0
EOF
