  0
SECTION
  2
HEADER
  9
$ACADVER
  1
AC1015
  9
$ACADMAINTVER
 70
     6
  9
$DWGCODEPAGE
  3
ANSI_1252
  9
$INSBASE
 10
0.0
 20
0.0
 30
0.0
  9
$EXTMIN
 10
-9.792945852679495
 20
-6.5104430151099
 30
-0.0000000000000053
  9
$EXTMAX
 10
10.11732671247584
 20
16.3785784442166
 30
0.0000000000000099
  9
$LIMMIN
 10
0.0
 20
0.0
  9
$LIMMAX
 10
20.0
 20
26.25
  9
$ORTHOMODE
 70
     1
  9
$REGENMODE
 70
     1
  9
$FILLMODE
 70
     1
  9
$QTEXTMODE
 70
     0
  9
$MIRRTEXT
 70
     0
  9
$LTSCALE
 40
0.4
  9
$ATTMODE
 70
     1
  9
$TEXTSIZE
 40
0.225
  9
$TRACEWID
 40
0.05
  9
$TEXTSTYLE
  7
STANDARD
  9
$CLAYER
  8
0
  9
$CELTYPE
  6
ByLayer
  9
$CECOLOR
 62
   256
  9
$CELTSCALE
 40
1.0
  9
$DISPSILH
 70
     0
  9
$DIMSCALE
 40
2.5
  9
$DIMASZ
 40
0.125
  9
$DIMEXO
 40
0.062
  9
$DIMDLI
 40
0.375
  9
$DIMRND
 40
0.0
  9
$DIMDLE
 40
0.0
  9
$DIMEXE
 40
0.08
  9
$DIMTP
 40
0.0
  9
$DIMTM
 40
0.0
  9
$DIMTXT
 40
0.09
  9
$DIMCEN
 40
-0.03125
  9
$DIMTSZ
 40
0.0
  9
$DIMTOL
 70
     0
  9
$DIMLIM
 70
     0
  9
$DIMTIH
 70
     1
  9
$DIMTOH
 70
     1
  9
$DIMSE1
 70
     0
  9
$DIMSE2
 70
     0
  9
$DIMTAD
 70
     0
  9
$DIMZIN
 70
     0
  9
$DIMBLK
  1

  9
$DIMASO
 70
     0
  9
$DIMSHO
 70
     0
  9
$DIMPOST
  1

  9
$DIMAPOST
  1

  9
$DIMALT
 70
     0
  9
$DIMALTD
 70
     2
  9
$DIMALTF
 40
25.4
  9
$DIMLFAC
 40
1.0
  9
$DIMTOFL
 70
     0
  9
$DIMTVP
 40
0.0
  9
$DIMTIX
 70
     0
  9
$DIMSOXD
 70
     0
  9
$DIMSAH
 70
     0
  9
$DIMBLK1
  1

  9
$DIMBLK2
  1

  9
$DIMSTYLE
  2
Standard
  9
$DIMCLRD
 70
     0
  9
$DIMCLRE
 70
     0
  9
$DIMCLRT
 70
     0
  9
$DIMTFAC
 40
1.0
  9
$DIMGAP
 40
0.09
  9
$DIMJUST
 70
     0
  9
$DIMSD1
 70
     0
  9
$DIMSD2
 70
     0
  9
$DIMTOLJ
 70
     1
  9
$DIMTZIN
 70
     0
  9
$DIMALTZ
 70
     0
  9
$DIMALTTZ
 70
     0
  9
$DIMUPT
 70
     0
  9
$DIMDEC
 70
     5
  9
$DIMTDEC
 70
     5
  9
$DIMALTU
 70
     5
  9
$DIMALTTD
 70
     2
  9
$DIMTXSTY
  7
STANDARD
  9
$DIMAUNIT
 70
     0
  9
$DIMADEC
 70
     0
  9
$DIMALTRND
 40
0.0
  9
$DIMAZIN
 70
     0
  9
$DIMDSEP
 70
    46
  9
$DIMATFIT
 70
     3
  9
$DIMFRAC
 70
     0
  9
$DIMLDRBLK
  1

  9
$DIMLUNIT
 70
     5
  9
$DIMLWD
 70
    -2
  9
$DIMLWE
 70
    -2
  9
$DIMTMOVE
 70
     2
  9
$LUNITS
 70
     5
  9
$LUPREC
 70
     5
  9
$SKETCHINC
 40
0.1
  9
$FILLETRAD
 40
0.0
  9
$AUNITS
 70
     0
  9
$AUPREC
 70
     0
  9
$MENU
  1
acad
  9
$ELEVATION
 40
0.0
  9
$PELEVATION
 40
0.0
  9
$THICKNESS
 40
0.0
  9
$LIMCHECK
 70
     0
  9
$CHAMFERA
 40
0.375
  9
$CHAMFERB
 40
0.375
  9
$CHAMFERC
 40
0.0
  9
$CHAMFERD
 40
0.0
  9
$SKPOLY
 70
     0
  9
$TDCREATE
 40
2449248.789130787
  9
$TDUCREATE
 40
2449249.12246412
  9
$TDUPDATE
 40
2454949.653706111
  9
$TDUUPDATE
 40
2454949.987039445
  9
$TDINDWG
 40
0.1525201273
  9
$TDUSRTIMER
 40
0.1525201273
  9
$USRTIMER
 70
     1
  9
$ANGBASE
 50
0.0
  9
$ANGDIR
 70
     0
  9
$PDMODE
 70
     0
  9
$PDSIZE
 40
0.0
  9
$PLINEWID
 40
0.0
  9
$SPLFRAME
 70
     0
  9
$SPLINETYPE
 70
     6
  9
$SPLINESEGS
 70
     8
  9
$HANDSEED
  5
1033
  9
$SURFTAB1
 70
     6
  9
$SURFTAB2
 70
     6
  9
$SURFTYPE
 70
     6
  9
$SURFU
 70
     6
  9
$SURFV
 70
     6
  9
$UCSBASE
  2

  9
$UCSNAME
  2

  9
$UCSORG
 10
0.0
 20
0.0
 30
0.0
  9
$UCSXDIR
 10
1.0
 20
0.0
 30
0.0
  9
$UCSYDIR
 10
0.0
 20
1.0
 30
0.0
  9
$UCSORTHOREF
  2

  9
$UCSORTHOVIEW
 70
     0
  9
$UCSORGTOP
 10
0.0
 20
0.0
 30
0.0
  9
$UCSORGBOTTOM
 10
0.0
 20
0.0
 30
0.0
  9
$UCSORGLEFT
 10
0.0
 20
0.0
 30
0.0
  9
$UCSORGRIGHT
 10
0.0
 20
0.0
 30
0.0
  9
$UCSORGFRONT
 10
0.0
 20
0.0
 30
0.0
  9
$UCSORGBACK
 10
0.0
 20
0.0
 30
0.0
  9
$PUCSBASE
  2

  9
$PUCSNAME
  2

  9
$PUCSORG
 10
0.0
 20
0.0
 30
0.0
  9
$PUCSXDIR
 10
1.0
 20
0.0
 30
0.0
  9
$PUCSYDIR
 10
0.0
 20
1.0
 30
0.0
  9
$PUCSORTHOREF
  2

  9
$PUCSORTHOVIEW
 70
     0
  9
$PUCSORGTOP
 10
0.0
 20
0.0
 30
0.0
  9
$PUCSORGBOTTOM
 10
0.0
 20
0.0
 30
0.0
  9
$PUCSORGLEFT
 10
0.0
 20
0.0
 30
0.0
  9
$PUCSORGRIGHT
 10
0.0
 20
0.0
 30
0.0
  9
$PUCSORGFRONT
 10
0.0
 20
0.0
 30
0.0
  9
$PUCSORGBACK
 10
0.0
 20
0.0
 30
0.0
  9
$USERI1
 70
     0
  9
$USERI2
 70
     0
  9
$USERI3
 70
     0
  9
$USERI4
 70
     0
  9
$USERI5
 70
     0
  9
$USERR1
 40
0.0
  9
$USERR2
 40
0.0
  9
$USERR3
 40
0.0
  9
$USERR4
 40
0.0
  9
$USERR5
 40
0.0
  9
$WORLDVIEW
 70
     1
  9
$SHADEDGE
 70
     3
  9
$SHADEDIF
 70
    70
  9
$TILEMODE
 70
     1
  9
$MAXACTVP
 70
    16
  9
$PINSBASE
 10
0.0
 20
0.0
 30
0.0
  9
$PLIMCHECK
 70
     0
  9
$PEXTMIN
 10
1.000000000000000E+20
 20
1.000000000000000E+20
 30
1.000000000000000E+20
  9
$PEXTMAX
 10
-1.000000000000000E+20
 20
-1.000000000000000E+20
 30
-1.000000000000000E+20
  9
$PLIMMIN
 10
0.0
 20
0.0
  9
$PLIMMAX
 10
12.0
 20
9.0
  9
$UNITMODE
 70
     0
  9
$VISRETAIN
 70
     0
  9
$PLINEGEN
 70
     0
  9
$PSLTSCALE
 70
     0
  9
$TREEDEPTH
 70
  3020
  9
$CMLSTYLE
  2
Standard
  9
$CMLJUST
 70
     0
  9
$CMLSCALE
 40
1.0
  9
$PROXYGRAPHICS
 70
     1
  9
$MEASUREMENT
 70
     0
  9
$CELWEIGHT
370
    -1
  9
$ENDCAPS
280
     0
  9
$JOINSTYLE
280
     0
  9
$LWDISPLAY
290
     0
  9
$INSUNITS
 70
     0
  9
$HYPERLINKBASE
  1

  9
$STYLESHEET
  1
monochrome.ctb
  9
$XEDIT
290
     1
  9
$CEPSNTYPE
380
     0
  9
$PSTYLEMODE
290
     1
  9
$FINGERPRINTGUID
  2
{8F85BB19-6A71-4F71-8742-1BE6537EB20F}
  9
$VERSIONGUID
  2
{C26D06D4-4526-46BD-9A59-4E865B4CD5FB}
  9
$EXTNAMES
290
     1
  9
$PSVPSCALE
 40
0.0
  9
$OLESTARTUP
290
     0
  0
ENDSEC
  0
SECTION
  2
CLASSES
  0
CLASS
  1
ACDBDICTIONARYWDFLT
  2
AcDbDictionaryWithDefault
  3
AutoCAD 2000
 90
        0
280
     0
281
     0
  0
CLASS
  1
ACDBPLACEHOLDER
  2
AcDbPlaceHolder
  3
ObjectDBX Classes
 90
        0
280
     0
281
     0
  0
CLASS
  1
LAYOUT
  2
AcDbLayout
  3
ObjectDBX Classes
 90
        0
280
     0
281
     0
  0
CLASS
  1
LONG_TRANSACTION
  2
AcDbLongTransaction
  3
ObjectDBX Classes
 90
   -65536
280
     1
281
     0
  0
CLASS
  1
LWPOLYLINE
  2
AcDbPolyline
  3
AutoCAD 2000
 90
        0
280
     0
281
     1
  0
CLASS
  1
HATCH
  2
AcDbHatch
  3
AutoCAD 2000
 90
        0
280
     0
281
     1
  0
CLASS
  1
XRECORD
  2
AcDbXrecord
  3
AutoCAD 2000
 90
        0
280
     0
281
     0
  0
CLASS
  1
LONG_TRANSACTION
  2
AcDbLongTransaction
  3
ObjectDBX Classes
 90
   -65536
280
     1
281
     0
  0
CLASS
  1
LWPOLYLINE
  2
AcDbPolyline
  3
AutoCAD 2000
 90
        0
280
     0
281
     1
  0
CLASS
  1
HATCH
  2
AcDbHatch
  3
AutoCAD 2000
 90
        0
280
     0
281
     1
  0
CLASS
  1
XRECORD
  2
AcDbXrecord
  3
AutoCAD 2000
 90
        0
280
     0
281
     0
  0
CLASS
  1
LONG_TRANSACTION
  2
AcDbLongTransaction
  3
ObjectDBX Classes
 90
   -65536
280
     1
281
     0
  0
CLASS
  1
LWPOLYLINE
  2
AcDbPolyline
  3
AutoCAD 2000
 90
        0
280
     0
281
     1
  0
CLASS
  1
HATCH
  2
AcDbHatch
  3
AutoCAD 2000
 90
        0
280
     0
281
     1
  0
CLASS
  1
XRECORD
  2
AcDbXrecord
  3
AutoCAD 2000
 90
        0
280
     0
281
     0
  0
CLASS
  1
LONG_TRANSACTION
  2
AcDbLongTransaction
  3
ObjectDBX Classes
 90
   -65536
280
     1
281
     0
  0
CLASS
  1
LWPOLYLINE
  2
AcDbPolyline
  3
AutoCAD 2000
 90
        0
280
     0
281
     1
  0
CLASS
  1
HATCH
  2
AcDbHatch
  3
AutoCAD 2000
 90
        0
280
     0
281
     1
  0
CLASS
  1
XRECORD
  2
AcDbXrecord
  3
AutoCAD 2000
 90
        0
280
     0
281
     0
  0
CLASS
  1
LONG_TRANSACTION
  2
AcDbLongTransaction
  3
ObjectDBX Classes
 90
   -65536
280
     1
281
     0
  0
CLASS
  1
LWPOLYLINE
  2
AcDbPolyline
  3
AutoCAD 2000
 90
        0
280
     0
281
     1
  0
CLASS
  1
HATCH
  2
AcDbHatch
  3
AutoCAD 2000
 90
        0
280
     0
281
     1
  0
CLASS
  1
XRECORD
  2
AcDbXrecord
  3
AutoCAD 2000
 90
        0
280
     0
281
     0
  0
CLASS
  1
LONG_TRANSACTION
  2
AcDbLongTransaction
  3
ObjectDBX Classes
 90
   -65536
280
     1
281
     0
  0
CLASS
  1
LWPOLYLINE
  2
AcDbPolyline
  3
AutoCAD 2000
 90
        0
280
     0
281
     1
  0
CLASS
  1
HATCH
  2
AcDbHatch
  3
AutoCAD 2000
 90
        0
280
     0
281
     1
  0
CLASS
  1
XRECORD
  2
AcDbXrecord
  3
AutoCAD 2000
 90
        0
280
     0
281
     0
  0
CLASS
  1
LONG_TRANSACTION
  2
AcDbLongTransaction
  3
ObjectDBX Classes
 90
   -65536
280
     1
281
     0
  0
CLASS
  1
LWPOLYLINE
  2
AcDbPolyline
  3
AutoCAD 2000
 90
        0
280
     0
281
     1
  0
CLASS
  1
HATCH
  2
AcDbHatch
  3
AutoCAD 2000
 90
        0
280
     0
281
     1
  0
CLASS
  1
XRECORD
  2
AcDbXrecord
  3
AutoCAD 2000
 90
        0
280
     0
281
     0
  0
CLASS
  1
TABLESTYLE
  2
AcDbTableStyle
  3
ObjectDBX Classes
 90
     2047
280
     1
281
     0
  0
CLASS
  1
SORTENTSTABLE
  2
AcDbSortentsTable
  3
AutoCAD 2000
 90
        0
280
     0
281
     0
  0
CLASS
  1
DICTIONARYVAR
  2
AcDbDictionaryVar
  3
AutoCAD 2000
 90
        0
280
     0
281
     0
  0
ENDSEC
  0
SECTION
  2
TABLES
  0
TABLE
  2
VPORT
  5
8
330
0
100
AcDbSymbolTable
 70
     4
  0
VPORT
  5
101F
330
8
100
AcDbSymbolTableRecord
100
AcDbViewportTableRecord
  2
*Active
 70
     0
 10
0.0
 20
0.0
 11
1.0
 21
1.0
 12
2.763320599414367
 22
5.57100405312978
 13
0.0
 23
0.0
 14
0.03125
 24
0.03125
 15
0.25
 25
0.25
 16
0.0
 26
0.0
 36
1.0
 17
0.0
 27
0.0
 37
0.0
 40
26.24931026873227
 41
1.77079107505071
 42
50.0
 43
0.0
 44
0.0
 50
0.0
 51
0.0
 71
     0
 72
   100
 73
     1
 74
     0
 75
     0
 76
     0
 77
     0
 78
     0
281
     0
 65
     1
110
0.0
120
0.0
130
0.0
111
1.0
121
0.0
131
0.0
112
0.0
122
1.0
132
0.0
 79
     0
146
0.0
  0
ENDTAB
  0
TABLE
  2
LTYPE
  5
5
330
0
100
AcDbSymbolTable
 70
     4
  0
LTYPE
  5
13
330
5
100
AcDbSymbolTableRecord
100
AcDbLinetypeTableRecord
  2
ByBlock
 70
     0
  3

 72
    65
 73
     0
 40
0.0
  0
LTYPE
  5
14
330
5
100
AcDbSymbolTableRecord
100
AcDbLinetypeTableRecord
  2
ByLayer
 70
     0
  3

 72
    65
 73
     0
 40
0.0
  0
LTYPE
  5
15
330
5
100
AcDbSymbolTableRecord
100
AcDbLinetypeTableRecord
  2
CONTINUOUS
 70
     0
  3
Solid line
 72
    65
 73
     0
 40
0.0
  0
LTYPE
  5
32
330
5
100
AcDbSymbolTableRecord
100
AcDbLinetypeTableRecord
  2
DASHED
 70
     0
  3
__ __ __ __ __ __ __ __ __ __ __ __ __ __ __
 72
    65
 73
     2
 40
0.75
 49
0.5
 74
     0
 49
-0.25
 74
     0
  0
ENDTAB
  0
TABLE
  2
LAYER
  5
2
102
{ACAD_XDICTIONARY
360
E43
102
}
330
0
100
AcDbSymbolTable
 70
    12
  0
LAYER
  5
10
330
2
100
AcDbSymbolTableRecord
100
AcDbLayerTableRecord
  2
0
 70
     0
 62
     7
  6
CONTINUOUS
370
    -3
390
F
  0
LAYER
  5
42
330
2
100
AcDbSymbolTableRecord
100
AcDbLayerTableRecord
  2
DASHED
 70
     0
 62
     8
  6
DASHED
370
    -3
390
F
  0
ENDTAB
  0
TABLE
  2
STYLE
  5
3
330
0
100
AcDbSymbolTable
 70
     4
  0
STYLE
  5
11
330
3
100
AcDbSymbolTableRecord
100
AcDbTextStyleTableRecord
  2
STANDARD
 70
     0
 40
0.0
 41
1.0
 50
0.0
 71
     0
 42
0.225
  3
TXT
  4

  0
ENDTAB
  0
TABLE
  2
VIEW
  5
6
330
0
100
AcDbSymbolTable
 70
     0
  0
ENDTAB
  0
TABLE
  2
UCS
  5
7
330
0
100
AcDbSymbolTable
 70
     0
  0
ENDTAB
  0
TABLE
  2
APPID
  5
9
330
0
100
AcDbSymbolTable
 70
     2
  0
APPID
  5
12
330
9
100
AcDbSymbolTableRecord
100
AcDbRegAppTableRecord
  2
ACAD
 70
     0
  0
APPID
  5
E42
330
9
100
AcDbSymbolTableRecord
100
AcDbRegAppTableRecord
  2
ACAD_PSEXT
 70
     0
  0
ENDTAB
  0
TABLE
  2
DIMSTYLE
  5
A
330
0
100
AcDbSymbolTable
 70
     1
100
AcDbDimStyleTable
  0
DIMSTYLE
105
6AE
330
A
100
AcDbSymbolTableRecord
100
AcDbDimStyleTableRecord
  2
Standard
 70
     0
  3

  4

340
11
  0
ENDTAB
  0
TABLE
  2
BLOCK_RECORD
  5
1
330
0
100
AcDbSymbolTable
 70
    11
  0
BLOCK_RECORD
  5
1E
330
1
100
AcDbSymbolTableRecord
100
AcDbBlockTableRecord
  2
*Model_Space
340
21
  0
BLOCK_RECORD
  5
1A
330
1
100
AcDbSymbolTableRecord
100
AcDbBlockTableRecord
  2
*Paper_Space
340
1D
  0
ENDTAB
  0
ENDSEC
  0
SECTION
  2
BLOCKS
  0
BLOCK
  5
4A
330
1E
100
AcDbEntity
  8
0
100
AcDbBlockBegin
  2
*Model_Space
 70
     0
 10
0.0
 20
0.0
 30
0.0
  3
*Model_Space
  1

  4

  0
ENDBLK
  5
4B
330
1E
100
AcDbEntity
  8
0
100
AcDbBlockEnd
  0
BLOCK
  5
48
330
1A
100
AcDbEntity
 67
     1
  8
0
100
AcDbBlockBegin
  2
*Paper_Space
 70
     0
 10
0.0
 20
0.0
 30
0.0
  3
*Paper_Space
  1

  4

  0
ENDBLK
  5
49
330
1A
100
AcDbEntity
 67
     1
  8
0
100
AcDbBlockEnd
  0
ENDSEC
  0
SECTION
  2
ENTITIES
  0
LINE
  5
4AC
330
1E
100
AcDbEntity
  8
DASHED
100
AcDbLine
 10
5.102327109966735
 20
2.625154122649761
 30
0.0
 11
9.893827109966736
 21
2.625154122649761
 31
0.0
  0
LINE
  5
4AD
330
1E
100
AcDbEntity
  8
0
100
AcDbLine
 10
10.09182710996674
 20
2.42715412264976
 30
0.0
 11
10.09182710996674
 21
1.593275813404711
 31
0.0
  0
LINE
  5
4AE
330
1E
100
AcDbEntity
  8
0
100
AcDbLine
 10
4.904327109966735
 20
1.593275813404718
 30
0.0
 11
4.904327109966735
 21
2.42715412264976
 31
0.0
  0
LINE
  5
4B2
330
1E
100
AcDbEntity
  8
DASHED
100
AcDbLine
 10
-0.838774689217523
 20
1.903623805258217
 30
0.0
 11
0.973725310782477
 21
1.903623805258217
 31
0.0
  0
LINE
  5
4B3
330
1E
100
AcDbEntity
  8
0
100
AcDbLine
 10
-1.479024689217525
 20
2.667442209144756
 30
0.0
 11
1.613975310782479
 21
2.667442209144756
 31
0.0
  0
LINE
  5
4B5
330
1E
100
AcDbEntity
  8
0
100
AcDbLine
 10
-1.677024689217525
 20
2.469442209144756
 30
0.0
 11
-1.677024689217525
 21
1.653768423805911
 31
0.0
  0
LINE
  5
4B6
330
1E
100
AcDbEntity
  8
0
100
AcDbLine
 10
-1.551247709516374
 20
2.653800109270875
 30
0.0
 11
-1.493368881940285
 21
1.637571827879736
 31
0.0
  0
LINE
  5
4B7
330
1E
100
AcDbEntity
  8
DASHED
100
AcDbLine
 10
-0.838774689217523
 20
1.903623805258217
 30
0.0
 11
-0.838774689217523
 21
1.736571827879738
 31
0.0
  0
LINE
  5
4B8
330
1E
100
AcDbEntity
  8
DASHED
100
AcDbLine
 10
-0.276274689217523
 20
1.903623805258217
 30
0.0
 11
-0.276274689217523
 21
1.736571827879738
 31
0.0
  0
ARC
  5
4B9
330
1E
100
AcDbEntity
  8
0
100
AcDbCircle
 10
-1.586303060665948
 20
2.644949427768271
 30
0.0
 40
0.1422975532330006
100
AcDbArc
 50
234.9492034304758
 51
287.7071051057122
  0
LINE
  5
4BB
330
1E
100
AcDbEntity
  8
0
100
AcDbLine
 10
1.811975310782479
 20
2.469442209144756
 30
0.0
 11
1.811975310782479
 21
1.660412287158605
 31
0.0
  0
LINE
  5
4BC
330
1E
100
AcDbEntity
  8
0
100
AcDbLine
 10
1.686106867973179
 20
2.653835914181681
 30
0.0
 11
1.621242241673786
 21
1.637571827879736
 31
0.0
  0
LINE
  5
4BD
330
1E
100
AcDbEntity
  8
DASHED
100
AcDbLine
 10
0.411225310782477
 20
1.903623805258217
 30
0.0
 11
0.411225310782477
 21
1.736571827879738
 31
0.0
  0
LINE
  5
4BE
330
1E
100
AcDbEntity
  8
DASHED
100
AcDbLine
 10
0.973725310782477
 20
1.903623805258217
 30
0.0
 11
0.973725310782477
 21
1.731748805258217
 31
0.0
  0
ARC
  5
4BF
330
1E
100
AcDbEntity
  8
0
100
AcDbCircle
 10
1.714982849663613
 20
2.644949427768271
 30
0.0
 40
0.1422975532330006
100
AcDbArc
 50
254.4310766266246
 51
307.5832024775403
  0
LINE
  5
4C2
330
1E
100
AcDbEntity
  8
0
100
AcDbLine
 10
-1.092931232203608
 20
-6.101354098510981
 30
0.0
 11
1.22006876779655
 21
-6.101354098510981
 31
0.0
  0
LINE
  5
4C3
330
1E
100
AcDbEntity
  8
0
100
AcDbLine
 10
-1.092931232203608
 20
-1.909613608111904
 30
0.0
 11
1.22006876779655
 21
-1.909613608111904
 31
0.0
  0
LINE
  5
4C4
330
1E
100
AcDbEntity
  8
DASHED
100
AcDbLine
 10
-1.092931232203608
 20
-2.008613608111901
 30
0.0
 11
1.22006876779655
 21
-2.008613608111901
 31
0.0
  0
LINE
  5
4C5
330
1E
100
AcDbEntity
  8
DASHED
100
AcDbLine
 10
-1.248931232203529
 20
-3.071063608111906
 30
0.0
 11
0.0635687677964638
 21
-3.071063608111906
 31
0.0
  0
LINE
  5
4C6
330
1E
100
AcDbEntity
  8
DASHED
100
AcDbLine
 10
-1.248931232203529
 20
-2.758563608111757
 30
0.0
 11
0.0635687677964638
 21
-2.758563608111757
 31
0.0
  0
LINE
  5
4C7
330
1E
100
AcDbEntity
  8
DASHED
100
AcDbLine
 10
-1.248931232203529
 20
-2.321063608112034
 30
0.0
 11
0.0635687677964638
 21
-2.321063608112034
 31
0.0
  0
ARC
  5
4C8
330
1E
100
AcDbEntity
  8
0
100
AcDbCircle
 10
-0.4364312322035291
 20
-4.008613608111901
 30
0.0
 40
0.34375
100
AcDbArc
 50
89.99997617713687
 51
270.0
  0
LINE
  5
4C9
330
1E
100
AcDbEntity
  8
DASHED
100
AcDbLine
 10
-1.248931232203529
 20
-4.508663608111917
 30
0.0
 11
-0.0880203054852773
 21
-4.508663608111917
 31
0.0
  0
ARC
  5
4CA
330
1E
100
AcDbEntity
  8
0
100
AcDbCircle
 10
-0.3762476710961709
 20
-4.695984317626298
 30
0.0
 40
0.34375
100
AcDbArc
 50
24.78445374465106
 51
89.9999536670809
  0
LINE
  5
4CB
330
1E
100
AcDbEntity
  8
DASHED
100
AcDbLine
 10
-1.092931232203608
 20
-6.008613608111894
 30
0.0
 11
1.22006876779655
 21
-6.008613608111901
 31
0.0
  0
LINE
  5
4CC
330
1E
100
AcDbEntity
  8
DASHED
100
AcDbLine
 10
-1.248931232203529
 20
-4.946163608111895
 30
0.0
 11
0.0635687677964638
 21
-4.946163608111895
 31
0.0
  0
LINE
  5
4CD
330
1E
100
AcDbEntity
  8
DASHED
100
AcDbLine
 10
-1.248931232203529
 20
-5.258663608112052
 30
0.0
 11
0.0635687677964638
 21
-5.258663608112052
 31
0.0
  0
LINE
  5
4CE
330
1E
100
AcDbEntity
  8
DASHED
100
AcDbLine
 10
-1.248931232203529
 20
-5.696163608111768
 30
0.0
 11
0.0635687677964638
 21
-5.696163608111775
 31
0.0
  0
LINE
  5
4CF
330
1E
100
AcDbEntity
  8
DASHED
100
AcDbLine
 10
-1.248931232203529
 20
-3.508563608111885
 30
0.0
 11
0.0635687677964709
 21
-3.508563608111885
 31
0.0
  0
LINE
  5
4D0
330
1E
100
AcDbEntity
  8
0
100
AcDbLine
 10
-0.4364312322035291
 20
-3.664863608111901
 30
0.0
 11
0.0635687677964709
 21
-3.664863608111901
 31
0.0
  0
ARC
  5
4D3
330
1E
100
AcDbEntity
  8
DASHED
100
AcDbCircle
 10
-1.248931232203529
 20
-4.72741360811191
 30
0.0
 40
0.21875
100
AcDbArc
 50
89.99999999999986
 51
269.9999999999999
  0
LINE
  5
4D4
330
1E
100
AcDbEntity
  8
0
100
AcDbLine
 10
-1.717731232203538
 20
-1.508613608111908
 30
0.0
 11
-1.717731232203538
 21
-1.602113608111909
 31
0.0
  0
LINE
  5
4D5
330
1E
100
AcDbEntity
  8
0
100
AcDbLine
 10
-1.816731232203542
 20
-1.508613608111908
 30
0.0
 11
-1.816731232203538
 21
-6.508613608111091
 31
0.0
  0
ARC
  5
4D8
330
1E
100
AcDbEntity
  8
0
100
AcDbCircle
 10
-1.717731232203538
 20
-6.508613608111894
 30
0.0
 40
0.0935
100
AcDbArc
 50
0.0
 51
90.00000000000217
  0
LINE
  5
4DA
330
1E
100
AcDbEntity
  8
0
100
AcDbLine
 10
-1.816731232203527
 20
-6.415113608111901
 30
0.0
 11
-1.717731232203538
 21
-6.415113608111901
 31
0.0
  0
LINE
  5
4DB
330
1E
100
AcDbEntity
  8
0
100
AcDbLine
 10
-1.816731232203527
 20
-6.508613608111091
 30
0.0
 11
-1.717731232203538
 21
-6.508613608111091
 31
0.0
  0
ARC
  5
4DE
330
1E
100
AcDbEntity
  8
DASHED
100
AcDbCircle
 10
-1.248931232203529
 20
-5.47741360811191
 30
0.0
 40
0.21875
100
AcDbArc
 50
89.99999999999986
 51
269.9999999999999
  0
LINE
  5
4DF
330
1E
100
AcDbEntity
  8
0
100
AcDbLine
 10
-1.27993123220345
 20
-6.376413608111896
 30
0.0
 11
-1.412131232203454
 21
-6.508613608111894
 31
0.0
  0
LINE
  5
4E0
330
1E
100
AcDbEntity
  8
0
100
AcDbLine
 10
-1.412131232203454
 20
-6.508613608111894
 30
0.0
 11
-1.624231232203795
 21
-6.508613608111894
 31
0.0
  0
LINE
  5
4E1
330
1E
100
AcDbEntity
  8
0
100
AcDbLine
 10
-1.505831232203453
 20
-6.508613608111894
 30
0.0
 11
-1.624231232203496
 21
-6.508613608111894
 31
0.0
  0
ARC
  5
4E2
330
1E
100
AcDbEntity
  8
0
100
AcDbCircle
 10
-1.186431232203529
 20
-6.008613608111894
 30
0.0
 40
0.0935
100
AcDbArc
 50
359.9999001805695
 51
180.0000998194305
  0
LINE
  5
4E3
330
1E
100
AcDbEntity
  8
0
100
AcDbLine
 10
-1.092931232203608
 20
-6.008613608111901
 30
0.0
 11
-1.092931232203609
 21
-6.101354098510981
 31
0.0
  0
LINE
  5
4E4
330
1E
100
AcDbEntity
  8
0
100
AcDbLine
 10
-1.27993123220345
 20
-6.008613608111901
 30
0.0
 11
-1.27993123220345
 21
-6.376413608111896
 31
0.0
  0
CIRCLE
  5
4E6
330
1E
100
AcDbEntity
  8
0
100
AcDbCircle
 10
-1.061431232203515
 20
-5.477413608111895
 30
0.0
 40
0.0855
  0
ARC
  5
4E8
330
1E
100
AcDbEntity
  8
0
100
AcDbCircle
 10
-1.717731232203538
 20
-1.508613608111908
 30
0.0
 40
0.0935
100
AcDbArc
 50
269.9999999999978
 51
0.0000000000021771
  0
LINE
  5
4EC
330
1E
100
AcDbEntity
  8
0
100
AcDbLine
 10
-1.816731232203527
 20
-1.508613608111908
 30
0.0
 11
-1.717731232203538
 21
-1.508613608111908
 31
0.0
  0
CIRCLE
  5
4EE
330
1E
100
AcDbEntity
  8
0
100
AcDbCircle
 10
-1.061431232203522
 20
-2.539813608111899
 30
0.0
 40
0.0855
  0
ARC
  5
4EF
330
1E
100
AcDbEntity
  8
DASHED
100
AcDbCircle
 10
-1.248931232203529
 20
-2.539813608111899
 30
0.0
 40
0.21875
100
AcDbArc
 50
90.00000000000011
 51
270.0000000000002
  0
LINE
  5
4F0
330
1E
100
AcDbEntity
  8
DASHED
100
AcDbLine
 10
-1.248931232203529
 20
-4.227363608111766
 30
0.0
 11
-0.7015962751485221
 21
-4.227363608111766
 31
0.0
  0
LINE
  5
4F1
330
1E
100
AcDbEntity
  8
DASHED
100
AcDbLine
 10
-1.248931232203529
 20
-3.789863608112029
 30
0.0
 11
-0.7015962751486358
 21
-3.789863608112029
 31
0.0
  0
ARC
  5
4F2
330
1E
100
AcDbEntity
  8
DASHED
100
AcDbCircle
 10
-1.248931232203529
 20
-4.008613608111901
 30
0.0
 40
0.21875
100
AcDbArc
 50
90.00000000000011
 51
270.0000000000002
  0
ARC
  5
4F3
330
1E
100
AcDbEntity
  8
DASHED
100
AcDbCircle
 10
-1.248931232203529
 20
-3.289813608111899
 30
0.0
 40
0.21875
100
AcDbArc
 50
90.00000000000011
 51
270.0000000000002
  0
LINE
  5
4F4
330
1E
100
AcDbEntity
  8
0
100
AcDbLine
 10
-0.4364312322035291
 20
-4.352363608111901
 30
0.0
 11
-0.3668205563304072
 21
-4.352363608111901
 31
0.0
  0
LINE
  5
4F5
330
1E
100
AcDbEntity
  8
0
100
AcDbLine
 10
-1.27993123220345
 20
-1.640813608111905
 30
0.0
 11
-1.412131232203454
 21
-1.508613608111908
 31
0.0
  0
LINE
  5
4F6
330
1E
100
AcDbEntity
  8
0
100
AcDbLine
 10
-1.624231232203795
 20
-1.508613608111908
 30
0.0
 11
-1.412131232203454
 21
-1.508613608111908
 31
0.0
  0
LINE
  5
4F7
330
1E
100
AcDbEntity
  8
0
100
AcDbLine
 10
-1.505831232203453
 20
-1.508613608111908
 30
0.0
 11
-1.624231232203795
 21
-1.508613608111908
 31
0.0
  0
LINE
  5
4F8
330
1E
100
AcDbEntity
  8
0
100
AcDbLine
 10
-1.092931232203608
 20
-2.008613608111901
 30
0.0
 11
-1.092931232203608
 21
-1.909613608111904
 31
0.0
  0
LINE
  5
4F9
330
1E
100
AcDbEntity
  8
0
100
AcDbLine
 10
-1.27993123220345
 20
-2.008613608111901
 30
0.0
 11
-1.27993123220345
 21
-1.640813608111905
 31
0.0
  0
ARC
  5
4FA
330
1E
100
AcDbEntity
  8
0
100
AcDbCircle
 10
-1.186431232203529
 20
-2.008613608111901
 30
0.0
 40
0.0935
100
AcDbArc
 50
179.9999001805695
 51
0.0000998194305355
  0
LINE
  5
4FD
330
1E
100
AcDbEntity
  8
0
100
AcDbLine
 10
-0.0657092183254919
 20
-4.548573558687558
 30
0.0
 11
-0.028927873390697
 21
-4.628232697373235
 31
0.0
  0
ARC
  5
4FE
330
1E
100
AcDbEntity
  8
0
100
AcDbCircle
 10
0.2813687677964749
 20
-4.480313608111892
 30
0.0
 40
0.34375
100
AcDbArc
 50
204.0815263086942
 51
24.78444436489547
  0
ARC
  5
4FF
330
1E
100
AcDbEntity
  8
DASHED
100
AcDbCircle
 10
1.376068767796471
 20
-4.72741360811191
 30
0.0
 40
0.21875
100
AcDbArc
 50
270.0
 51
90.00000000000003
  0
LINE
  5
500
330
1E
100
AcDbEntity
  8
0
100
AcDbLine
 10
1.844868767796473
 20
-1.508613608111908
 30
0.0
 11
1.844868767796473
 21
-1.602113608111909
 31
0.0
  0
LINE
  5
501
330
1E
100
AcDbEntity
  8
0
100
AcDbLine
 10
1.943868767796469
 20
-1.508613608111908
 30
0.0
 11
1.943868767796469
 21
-6.508613608111091
 31
0.0
  0
LINE
  5
50A
330
1E
100
AcDbEntity
  8
0
100
AcDbLine
 10
1.407068767796392
 20
-6.376413608111896
 30
0.0
 11
1.539268767796389
 21
-6.508613608111894
 31
0.0
  0
ARC
  5
50B
330
1E
100
AcDbEntity
  8
DASHED
100
AcDbCircle
 10
1.376068767796471
 20
-5.47741360811191
 30
0.0
 40
0.21875
100
AcDbArc
 50
270.0
 51
90.00000000000003
  0
LINE
  5
510
330
1E
100
AcDbEntity
  8
DASHED
100
AcDbLine
 10
1.376068767796471
 20
-4.946163608111895
 30
0.0
 11
0.0635687677964709
 21
-4.946163608111895
 31
0.0
  0
LINE
  5
511
330
1E
100
AcDbEntity
  8
DASHED
100
AcDbLine
 10
1.376068767796471
 20
-5.258663608112052
 30
0.0
 11
0.0635687677964709
 21
-5.258663608112052
 31
0.0
  0
LINE
  5
512
330
1E
100
AcDbEntity
  8
DASHED
100
AcDbLine
 10
1.376068767796471
 20
-5.696163608111768
 30
0.0
 11
0.0635687677964709
 21
-5.696163608111775
 31
0.0
  0
ARC
  5
514
330
1E
100
AcDbEntity
  8
0
100
AcDbCircle
 10
1.313568767796471
 20
-6.008613608111894
 30
0.0
 40
0.0935
100
AcDbArc
 50
359.9999001805695
 51
180.0000998194305
  0
LINE
  5
515
330
1E
100
AcDbEntity
  8
0
100
AcDbLine
 10
1.407068767796392
 20
-6.008613608111901
 30
0.0
 11
1.407068767796392
 21
-6.376413608111896
 31
0.0
  0
LINE
  5
516
330
1E
100
AcDbEntity
  8
0
100
AcDbLine
 10
1.22006876779655
 20
-6.008613608111901
 30
0.0
 11
1.22006876779655
 21
-6.101354098510981
 31
0.0
  0
CIRCLE
  5
518
330
1E
100
AcDbEntity
  8
0
100
AcDbCircle
 10
1.188568767796464
 20
-5.477413608111895
 30
0.0
 40
0.0855
  0
ARC
  5
519
330
1E
100
AcDbEntity
  8
0
100
AcDbCircle
 10
1.844868767796473
 20
-6.508613608111901
 30
0.0
 40
0.0935
100
AcDbArc
 50
90.0
 51
179.9999999999978
  0
LINE
  5
51A
330
1E
100
AcDbEntity
  8
0
100
AcDbLine
 10
1.751368767796204
 20
-6.508613608111894
 30
0.0
 11
1.539268767796389
 21
-6.508613608111894
 31
0.0
  0
LINE
  5
51B
330
1E
100
AcDbEntity
  8
0
100
AcDbLine
 10
1.632968767796387
 20
-6.508613608111901
 30
0.0
 11
1.751368767796204
 21
-6.508613608111901
 31
0.0
  0
LINE
  5
51C
330
1E
100
AcDbEntity
  8
0
100
AcDbLine
 10
1.943868767796462
 20
-6.508613608111091
 30
0.0
 11
1.844868767796473
 21
-6.508613608111091
 31
0.0
  0
LINE
  5
51D
330
1E
100
AcDbEntity
  8
0
100
AcDbLine
 10
1.943868767796462
 20
-6.415113608111901
 30
0.0
 11
1.844868767796473
 21
-6.415113608111901
 31
0.0
  0
ARC
  5
52C
330
1E
100
AcDbEntity
  8
DASHED
100
AcDbCircle
 10
1.376068767796471
 20
-2.539813608111899
 30
0.0
 40
0.21875
100
AcDbArc
 50
270.0
 51
90.0
  0
LINE
  5
52D
330
1E
100
AcDbEntity
  8
0
100
AcDbLine
 10
1.539268767796389
 20
-1.508613608111908
 30
0.0
 11
1.407068767796392
 21
-1.640813608111905
 31
0.0
  0
ARC
  5
52E
330
1E
100
AcDbEntity
  8
DASHED
100
AcDbCircle
 10
1.376068767796471
 20
-4.008613608111901
 30
0.0
 40
0.21875
100
AcDbArc
 50
270.0
 51
90.0
  0
ARC
  5
52F
330
1E
100
AcDbEntity
  8
DASHED
100
AcDbCircle
 10
1.376068767796471
 20
-3.289813608111899
 30
0.0
 40
0.21875
100
AcDbArc
 50
270.0
 51
90.0
  0
CIRCLE
  5
531
330
1E
100
AcDbEntity
  8
0
100
AcDbCircle
 10
1.188568767796471
 20
-2.539813608111899
 30
0.0
 40
0.0855
  0
LINE
  5
532
330
1E
100
AcDbEntity
  8
DASHED
100
AcDbLine
 10
1.376068767796471
 20
-3.071063608111906
 30
0.0
 11
0.0635687677964709
 21
-3.071063608111906
 31
0.0
  0
LINE
  5
533
330
1E
100
AcDbEntity
  8
DASHED
100
AcDbLine
 10
1.376068767796471
 20
-2.758563608111757
 30
0.0
 11
0.0635687677964709
 21
-2.758563608111757
 31
0.0
  0
LINE
  5
534
330
1E
100
AcDbEntity
  8
DASHED
100
AcDbLine
 10
1.376068767796471
 20
-4.508663608111917
 30
0.0
 11
0.6239477221996905
 21
-4.508663608111924
 31
0.0
  0
LINE
  5
535
330
1E
100
AcDbEntity
  8
DASHED
100
AcDbLine
 10
1.376068767796471
 20
-4.227363608111766
 30
0.0
 11
0.5431975383524046
 21
-4.227363608111766
 31
0.0
  0
LINE
  5
536
330
1E
100
AcDbEntity
  8
DASHED
100
AcDbLine
 10
1.376068767796471
 20
-3.789863608112029
 30
0.0
 11
0.3287338107416771
 21
-3.789863608112029
 31
0.0
  0
LINE
  5
537
330
1E
100
AcDbEntity
  8
DASHED
100
AcDbLine
 10
1.376068767796471
 20
-3.508563608111885
 30
0.0
 11
0.0635687677964709
 21
-3.508563608111885
 31
0.0
  0
ARC
  5
538
330
1E
100
AcDbEntity
  8
0
100
AcDbCircle
 10
0.0635687677964709
 20
-4.008613608111901
 30
0.0
 40
0.34375
100
AcDbArc
 50
24.78445374465106
 51
89.9999536670809
  0
LINE
  5
539
330
1E
100
AcDbEntity
  8
0
100
AcDbLine
 10
0.3756565646498897
 20
-3.864512013550367
 30
0.0
 11
0.5934565646498937
 21
-4.336212013550359
 31
0.0
  0
LINE
  5
53B
330
1E
100
AcDbEntity
  8
DASHED
100
AcDbLine
 10
1.376068767796471
 20
-2.321063608112034
 30
0.0
 11
0.0635687677964709
 21
-2.321063608112034
 31
0.0
  0
LINE
  5
53E
330
1E
100
AcDbEntity
  8
0
100
AcDbLine
 10
1.407068767796392
 20
-2.008613608111901
 30
0.0
 11
1.407068767796392
 21
-1.640813608111905
 31
0.0
  0
LINE
  5
53F
330
1E
100
AcDbEntity
  8
0
100
AcDbLine
 10
1.22006876779655
 20
-2.008613608111901
 30
0.0
 11
1.22006876779655
 21
-1.909613608111904
 31
0.0
  0
ARC
  5
540
330
1E
100
AcDbEntity
  8
0
100
AcDbCircle
 10
1.313568767796471
 20
-2.008613608111901
 30
0.0
 40
0.0935
100
AcDbArc
 50
179.9999001805695
 51
0.0000998194305161
  0
ARC
  5
545
330
1E
100
AcDbEntity
  8
0
100
AcDbCircle
 10
1.844868767796473
 20
-1.508613608111908
 30
0.0
 40
0.0935
100
AcDbArc
 50
180.0
 51
270.0
  0
LINE
  5
546
330
1E
100
AcDbEntity
  8
0
100
AcDbLine
 10
1.539268767796389
 20
-1.508613608111908
 30
0.0
 11
1.751368767796808
 21
-1.508613608111908
 31
0.0
  0
LINE
  5
547
330
1E
100
AcDbEntity
  8
0
100
AcDbLine
 10
1.943868767796462
 20
-1.508613608111908
 30
0.0
 11
1.844868767796473
 21
-1.508613608111908
 31
0.0
  0
LINE
  5
578
330
1E
100
AcDbEntity
  8
0
100
AcDbLine
 10
4.987039776935957
 20
1.494275813404716
 30
0.0
 11
9.987039776935951
 21
1.494275813404716
 31
0.0
  0
LINE
  5
579
330
1E
100
AcDbEntity
  8
0
100
AcDbLine
 10
5.237039776935957
 20
8.595403207457053
 30
0.0
 11
9.737039776935951
 21
8.595403207457053
 31
0.0
  0
LINE
  5
57A
330
1E
100
AcDbEntity
  8
0
100
AcDbLine
 10
4.904327109966737
 20
1.59327581340472
 30
0.0
 11
5.080491799002624
 21
1.59327581340472
 31
0.0
  0
LINE
  5
57B
330
1E
100
AcDbEntity
  8
DASHED
100
AcDbLine
 10
5.868894483603269
 20
1.692275813404716
 30
0.0
 11
6.181394483602979
 21
1.69227581340472
 31
0.0
  0
LINE
  5
57C
330
1E
100
AcDbEntity
  8
0
100
AcDbLine
 10
4.987039776935955
 20
1.494275813404716
 30
0.0
 11
4.987039776935955
 21
1.59327581340472
 31
0.0
  0
LINE
  5
57E
330
1E
100
AcDbEntity
  8
0
100
AcDbLine
 10
5.080491799002624
 20
1.593275813404713
 30
0.0
 11
5.080491799002624
 21
1.494275813404716
 31
0.0
  0
ARC
  5
57F
330
1E
100
AcDbEntity
  8
0
100
AcDbCircle
 10
4.987090011152025
 20
1.59756020674703
 30
0.0
 40
0.0935
100
AcDbArc
 50
357.3736508865426
 51
90.03078298081768
  0
LINE
  5
580
330
1E
100
AcDbEntity
  8
DASHED
100
AcDbLine
 10
5.401203993204046
 20
2.008640523560903
 30
0.0
 11
5.401203993204046
 21
1.59327581340472
 31
0.0
  0
LINE
  5
581
330
1E
100
AcDbEntity
  8
DASHED
100
AcDbLine
 10
5.493944483603144
 20
2.008640523560903
 30
0.0
 11
5.493944483603144
 21
1.59327581340472
 31
0.0
  0
LINE
  5
582
330
1E
100
AcDbEntity
  8
DASHED
100
AcDbLine
 10
5.401203993204046
 20
1.876440523560913
 30
0.0
 11
5.493944483603144
 21
1.876440523560913
 31
0.0
  0
LINE
  5
583
330
1E
100
AcDbEntity
  8
DASHED
100
AcDbLine
 10
5.401203993204048
 20
2.008640523560903
 30
0.0
 11
5.493944483603144
 21
2.008640523560903
 31
0.0
  0
ARC
  5
584
330
1E
100
AcDbEntity
  8
DASHED
100
AcDbCircle
 10
5.868894483603269
 20
1.629775813404716
 30
0.0
 40
0.0625
100
AcDbArc
 50
90.0
 51
180.0
  0
LINE
  5
585
330
1E
100
AcDbEntity
  8
DASHED
100
AcDbLine
 10
5.806394483603269
 20
1.629775813404716
 30
0.0
 11
5.806394483603269
 21
1.59327581340472
 31
0.0
  0
CIRCLE
  5
589
330
1E
100
AcDbEntity
  8
0
100
AcDbCircle
 10
9.61627620925389
 20
5.470403207457053
 30
0.0
 40
0.0855
  0
CIRCLE
  5
58B
330
1E
100
AcDbEntity
  8
0
100
AcDbCircle
 10
6.612059781812755
 20
8.220403207457053
 30
0.0
 40
0.0855
  0
LINE
  5
58D
330
1E
100
AcDbEntity
  8
0
100
AcDbLine
 10
4.987039776935957
 20
8.345403207457053
 30
0.0
 11
5.237039776935957
 21
8.595403207457053
 31
0.0
  0
ARC
  5
58E
330
1E
100
AcDbEntity
  8
DASHED
100
AcDbCircle
 10
7.650194483602997
 20
1.629775813404716
 30
0.0
 40
0.0625
100
AcDbArc
 50
0.0
 51
89.99999999999946
  0
LINE
  5
593
330
1E
100
AcDbEntity
  8
DASHED
100
AcDbLine
 10
6.61889448360313
 20
1.692275813404716
 30
0.0
 11
6.931394483603112
 21
1.692275813404716
 31
0.0
  0
ARC
  5
594
330
1E
100
AcDbEntity
  8
DASHED
100
AcDbCircle
 10
6.181394483602979
 20
1.62977581340472
 30
0.0
 40
0.0625
100
AcDbArc
 50
0.0
 51
90.0
  0
LINE
  5
595
330
1E
100
AcDbEntity
  8
DASHED
100
AcDbLine
 10
6.243894483602979
 20
1.62977581340472
 30
0.0
 11
6.243894483602979
 21
1.59327581340472
 31
0.0
  0
ARC
  5
596
330
1E
100
AcDbEntity
  8
DASHED
100
AcDbCircle
 10
6.61889448360313
 20
1.629775813404716
 30
0.0
 40
0.0625
100
AcDbArc
 50
90.0
 51
180.0
  0
LINE
  5
597
330
1E
100
AcDbEntity
  8
DASHED
100
AcDbLine
 10
6.55639448360313
 20
1.629775813404716
 30
0.0
 11
6.556394483603132
 21
1.59327581340472
 31
0.0
  0
ARC
  5
598
330
1E
100
AcDbEntity
  8
DASHED
100
AcDbCircle
 10
7.337694483603242
 20
1.629775813404716
 30
0.0
 40
0.0625
100
AcDbArc
 50
89.99999999999953
 51
180.000000000001
  0
ARC
  5
599
330
1E
100
AcDbEntity
  8
DASHED
100
AcDbCircle
 10
6.931394483603112
 20
1.629775813404716
 30
0.0
 40
0.0625
100
AcDbArc
 50
0.0000000000010178
 51
90.0
  0
LINE
  5
59A
330
1E
100
AcDbEntity
  8
DASHED
100
AcDbLine
 10
6.993894483603112
 20
1.62977581340472
 30
0.0
 11
6.993894483603112
 21
1.59327581340472
 31
0.0
  0
LINE
  5
59B
330
1E
100
AcDbEntity
  8
DASHED
100
AcDbLine
 10
7.337694483603242
 20
1.692275813404716
 30
0.0
 11
7.650194483602997
 21
1.692275813404716
 31
0.0
  0
LINE
  5
59C
330
1E
100
AcDbEntity
  8
DASHED
100
AcDbLine
 10
7.275194483603242
 20
1.629775813404716
 30
0.0
 11
7.275194483603242
 21
1.59327581340472
 31
0.0
  0
ARC
  5
59D
330
1E
100
AcDbEntity
  8
DASHED
100
AcDbCircle
 10
8.368994483603117
 20
1.629775813404716
 30
0.0
 40
0.0625
100
AcDbArc
 50
0.0
 51
90.0
  0
ARC
  5
59E
330
1E
100
AcDbEntity
  8
DASHED
100
AcDbCircle
 10
8.056494483603123
 20
1.629775813404716
 30
0.0
 40
0.0625
100
AcDbArc
 50
90.0
 51
180.0
  0
LINE
  5
59F
330
1E
100
AcDbEntity
  8
DASHED
100
AcDbLine
 10
7.712694483602997
 20
1.629775813404716
 30
0.0
 11
7.712694483602997
 21
1.59327581340472
 31
0.0
  0
LINE
  5
5A0
330
1E
100
AcDbEntity
  8
DASHED
100
AcDbLine
 10
7.993994483603123
 20
1.629775813404716
 30
0.0
 11
7.993994483603123
 21
1.59327581340472
 31
0.0
  0
LINE
  5
5A1
330
1E
100
AcDbEntity
  8
DASHED
100
AcDbLine
 10
8.056494483603123
 20
1.692275813404716
 30
0.0
 11
8.368994483603117
 21
1.692275813404716
 31
0.0
  0
LINE
  5
5A2
330
1E
100
AcDbEntity
  8
DASHED
100
AcDbLine
 10
8.431494483603117
 20
1.629775813404716
 30
0.0
 11
8.431494483603117
 21
1.59327581340472
 31
0.0
  0
LINE
  5
5A3
330
1E
100
AcDbEntity
  8
DASHED
100
AcDbLine
 10
8.806494483603276
 20
1.692275813404709
 30
0.0
 11
9.118994483602975
 21
1.692275813404716
 31
0.0
  0
ARC
  5
5A4
330
1E
100
AcDbEntity
  8
DASHED
100
AcDbCircle
 10
8.806494483603276
 20
1.629775813404709
 30
0.0
 40
0.0625
100
AcDbArc
 50
90.00000000000048
 51
180.0000000000021
  0
LINE
  5
5A5
330
1E
100
AcDbEntity
  8
DASHED
100
AcDbLine
 10
8.743994483603276
 20
1.629775813404709
 30
0.0
 11
8.743994483603277
 21
1.59327581340472
 31
0.0
  0
ARC
  5
5A6
330
1E
100
AcDbEntity
  8
DASHED
100
AcDbCircle
 10
9.118994483602975
 20
1.629775813404716
 30
0.0
 40
0.0625
100
AcDbArc
 50
0.0
 51
90.0000000000005
  0
LINE
  5
5A7
330
1E
100
AcDbEntity
  8
DASHED
100
AcDbLine
 10
9.181494483602975
 20
1.629775813404716
 30
0.0
 11
9.181494483602975
 21
1.59327581340472
 31
0.0
  0
CIRCLE
  5
5A8
330
1E
100
AcDbEntity
  8
0
100
AcDbCircle
 10
7.48703977693596
 20
5.282903207457046
 30
0.0
 40
0.3435
  0
CIRCLE
  5
5A9
330
1E
100
AcDbEntity
  8
0
100
AcDbCircle
 10
7.48703977693596
 20
7.282903207457053
 30
0.0
 40
0.3435
  0
CIRCLE
  5
5AC
330
1E
100
AcDbEntity
  8
0
100
AcDbCircle
 10
5.360259694963219
 20
6.720403207457061
 30
0.0
 40
0.0855
  0
CIRCLE
  5
5AE
330
1E
100
AcDbEntity
  8
0
100
AcDbCircle
 10
6.618339038967651
 20
4.720403207457053
 30
0.0
 40
0.0855
  0
CIRCLE
  5
5B1
330
1E
100
AcDbEntity
  8
0
100
AcDbCircle
 10
9.612059781812757
 20
8.220403207457053
 30
0.0
 40
0.0855
  0
LINE
  5
5B6
330
1E
100
AcDbEntity
  8
0
100
AcDbLine
 10
9.987039776935951
 20
8.345403207457053
 30
0.0
 11
9.987039776935951
 21
1.69106020674703
 31
0.0
  0
LINE
  5
5B7
330
1E
100
AcDbEntity
  8
0
100
AcDbLine
 10
9.893637989085363
 20
1.593275813404713
 30
0.0
 11
9.893637989085363
 21
1.494275813404716
 31
0.0
  0
LINE
  5
5B8
330
1E
100
AcDbEntity
  8
DASHED
100
AcDbLine
 10
9.592944483603127
 20
2.008640523560903
 30
0.0
 11
9.592944483603127
 21
1.593275813404713
 31
0.0
  0
LINE
  5
5B9
330
1E
100
AcDbEntity
  8
DASHED
100
AcDbLine
 10
9.493944483603123
 20
2.008640523560903
 30
0.0
 11
9.493944483603123
 21
1.593275813404713
 31
0.0
  0
LINE
  5
5BA
330
1E
100
AcDbEntity
  8
DASHED
100
AcDbLine
 10
9.493944483603123
 20
1.876440523560913
 30
0.0
 11
9.592944483603127
 21
1.876440523560913
 31
0.0
  0
LINE
  5
5BB
330
1E
100
AcDbEntity
  8
DASHED
100
AcDbLine
 10
9.493944483603123
 20
2.008640523560903
 30
0.0
 11
9.592944483603127
 21
2.008640523560903
 31
0.0
  0
ARC
  5
5BC
330
1E
100
AcDbEntity
  8
0
100
AcDbCircle
 10
9.987039776935959
 20
1.59756020674703
 30
0.0
 40
0.0935
100
AcDbArc
 50
90.0
 51
182.6263491134573
  0
CIRCLE
  5
5C1
330
1E
100
AcDbEntity
  8
0
100
AcDbCircle
 10
8.360259694963366
 20
6.720403207457061
 30
0.0
 40
0.0855
  0
LINE
  5
5C3
330
1E
100
AcDbEntity
  8
0
100
AcDbLine
 10
9.987039776935951
 20
8.345403207457053
 30
0.0
 11
9.737039776935951
 21
8.595403207457053
 31
0.0
  0
LINE
  5
5EB
330
1E
100
AcDbEntity
  8
DASHED
100
AcDbLine
 10
-0.9607312322036101
 20
2.049143179661545
 30
0.0
 11
1.087868767796547
 21
2.049143179661545
 31
0.0
  0
LINE
  5
5EC
330
1E
100
AcDbEntity
  8
0
100
AcDbLine
 10
-1.686850862542769
 20
1.543821827879736
 30
0.0
 11
1.247492246381192
 21
1.543821827879736
 31
0.0
  0
LINE
  5
5ED
330
1E
100
AcDbEntity
  8
0
100
AcDbLine
 10
-1.811850862542769
 20
8.637571827879739
 30
0.0
 11
-1.811850862542769
 21
1.668821827879736
 31
0.0
  0
LINE
  5
5EE
330
1E
100
AcDbEntity
  8
0
100
AcDbLine
 10
-1.718100862542769
 20
8.637571827879739
 30
0.0
 11
-1.718100862542769
 21
1.731321827879736
 31
0.0
  0
ARC
  5
5F0
330
1E
100
AcDbEntity
  8
0
100
AcDbCircle
 10
-1.624350862542769
 20
1.731321827879736
 30
0.0
 40
0.09375
100
AcDbArc
 50
180.0
 51
270.0
  0
ARC
  5
5F4
330
1E
100
AcDbEntity
  8
0
100
AcDbCircle
 10
-1.686850862542769
 20
1.668821827879736
 30
0.0
 40
0.125
100
AcDbArc
 50
180.0
 51
270.0
  0
LINE
  5
5F5
330
1E
100
AcDbEntity
  8
0
100
AcDbLine
 10
-1.811850862542769
 20
1.825071827879736
 30
0.0
 11
-1.718100862542769
 21
1.825071827879736
 31
0.0
  0
LINE
  5
5F8
330
1E
100
AcDbEntity
  8
0
100
AcDbLine
 10
-1.624350862542769
 20
1.637571827879736
 30
0.0
 11
1.750649137457231
 21
1.637571827879738
 31
0.0
  0
LINE
  5
5F9
330
1E
100
AcDbEntity
  8
0
100
AcDbLine
 10
-1.618780198512329
 20
1.543821827879736
 30
0.0
 11
-1.618780198512329
 21
1.644151611800265
 31
0.0
  0
LINE
  5
5FA
330
1E
100
AcDbEntity
  8
0
100
AcDbLine
 10
-1.412131232203453
 20
1.543821827879736
 30
0.0
 11
-1.412131232203453
 21
1.637571827879736
 31
0.0
  0
LINE
  5
5FB
330
1E
100
AcDbEntity
  8
DASHED
100
AcDbLine
 10
-1.461953971531667
 20
1.637571827879736
 30
0.0
 11
-1.461953971531667
 21
1.642821827879736
 31
0.0
  0
LINE
  5
5FC
330
1E
100
AcDbEntity
  8
DASHED
100
AcDbLine
 10
-0.9607312322036101
 20
2.049143179661545
 30
0.0
 11
-1.092931232203608
 21
1.916943179661548
 31
0.0
  0
LINE
  5
5FD
330
1E
100
AcDbEntity
  8
0
100
AcDbLine
 10
-1.27665285972153
 20
1.543821827879736
 30
0.0
 11
-1.27665285972153
 21
1.637571827879736
 31
0.0
  0
LINE
  5
5FE
330
1E
100
AcDbEntity
  8
0
100
AcDbLine
 10
-1.092931232203608
 20
1.543821827879736
 30
0.0
 11
-1.092931232203608
 21
1.637571827879736
 31
0.0
  0
LINE
  5
603
330
1E
100
AcDbEntity
  8
0
100
AcDbLine
 10
-1.718100862542769
 20
8.372331828468816
 30
0.0
 11
-1.811850862542769
 21
8.372331828468816
 31
0.0
  0
LINE
  5
604
330
1E
100
AcDbEntity
  8
0
100
AcDbLine
 10
-1.718100862542769
 20
8.637571827879739
 30
0.0
 11
-1.811850862542769
 21
8.637571827879739
 31
0.0
  0
LINE
  5
608
330
1E
100
AcDbEntity
  8
0
100
AcDbLine
 10
1.938149137457231
 20
1.668821827879736
 30
0.0
 11
1.938149137457231
 21
8.637571827879739
 31
0.0
  0
LINE
  5
609
330
1E
100
AcDbEntity
  8
0
100
AcDbLine
 10
1.844399137457231
 20
1.731321827879736
 30
0.0
 11
1.844399137457231
 21
8.637571827879739
 31
0.0
  0
LINE
  5
60B
330
1E
100
AcDbEntity
  8
0
100
AcDbLine
 10
1.247492246381192
 20
1.543821827879736
 30
0.0
 11
1.813149137457231
 21
1.543821827879736
 31
0.0
  0
LINE
  5
610
330
1E
100
AcDbEntity
  8
DASHED
100
AcDbLine
 10
1.087868767796547
 20
2.049143179661552
 30
0.0
 11
1.220068767796551
 21
1.916943179661555
 31
0.0
  0
LINE
  5
611
330
1E
100
AcDbEntity
  8
0
100
AcDbLine
 10
1.220068767796551
 20
1.543821827879736
 30
0.0
 11
1.220068767796551
 21
1.637571827879736
 31
0.0
  0
LINE
  5
612
330
1E
100
AcDbEntity
  8
0
100
AcDbLine
 10
1.405183930045951
 20
1.543821827879736
 30
0.0
 11
1.405183930045951
 21
1.637571827879738
 31
0.0
  0
ARC
  5
613
330
1E
100
AcDbEntity
  8
0
100
AcDbCircle
 10
1.813149137457231
 20
1.668821827879736
 30
0.0
 40
0.125
100
AcDbArc
 50
270.0
 51
0.0
  0
ARC
  5
614
330
1E
100
AcDbEntity
  8
0
100
AcDbCircle
 10
1.750649137457231
 20
1.731321827879736
 30
0.0
 40
0.09375
100
AcDbArc
 50
270.0
 51
0.0
  0
LINE
  5
615
330
1E
100
AcDbEntity
  8
0
100
AcDbLine
 10
1.537620382511634
 20
1.543821827879736
 30
0.0
 11
1.537620382511634
 21
1.637571827879738
 31
0.0
  0
LINE
  5
616
330
1E
100
AcDbEntity
  8
DASHED
100
AcDbLine
 10
1.581765801301977
 20
1.637571827879736
 30
0.0
 11
1.581765801301977
 21
1.642821827879738
 31
0.0
  0
LINE
  5
617
330
1E
100
AcDbEntity
  8
0
100
AcDbLine
 10
1.758347672558003
 20
1.543821827879736
 30
0.0
 11
1.758347672558003
 21
1.644151611800265
 31
0.0
  0
LINE
  5
618
330
1E
100
AcDbEntity
  8
0
100
AcDbLine
 10
1.844399137457231
 20
1.825071827879736
 30
0.0
 11
1.938149137457231
 21
1.825071827879736
 31
0.0
  0
LINE
  5
61A
330
1E
100
AcDbEntity
  8
0
100
AcDbLine
 10
1.938149137457231
 20
8.372331828468816
 30
0.0
 11
1.844399137457231
 21
8.372331828468816
 31
0.0
  0
LINE
  5
61B
330
1E
100
AcDbEntity
  8
0
100
AcDbLine
 10
1.938149137457231
 20
8.637571827879739
 30
0.0
 11
1.844399137457231
 21
8.637571827879739
 31
0.0
  0
LINE
  5
668
330
1E
100
AcDbEntity
  8
DASHED
100
AcDbLine
 10
1.844868767796473
 20
-1.602113608111909
 30
0.0
 11
1.844868767796473
 21
-6.415113608111901
 31
0.0
  0
LINE
  5
669
330
1E
100
AcDbEntity
  8
DASHED
100
AcDbLine
 10
-1.717731232203538
 20
-1.602113608111909
 30
0.0
 11
-1.717731232203541
 21
-6.415113608111894
 31
0.0
  0
LINE
  5
66A
330
1E
100
AcDbEntity
  8
0
100
AcDbLine
 10
1.943868767796462
 20
-1.602113608111909
 30
0.0
 11
1.844868767796473
 21
-1.602113608111909
 31
0.0
  0
LINE
  5
66B
330
1E
100
AcDbEntity
  8
0
100
AcDbLine
 10
-1.816731232203527
 20
-1.602113608111909
 30
0.0
 11
-1.717731232203538
 21
-1.602113608111909
 31
0.0
  0
LINE
  5
66C
330
1E
100
AcDbEntity
  8
0
100
AcDbLine
 10
1.376068767796471
 20
-2.420063608112034
 30
0.0
 11
0.0635687677964709
 21
-2.420063608112034
 31
0.0
  0
ARC
  5
66D
330
1E
100
AcDbEntity
  8
0
100
AcDbCircle
 10
1.376068767796471
 20
-2.539813608111899
 30
0.0
 40
0.11975
100
AcDbArc
 50
270.0
 51
90.0
  0
LINE
  5
66E
330
1E
100
AcDbEntity
  8
0
100
AcDbLine
 10
1.376068767796471
 20
-2.659563608111757
 30
0.0
 11
0.0635687677964709
 21
-2.659563608111757
 31
0.0
  0
LINE
  5
66F
330
1E
100
AcDbEntity
  8
0
100
AcDbLine
 10
-1.248931232203529
 20
-2.420063608112034
 30
0.0
 11
0.0635687677964638
 21
-2.420063608112034
 31
0.0
  0
ARC
  5
670
330
1E
100
AcDbEntity
  8
0
100
AcDbCircle
 10
-1.248931232203529
 20
-2.539813608111899
 30
0.0
 40
0.11975
100
AcDbArc
 50
90.00000000000011
 51
270.0000000000002
  0
LINE
  5
671
330
1E
100
AcDbEntity
  8
0
100
AcDbLine
 10
-1.248931232203529
 20
-2.659563608111757
 30
0.0
 11
0.0635687677964638
 21
-2.659563608111757
 31
0.0
  0
LINE
  5
672
330
1E
100
AcDbEntity
  8
0
100
AcDbLine
 10
1.376068767796471
 20
-3.170063608111907
 30
0.0
 11
0.0635687677964709
 21
-3.170063608111907
 31
0.0
  0
LINE
  5
673
330
1E
100
AcDbEntity
  8
0
100
AcDbLine
 10
-1.248931232203529
 20
-3.170063608111907
 30
0.0
 11
0.0635687677964638
 21
-3.170063608111907
 31
0.0
  0
LINE
  5
674
330
1E
100
AcDbEntity
  8
0
100
AcDbLine
 10
-1.248931232203529
 20
-3.409563608111885
 30
0.0
 11
0.0635687677964709
 21
-3.409563608111885
 31
0.0
  0
LINE
  5
675
330
1E
100
AcDbEntity
  8
0
100
AcDbLine
 10
1.376068767796471
 20
-3.409563608111885
 30
0.0
 11
0.0635687677964709
 21
-3.409563608111885
 31
0.0
  0
ARC
  5
676
330
1E
100
AcDbEntity
  8
0
100
AcDbCircle
 10
1.376068767796471
 20
-3.289813608111899
 30
0.0
 40
0.11975
100
AcDbArc
 50
270.0
 51
90.0
  0
ARC
  5
677
330
1E
100
AcDbEntity
  8
0
100
AcDbCircle
 10
-1.248931232203529
 20
-3.289813608111899
 30
0.0
 40
0.11975
100
AcDbArc
 50
90.00000000000011
 51
270.0000000000002
  0
LINE
  5
678
330
1E
100
AcDbEntity
  8
0
100
AcDbLine
 10
1.376068767796471
 20
-3.888863608112029
 30
0.0
 11
0.386900527540563
 21
-3.888863608112029
 31
0.0
  0
LINE
  5
679
330
1E
100
AcDbEntity
  8
0
100
AcDbLine
 10
1.376068767796471
 20
-4.128363608111766
 30
0.0
 11
0.4974858571991261
 21
-4.128363608111766
 31
0.0
  0
ARC
  5
67A
330
1E
100
AcDbEntity
  8
0
100
AcDbCircle
 10
1.376068767796471
 20
-4.008613608111901
 30
0.0
 40
0.11975
100
AcDbArc
 50
270.0
 51
90.0
  0
ARC
  5
67B
330
1E
100
AcDbEntity
  8
0
100
AcDbCircle
 10
1.376068767796471
 20
-4.72741360811191
 30
0.0
 40
0.11975
100
AcDbArc
 50
270.0
 51
90.00000000000003
  0
LINE
  5
67C
330
1E
100
AcDbEntity
  8
0
100
AcDbLine
 10
1.376068767796472
 20
-4.607663608111917
 30
0.0
 11
0.6006586674174708
 21
-4.607663608111924
 31
0.0
  0
LINE
  5
67D
330
1E
100
AcDbEntity
  8
0
100
AcDbLine
 10
1.376068767796471
 20
-4.847163608111895
 30
0.0
 11
0.0635687677964709
 21
-4.847163608111895
 31
0.0
  0
LINE
  5
67E
330
1E
100
AcDbEntity
  8
0
100
AcDbLine
 10
-1.248931232203529
 20
-3.888863608112029
 30
0.0
 11
-0.758648550173918
 21
-3.888863608112029
 31
0.0
  0
LINE
  5
67F
330
1E
100
AcDbEntity
  8
0
100
AcDbLine
 10
-1.248931232203529
 20
-4.128363608111766
 30
0.0
 11
-0.7586485501739202
 21
-4.128363608111766
 31
0.0
  0
ARC
  5
680
330
1E
100
AcDbEntity
  8
0
100
AcDbCircle
 10
-1.248931232203529
 20
-4.008613608111901
 30
0.0
 40
0.11975
100
AcDbArc
 50
90.00000000000011
 51
270.0000000000002
  0
ARC
  5
681
330
1E
100
AcDbEntity
  8
0
100
AcDbCircle
 10
-1.248931232203529
 20
-4.72741360811191
 30
0.0
 40
0.11975
100
AcDbArc
 50
89.99999999999986
 51
269.9999999999999
  0
LINE
  5
682
330
1E
100
AcDbEntity
  8
0
100
AcDbLine
 10
-1.248931232203529
 20
-4.607663608111917
 30
0.0
 11
-0.0384253244000585
 21
-4.607663608111917
 31
0.0
  0
LINE
  5
683
330
1E
100
AcDbEntity
  8
0
100
AcDbLine
 10
-1.248931232203529
 20
-4.847163608111895
 30
0.0
 11
0.0635687677964638
 21
-4.847163608111895
 31
0.0
  0
LINE
  5
684
330
1E
100
AcDbEntity
  8
0
100
AcDbLine
 10
-1.248931232203529
 20
-5.357663608112052
 30
0.0
 11
0.0635687677964638
 21
-5.357663608112052
 31
0.0
  0
ARC
  5
685
330
1E
100
AcDbEntity
  8
0
100
AcDbCircle
 10
-1.248931232203529
 20
-5.47741360811191
 30
0.0
 40
0.11975
100
AcDbArc
 50
89.99999999999986
 51
269.9999999999999
  0
LINE
  5
686
330
1E
100
AcDbEntity
  8
0
100
AcDbLine
 10
-1.248931232203529
 20
-5.597163608111767
 30
0.0
 11
0.0635687677964643
 21
-5.597163608111774
 31
0.0
  0
LINE
  5
687
330
1E
100
AcDbEntity
  8
0
100
AcDbLine
 10
1.376068767796471
 20
-5.357663608112052
 30
0.0
 11
0.0635687677964709
 21
-5.357663608112052
 31
0.0
  0
ARC
  5
688
330
1E
100
AcDbEntity
  8
0
100
AcDbCircle
 10
1.376068767796471
 20
-5.47741360811191
 30
0.0
 40
0.11975
100
AcDbArc
 50
270.0
 51
90.00000000000003
  0
LINE
  5
689
330
1E
100
AcDbEntity
  8
0
100
AcDbLine
 10
1.37606876779647
 20
-5.597163608111767
 30
0.0
 11
0.0635687677964705
 21
-5.597163608111774
 31
0.0
  0
LINE
  5
68A
330
1E
100
AcDbEntity
  8
0
100
AcDbLine
 10
1.844868767796473
 20
-6.415113608111901
 30
0.0
 11
1.844868767796473
 21
-6.508613608111091
 31
0.0
  0
LINE
  5
68B
330
1E
100
AcDbEntity
  8
0
100
AcDbLine
 10
-1.717731232203541
 20
-6.415113608111894
 30
0.0
 11
-1.717731232203541
 21
-6.508613608111091
 31
0.0
  0
LINE
  5
68C
330
1E
100
AcDbEntity
  8
DASHED
100
AcDbLine
 10
1.220068767796551
 20
1.637571827879736
 30
0.0
 11
1.220068767796551
 21
1.916943179661555
 31
0.0
  0
LINE
  5
68D
330
1E
100
AcDbEntity
  8
DASHED
100
AcDbLine
 10
-1.092931232203608
 20
1.637571827879736
 30
0.0
 11
-1.092931232203608
 21
1.916943179661548
 31
0.0
  0
LINE
  5
68E
330
1E
100
AcDbEntity
  8
DASHED
100
AcDbLine
 10
-1.368203971531667
 20
1.736571827879736
 30
0.0
 11
1.488015801301977
 21
1.736571827879738
 31
0.0
  0
ARC
  5
68F
330
1E
100
AcDbEntity
  8
DASHED
100
AcDbCircle
 10
-1.368203971531667
 20
1.642821827879736
 30
0.0
 40
0.09375
100
AcDbArc
 50
90.00000000000003
 51
180.0
  0
ARC
  5
690
330
1E
100
AcDbEntity
  8
DASHED
100
AcDbCircle
 10
1.488015801301977
 20
1.642821827879738
 30
0.0
 40
0.09375
100
AcDbArc
 50
0.0
 51
90.0
  0
LINE
  5
691
330
1E
100
AcDbEntity
  8
DASHED
100
AcDbLine
 10
-1.479024689217525
 20
2.568442209144756
 30
0.0
 11
1.613975310782479
 21
2.568442209144756
 31
0.0
  0
LINE
  5
692
330
1E
100
AcDbEntity
  8
DASHED
100
AcDbLine
 10
1.712975310782479
 20
2.469442209144756
 30
0.0
 11
1.712975310782479
 21
1.660412287158605
 31
0.0
  0
LINE
  5
693
330
1E
100
AcDbEntity
  8
DASHED
100
AcDbLine
 10
-1.578024689217525
 20
2.469442209144756
 30
0.0
 11
-1.578024689217525
 21
1.653768423805911
 31
0.0
  0
ARC
  5
694
330
1E
100
AcDbEntity
  8
DASHED
100
AcDbCircle
 10
-1.479024689217525
 20
2.469442209144756
 30
0.0
 40
0.099
100
AcDbArc
 50
90.0
 51
131.7554324348386
  0
ARC
  5
695
330
1E
100
AcDbEntity
  8
0
100
AcDbCircle
 10
-1.479024689217525
 20
2.469442209144756
 30
0.0
 40
0.099
100
AcDbArc
 50
131.7554324348386
 51
159.9585246280428
  0
ARC
  5
696
330
1E
100
AcDbEntity
  8
DASHED
100
AcDbCircle
 10
-1.479024689217525
 20
2.469442209144756
 30
0.0
 40
0.099
100
AcDbArc
 50
159.9585246280428
 51
180.0
  0
ARC
  5
697
330
1E
100
AcDbEntity
  8
DASHED
100
AcDbCircle
 10
1.613975310782479
 20
2.469442209144756
 30
0.0
 40
0.099
100
AcDbArc
 50
0.0
 51
19.73216009657688
  0
ARC
  5
698
330
1E
100
AcDbEntity
  8
0
100
AcDbCircle
 10
1.613975310782479
 20
2.469442209144756
 30
0.0
 40
0.198
100
AcDbArc
 50
0.0
 51
90.0
  0
ARC
  5
699
330
1E
100
AcDbEntity
  8
DASHED
100
AcDbCircle
 10
1.613975310782479
 20
2.469442209144756
 30
0.0
 40
0.099
100
AcDbArc
 50
48.86810517093134
 51
90.0
  0
ARC
  5
69A
330
1E
100
AcDbEntity
  8
0
100
AcDbCircle
 10
1.613975310782479
 20
2.469442209144756
 30
0.0
 40
0.099
100
AcDbArc
 50
19.73216009657688
 51
48.86810517093134
  0
ARC
  5
69B
330
1E
100
AcDbEntity
  8
0
100
AcDbCircle
 10
-1.479024689217525
 20
2.469442209144756
 30
0.0
 40
0.198
100
AcDbArc
 50
90.0
 51
180.0
  0
ARC
  5
69C
330
1E
100
AcDbEntity
  8
0
100
AcDbCircle
 10
9.893827109966736
 20
2.42715412264976
 30
0.0
 40
0.198
100
AcDbArc
 50
0.0
 51
61.91564160083535
  0
ARC
  5
69D
330
1E
100
AcDbEntity
  8
DASHED
100
AcDbCircle
 10
5.102327109966735
 20
2.42715412264976
 30
0.0
 40
0.198
100
AcDbArc
 50
90.0
 51
125.6096041865606
  0
ARC
  5
69E
330
1E
100
AcDbEntity
  8
DASHED
100
AcDbCircle
 10
9.893827109966736
 20
2.42715412264976
 30
0.0
 40
0.198
100
AcDbArc
 50
61.91564160083535
 51
90.0
  0
ARC
  5
69F
330
1E
100
AcDbEntity
  8
0
100
AcDbCircle
 10
5.102327109966735
 20
2.42715412264976
 30
0.0
 40
0.198
100
AcDbArc
 50
125.6096041865606
 51
180.0
  0
LINE
  5
6A0
330
1E
100
AcDbEntity
  8
DASHED
100
AcDbLine
 10
5.080491799002624
 20
1.59327581340472
 30
0.0
 11
9.893637989085363
 21
1.593275813404713
 31
0.0
  0
LINE
  5
6A1
330
1E
100
AcDbEntity
  8
0
100
AcDbLine
 10
4.987039776935955
 20
1.691060193252502
 30
0.0
 11
4.987039776935957
 21
8.345403207457053
 31
0.0
  0
LINE
  5
6A2
330
1E
100
AcDbEntity
  8
0
100
AcDbLine
 10
9.893637989085363
 20
1.593275813404713
 30
0.0
 11
10.09182710996674
 21
1.593275813404711
 31
0.0
  0
LINE
  5
6A3
330
1E
100
AcDbEntity
  8
0
100
AcDbLine
 10
9.987039776935951
 20
1.593275813404711
 30
0.0
 11
9.987039776935951
 21
1.494275813404716
 31
0.0
  0
LINE
  5
F47
330
1E
100
AcDbEntity
  8
DASHED
100
AcDbLine
 10
-9.574351272226709
 20
2.746662028053578
 30
0.0
 11
-4.782851272226708
 21
2.746662028053578
 31
0.0
  0
LINE
  5
F48
330
1E
100
AcDbEntity
  8
0
100
AcDbLine
 10
-4.584851272226707
 20
2.548662028053577
 30
0.0
 11
-4.584851272226707
 21
1.714783718808528
 31
0.0
  0
LINE
  5
F49
330
1E
100
AcDbEntity
  8
0
100
AcDbLine
 10
-9.772351272226709
 20
1.714783718808535
 30
0.0
 11
-9.772351272226709
 21
2.548662028053577
 31
0.0
  0
LINE
  5
F4A
330
1E
100
AcDbEntity
  8
0
100
AcDbLine
 10
-9.689638605257487
 20
1.615783718808533
 30
0.0
 11
-4.689638605257493
 21
1.615783718808533
 31
0.0
  0
LINE
  5
F4B
330
1E
100
AcDbEntity
  8
0
100
AcDbLine
 10
-9.439638605257487
 20
8.716911112860871
 30
0.0
 11
-4.939638605257493
 21
8.716911112860871
 31
0.0
  0
LINE
  5
F4C
330
1E
100
AcDbEntity
  8
0
100
AcDbLine
 10
-9.772351272226707
 20
1.714783718808537
 30
0.0
 11
-9.59618658319082
 21
1.714783718808537
 31
0.0
  0
LINE
  5
F4D
330
1E
100
AcDbEntity
  8
DASHED
100
AcDbLine
 10
-8.807783898590175
 20
1.813783718808534
 30
0.0
 11
-8.495283898590465
 21
1.813783718808537
 31
0.0
  0
LINE
  5
F4E
330
1E
100
AcDbEntity
  8
0
100
AcDbLine
 10
-9.689638605257489
 20
1.615783718808533
 30
0.0
 11
-9.689638605257489
 21
1.714783718808537
 31
0.0
  0
LINE
  5
F4F
330
1E
100
AcDbEntity
  8
0
100
AcDbLine
 10
-9.59618658319082
 20
1.71478371880853
 30
0.0
 11
-9.59618658319082
 21
1.615783718808533
 31
0.0
  0
ARC
  5
F50
330
1E
100
AcDbEntity
  8
0
100
AcDbCircle
 10
-9.689588371041419
 20
1.719068112150847
 30
0.0
 40
0.0935
100
AcDbArc
 50
357.3736508865426
 51
90.03078298081768
  0
LINE
  5
F51
330
1E
100
AcDbEntity
  8
DASHED
100
AcDbLine
 10
-9.275474388989398
 20
2.13014842896472
 30
0.0
 11
-9.275474388989398
 21
1.714783718808537
 31
0.0
  0
LINE
  5
F52
330
1E
100
AcDbEntity
  8
DASHED
100
AcDbLine
 10
-9.1827338985903
 20
2.13014842896472
 30
0.0
 11
-9.1827338985903
 21
1.714783718808537
 31
0.0
  0
LINE
  5
F53
330
1E
100
AcDbEntity
  8
DASHED
100
AcDbLine
 10
-9.275474388989398
 20
1.99794842896473
 30
0.0
 11
-9.1827338985903
 21
1.99794842896473
 31
0.0
  0
LINE
  5
F54
330
1E
100
AcDbEntity
  8
DASHED
100
AcDbLine
 10
-9.275474388989396
 20
2.13014842896472
 30
0.0
 11
-9.1827338985903
 21
2.13014842896472
 31
0.0
  0
ARC
  5
F55
330
1E
100
AcDbEntity
  8
DASHED
100
AcDbCircle
 10
-8.807783898590175
 20
1.751283718808534
 30
0.0
 40
0.0625
100
AcDbArc
 50
90.0
 51
180.0
  0
LINE
  5
F56
330
1E
100
AcDbEntity
  8
DASHED
100
AcDbLine
 10
-8.870283898590175
 20
1.751283718808534
 30
0.0
 11
-8.870283898590175
 21
1.714783718808537
 31
0.0
  0
CIRCLE
  5
F58
330
1E
100
AcDbEntity
  8
0
100
AcDbCircle
 10
-5.060402172939554
 20
5.591911112860871
 30
0.0
 40
0.0855
  0
CIRCLE
  5
F5A
330
1E
100
AcDbEntity
  8
0
100
AcDbCircle
 10
-8.064618600380689
 20
8.341911112860871
 30
0.0
 40
0.0855
  0
LINE
  5
F5B
330
1E
100
AcDbEntity
  8
0
100
AcDbLine
 10
-9.689638605257487
 20
8.466911112860871
 30
0.0
 11
-9.439638605257487
 21
8.716911112860871
 31
0.0
  0
ARC
  5
F5C
330
1E
100
AcDbEntity
  8
DASHED
100
AcDbCircle
 10
-7.026483898590447
 20
1.751283718808534
 30
0.0
 40
0.0625
100
AcDbArc
 50
0.0
 51
89.99999999999946
  0
LINE
  5
F5D
330
1E
100
AcDbEntity
  8
DASHED
100
AcDbLine
 10
-8.057783898590314
 20
1.813783718808534
 30
0.0
 11
-7.745283898590332
 21
1.813783718808534
 31
0.0
  0
ARC
  5
F5E
330
1E
100
AcDbEntity
  8
DASHED
100
AcDbCircle
 10
-8.495283898590465
 20
1.751283718808537
 30
0.0
 40
0.0625
100
AcDbArc
 50
0.0
 51
90.0
  0
LINE
  5
F5F
330
1E
100
AcDbEntity
  8
DASHED
100
AcDbLine
 10
-8.432783898590465
 20
1.751283718808537
 30
0.0
 11
-8.432783898590465
 21
1.714783718808537
 31
0.0
  0
ARC
  5
F60
330
1E
100
AcDbEntity
  8
DASHED
100
AcDbCircle
 10
-8.057783898590314
 20
1.751283718808534
 30
0.0
 40
0.0625
100
AcDbArc
 50
90.0
 51
180.0
  0
LINE
  5
F61
330
1E
100
AcDbEntity
  8
DASHED
100
AcDbLine
 10
-8.120283898590314
 20
1.751283718808534
 30
0.0
 11
-8.120283898590312
 21
1.714783718808537
 31
0.0
  0
ARC
  5
F62
330
1E
100
AcDbEntity
  8
DASHED
100
AcDbCircle
 10
-7.338983898590202
 20
1.751283718808534
 30
0.0
 40
0.0625
100
AcDbArc
 50
89.99999999999953
 51
180.000000000001
  0
ARC
  5
F63
330
1E
100
AcDbEntity
  8
DASHED
100
AcDbCircle
 10
-7.745283898590332
 20
1.751283718808534
 30
0.0
 40
0.0625
100
AcDbArc
 50
0.0000000000010178
 51
90.0
  0
LINE
  5
F64
330
1E
100
AcDbEntity
  8
DASHED
100
AcDbLine
 10
-7.682783898590332
 20
1.751283718808537
 30
0.0
 11
-7.682783898590332
 21
1.714783718808537
 31
0.0
  0
LINE
  5
F65
330
1E
100
AcDbEntity
  8
DASHED
100
AcDbLine
 10
-7.338983898590202
 20
1.813783718808534
 30
0.0
 11
-7.026483898590447
 21
1.813783718808534
 31
0.0
  0
LINE
  5
F66
330
1E
100
AcDbEntity
  8
DASHED
100
AcDbLine
 10
-7.401483898590202
 20
1.751283718808534
 30
0.0
 11
-7.401483898590202
 21
1.714783718808537
 31
0.0
  0
ARC
  5
F67
330
1E
100
AcDbEntity
  8
DASHED
100
AcDbCircle
 10
-6.307683898590327
 20
1.751283718808534
 30
0.0
 40
0.0625
100
AcDbArc
 50
0.0
 51
90.0
  0
ARC
  5
F68
330
1E
100
AcDbEntity
  8
DASHED
100
AcDbCircle
 10
-6.620183898590321
 20
1.751283718808534
 30
0.0
 40
0.0625
100
AcDbArc
 50
90.0
 51
180.0
  0
LINE
  5
F69
330
1E
100
AcDbEntity
  8
DASHED
100
AcDbLine
 10
-6.963983898590447
 20
1.751283718808534
 30
0.0
 11
-6.963983898590447
 21
1.714783718808537
 31
0.0
  0
LINE
  5
F6A
330
1E
100
AcDbEntity
  8
DASHED
100
AcDbLine
 10
-6.682683898590321
 20
1.751283718808534
 30
0.0
 11
-6.682683898590321
 21
1.714783718808537
 31
0.0
  0
LINE
  5
F6B
330
1E
100
AcDbEntity
  8
DASHED
100
AcDbLine
 10
-6.620183898590321
 20
1.813783718808534
 30
0.0
 11
-6.307683898590327
 21
1.813783718808534
 31
0.0
  0
LINE
  5
F6C
330
1E
100
AcDbEntity
  8
DASHED
100
AcDbLine
 10
-6.245183898590327
 20
1.751283718808534
 30
0.0
 11
-6.245183898590327
 21
1.714783718808537
 31
0.0
  0
LINE
  5
F6D
330
1E
100
AcDbEntity
  8
DASHED
100
AcDbLine
 10
-5.870183898590168
 20
1.813783718808526
 30
0.0
 11
-5.557683898590469
 21
1.813783718808534
 31
0.0
  0
ARC
  5
F6E
330
1E
100
AcDbEntity
  8
DASHED
100
AcDbCircle
 10
-5.870183898590168
 20
1.751283718808526
 30
0.0
 40
0.0625
100
AcDbArc
 50
90.00000000000048
 51
180.0000000000021
  0
LINE
  5
F6F
330
1E
100
AcDbEntity
  8
DASHED
100
AcDbLine
 10
-5.932683898590168
 20
1.751283718808526
 30
0.0
 11
-5.932683898590167
 21
1.714783718808537
 31
0.0
  0
ARC
  5
F70
330
1E
100
AcDbEntity
  8
DASHED
100
AcDbCircle
 10
-5.557683898590469
 20
1.751283718808534
 30
0.0
 40
0.0625
100
AcDbArc
 50
0.0
 51
90.0000000000005
  0
LINE
  5
F71
330
1E
100
AcDbEntity
  8
DASHED
100
AcDbLine
 10
-5.495183898590469
 20
1.751283718808534
 30
0.0
 11
-5.495183898590469
 21
1.714783718808537
 31
0.0
  0
CIRCLE
  5
F72
330
1E
100
AcDbEntity
  8
0
100
AcDbCircle
 10
-7.189638605257484
 20
5.404411112860863
 30
0.0
 40
0.3435
  0
CIRCLE
  5
F73
330
1E
100
AcDbEntity
  8
0
100
AcDbCircle
 10
-7.189638605257484
 20
7.404411112860871
 30
0.0
 40
0.3435
  0
CIRCLE
  5
F75
330
1E
100
AcDbEntity
  8
0
100
AcDbCircle
 10
-9.316418687230225
 20
6.841911112860878
 30
0.0
 40
0.0855
  0
CIRCLE
  5
F76
330
1E
100
AcDbEntity
  8
0
100
AcDbCircle
 10
-8.058339343225793
 20
4.841911112860871
 30
0.0
 40
0.0855
  0
CIRCLE
  5
F78
330
1E
100
AcDbEntity
  8
0
100
AcDbCircle
 10
-5.064618600380687
 20
8.341911112860871
 30
0.0
 40
0.0855
  0
LINE
  5
F7A
330
1E
100
AcDbEntity
  8
0
100
AcDbLine
 10
-4.689638605257493
 20
8.466911112860871
 30
0.0
 11
-4.689638605257493
 21
1.812568112150848
 31
0.0
  0
LINE
  5
F7B
330
1E
100
AcDbEntity
  8
0
100
AcDbLine
 10
-4.783040393108081
 20
1.71478371880853
 30
0.0
 11
-4.783040393108081
 21
1.615783718808533
 31
0.0
  0
LINE
  5
F7C
330
1E
100
AcDbEntity
  8
DASHED
100
AcDbLine
 10
-5.083733898590317
 20
2.13014842896472
 30
0.0
 11
-5.083733898590317
 21
1.71478371880853
 31
0.0
  0
LINE
  5
F7D
330
1E
100
AcDbEntity
  8
DASHED
100
AcDbLine
 10
-5.182733898590321
 20
2.13014842896472
 30
0.0
 11
-5.182733898590321
 21
1.71478371880853
 31
0.0
  0
LINE
  5
F7E
330
1E
100
AcDbEntity
  8
DASHED
100
AcDbLine
 10
-5.182733898590321
 20
1.99794842896473
 30
0.0
 11
-5.083733898590317
 21
1.99794842896473
 31
0.0
  0
LINE
  5
F7F
330
1E
100
AcDbEntity
  8
DASHED
100
AcDbLine
 10
-5.182733898590321
 20
2.13014842896472
 30
0.0
 11
-5.083733898590317
 21
2.13014842896472
 31
0.0
  0
ARC
  5
F80
330
1E
100
AcDbEntity
  8
0
100
AcDbCircle
 10
-4.689638605257485
 20
1.719068112150847
 30
0.0
 40
0.0935
100
AcDbArc
 50
90.0
 51
182.6263491134573
  0
CIRCLE
  5
F82
330
1E
100
AcDbEntity
  8
0
100
AcDbCircle
 10
-6.316418687230078
 20
6.841911112860878
 30
0.0
 40
0.0855
  0
LINE
  5
F83
330
1E
100
AcDbEntity
  8
0
100
AcDbLine
 10
-4.689638605257493
 20
8.466911112860871
 30
0.0
 11
-4.939638605257493
 21
8.716911112860871
 31
0.0
  0
ARC
  5
F84
330
1E
100
AcDbEntity
  8
0
100
AcDbCircle
 10
-4.782851272226708
 20
2.548662028053577
 30
0.0
 40
0.198
100
AcDbArc
 50
0.0
 51
61.91564160083535
  0
ARC
  5
F85
330
1E
100
AcDbEntity
  8
DASHED
100
AcDbCircle
 10
-9.574351272226709
 20
2.548662028053577
 30
0.0
 40
0.198
100
AcDbArc
 50
90.0
 51
125.6096041865606
  0
ARC
  5
F86
330
1E
100
AcDbEntity
  8
DASHED
100
AcDbCircle
 10
-4.782851272226708
 20
2.548662028053577
 30
0.0
 40
0.198
100
AcDbArc
 50
61.91564160083535
 51
90.0
  0
ARC
  5
F87
330
1E
100
AcDbEntity
  8
0
100
AcDbCircle
 10
-9.574351272226709
 20
2.548662028053577
 30
0.0
 40
0.198
100
AcDbArc
 50
125.6096041865606
 51
180.0
  0
LINE
  5
F88
330
1E
100
AcDbEntity
  8
DASHED
100
AcDbLine
 10
-9.59618658319082
 20
1.714783718808537
 30
0.0
 11
-4.783040393108081
 21
1.71478371880853
 31
0.0
  0
LINE
  5
F89
330
1E
100
AcDbEntity
  8
0
100
AcDbLine
 10
-9.689638605257489
 20
1.812568098656319
 30
0.0
 11
-9.689638605257487
 21
8.466911112860871
 31
0.0
  0
LINE
  5
F8A
330
1E
100
AcDbEntity
  8
0
100
AcDbLine
 10
-4.783040393108081
 20
1.71478371880853
 30
0.0
 11
-4.584851272226707
 21
1.714783718808528
 31
0.0
  0
LINE
  5
F8B
330
1E
100
AcDbEntity
  8
0
100
AcDbLine
 10
-4.689638605257493
 20
1.714783718808528
 30
0.0
 11
-4.689638605257493
 21
1.615783718808533
 31
0.0
  0
LINE
  5
F9C
330
1E
100
AcDbEntity
  8
0
100
AcDbLine
 10
-1.092931232203608
 20
11.78411175403125
 30
0.0
 11
1.220068767796551
 21
11.78411175403125
 31
0.0
  0
LINE
  5
F9D
330
1E
100
AcDbEntity
  8
0
100
AcDbLine
 10
-1.092931232203608
 20
15.97585224443033
 30
0.0
 11
1.220068767796551
 21
15.97585224443033
 31
0.0
  0
LINE
  5
F9E
330
1E
100
AcDbEntity
  8
0
100
AcDbLine
 10
-1.092931232203608
 20
15.87685224443033
 30
0.0
 11
1.220068767796551
 21
15.87685224443033
 31
0.0
  0
LINE
  5
F9F
330
1E
100
AcDbEntity
  8
0
100
AcDbLine
 10
-1.248931232203529
 20
14.81440224443033
 30
0.0
 11
0.0635687677964647
 21
14.81440224443033
 31
0.0
  0
LINE
  5
FA0
330
1E
100
AcDbEntity
  8
0
100
AcDbLine
 10
-1.248931232203529
 20
15.12690224443048
 30
0.0
 11
0.0635687677964647
 21
15.12690224443048
 31
0.0
  0
LINE
  5
FA1
330
1E
100
AcDbEntity
  8
0
100
AcDbLine
 10
-1.248931232203529
 20
15.5644022444302
 30
0.0
 11
0.0635687677964647
 21
15.5644022444302
 31
0.0
  0
ARC
  5
FA2
330
1E
100
AcDbEntity
  8
0
100
AcDbCircle
 10
-0.4364312322035282
 20
13.87685224443033
 30
0.0
 40
0.34375
100
AcDbArc
 50
89.99997617713687
 51
270.0
  0
LINE
  5
FA3
330
1E
100
AcDbEntity
  8
0
100
AcDbLine
 10
-1.248931232203529
 20
13.37680224443032
 30
0.0
 11
-0.0880203054852764
 21
13.37680224443032
 31
0.0
  0
ARC
  5
FA4
330
1E
100
AcDbEntity
  8
0
100
AcDbCircle
 10
-0.37624767109617
 20
13.18948153491593
 30
0.0
 40
0.34375
100
AcDbArc
 50
24.78445374465106
 51
89.9999536670809
  0
LINE
  5
FA5
330
1E
100
AcDbEntity
  8
0
100
AcDbLine
 10
-1.092931232203608
 20
11.87685224443034
 30
0.0
 11
1.220068767796551
 21
11.87685224443033
 31
0.0
  0
LINE
  5
FA6
330
1E
100
AcDbEntity
  8
0
100
AcDbLine
 10
-1.248931232203529
 20
12.93930224443034
 30
0.0
 11
0.0635687677964647
 21
12.93930224443034
 31
0.0
  0
LINE
  5
FA7
330
1E
100
AcDbEntity
  8
0
100
AcDbLine
 10
-1.248931232203529
 20
12.62680224443018
 30
0.0
 11
0.0635687677964647
 21
12.62680224443018
 31
0.0
  0
LINE
  5
FA8
330
1E
100
AcDbEntity
  8
0
100
AcDbLine
 10
-1.248931232203529
 20
12.18930224443047
 30
0.0
 11
0.0635687677964647
 21
12.18930224443046
 31
0.0
  0
LINE
  5
FA9
330
1E
100
AcDbEntity
  8
0
100
AcDbLine
 10
-1.248931232203529
 20
14.37690224443035
 30
0.0
 11
0.0635687677964718
 21
14.37690224443035
 31
0.0
  0
LINE
  5
FAA
330
1E
100
AcDbEntity
  8
0
100
AcDbLine
 10
-0.4364312322035282
 20
14.22060224443033
 30
0.0
 11
0.0635687677964718
 21
14.22060224443033
 31
0.0
  0
ARC
  5
FAB
330
1E
100
AcDbEntity
  8
0
100
AcDbCircle
 10
-1.248931232203529
 20
13.15805224443032
 30
0.0
 40
0.21875
100
AcDbArc
 50
89.99999999999986
 51
269.9999999999999
  0
LINE
  5
FAC
330
1E
100
AcDbEntity
  8
0
100
AcDbLine
 10
-1.717731232203538
 20
16.37685224443032
 30
0.0
 11
-1.717731232203538
 21
16.28335224443033
 31
0.0
  0
LINE
  5
FAD
330
1E
100
AcDbEntity
  8
0
100
AcDbLine
 10
-1.816731232203542
 20
16.37685224443032
 30
0.0
 11
-1.816731232203538
 21
11.37685224443114
 31
0.0
  0
ARC
  5
FAE
330
1E
100
AcDbEntity
  8
0
100
AcDbCircle
 10
-1.717731232203538
 20
11.37685224443034
 30
0.0
 40
0.0935
100
AcDbArc
 50
0.0
 51
90.00000000000217
  0
LINE
  5
FAF
330
1E
100
AcDbEntity
  8
0
100
AcDbLine
 10
-1.816731232203527
 20
11.47035224443033
 30
0.0
 11
-1.717731232203538
 21
11.47035224443033
 31
0.0
  0
LINE
  5
FB0
330
1E
100
AcDbEntity
  8
0
100
AcDbLine
 10
-1.816731232203527
 20
11.37685224443114
 30
0.0
 11
-1.717731232203538
 21
11.37685224443114
 31
0.0
  0
ARC
  5
FB1
330
1E
100
AcDbEntity
  8
0
100
AcDbCircle
 10
-1.248931232203529
 20
12.40805224443032
 30
0.0
 40
0.21875
100
AcDbArc
 50
89.99999999999986
 51
269.9999999999999
  0
LINE
  5
FB2
330
1E
100
AcDbEntity
  8
0
100
AcDbLine
 10
-1.27993123220345
 20
11.50905224443034
 30
0.0
 11
-1.412131232203454
 21
11.37685224443034
 31
0.0
  0
LINE
  5
FB3
330
1E
100
AcDbEntity
  8
0
100
AcDbLine
 10
-1.412131232203454
 20
11.37685224443034
 30
0.0
 11
-1.624231232203795
 21
11.37685224443034
 31
0.0
  0
LINE
  5
FB4
330
1E
100
AcDbEntity
  8
0
100
AcDbLine
 10
-1.505831232203453
 20
11.37685224443034
 30
0.0
 11
-1.624231232203496
 21
11.37685224443034
 31
0.0
  0
ARC
  5
FB5
330
1E
100
AcDbEntity
  8
0
100
AcDbCircle
 10
-1.186431232203529
 20
11.87685224443034
 30
0.0
 40
0.0935
100
AcDbArc
 50
359.9999001805695
 51
180.0000998194305
  0
LINE
  5
FB6
330
1E
100
AcDbEntity
  8
0
100
AcDbLine
 10
-1.092931232203608
 20
11.87685224443033
 30
0.0
 11
-1.092931232203609
 21
11.78411175403125
 31
0.0
  0
LINE
  5
FB7
330
1E
100
AcDbEntity
  8
0
100
AcDbLine
 10
-1.27993123220345
 20
11.87685224443033
 30
0.0
 11
-1.27993123220345
 21
11.50905224443034
 31
0.0
  0
CIRCLE
  5
FB8
330
1E
100
AcDbEntity
  8
0
100
AcDbCircle
 10
-1.061431232203515
 20
12.40805224443034
 30
0.0
 40
0.0855
  0
ARC
  5
FB9
330
1E
100
AcDbEntity
  8
0
100
AcDbCircle
 10
-1.717731232203538
 20
16.37685224443032
 30
0.0
 40
0.0935
100
AcDbArc
 50
269.9999999999978
 51
0.0000000000021771
  0
LINE
  5
FBA
330
1E
100
AcDbEntity
  8
0
100
AcDbLine
 10
-1.816731232203527
 20
16.37685224443032
 30
0.0
 11
-1.717731232203538
 21
16.37685224443032
 31
0.0
  0
CIRCLE
  5
FBB
330
1E
100
AcDbEntity
  8
0
100
AcDbCircle
 10
-1.061431232203522
 20
15.34565224443033
 30
0.0
 40
0.0855
  0
ARC
  5
FBC
330
1E
100
AcDbEntity
  8
0
100
AcDbCircle
 10
-1.248931232203529
 20
15.34565224443033
 30
0.0
 40
0.21875
100
AcDbArc
 50
90.00000000000011
 51
270.0000000000002
  0
LINE
  5
FBD
330
1E
100
AcDbEntity
  8
0
100
AcDbLine
 10
-1.248931232203529
 20
13.65810224443047
 30
0.0
 11
-0.7015962751485221
 21
13.65810224443047
 31
0.0
  0
LINE
  5
FBE
330
1E
100
AcDbEntity
  8
0
100
AcDbLine
 10
-1.248931232203529
 20
14.0956022444302
 30
0.0
 11
-0.7015962751486358
 21
14.0956022444302
 31
0.0
  0
ARC
  5
FBF
330
1E
100
AcDbEntity
  8
0
100
AcDbCircle
 10
-1.248931232203529
 20
13.87685224443033
 30
0.0
 40
0.21875
100
AcDbArc
 50
90.00000000000011
 51
270.0000000000002
  0
ARC
  5
FC0
330
1E
100
AcDbEntity
  8
0
100
AcDbCircle
 10
-1.248931232203529
 20
14.59565224443033
 30
0.0
 40
0.21875
100
AcDbArc
 50
90.00000000000011
 51
270.0000000000002
  0
LINE
  5
FC1
330
1E
100
AcDbEntity
  8
0
100
AcDbLine
 10
-0.4364312322035282
 20
13.53310224443033
 30
0.0
 11
-0.3668205563304063
 21
13.53310224443033
 31
0.0
  0
LINE
  5
FC2
330
1E
100
AcDbEntity
  8
0
100
AcDbLine
 10
-1.27993123220345
 20
16.24465224443033
 30
0.0
 11
-1.412131232203454
 21
16.37685224443032
 31
0.0
  0
LINE
  5
FC3
330
1E
100
AcDbEntity
  8
0
100
AcDbLine
 10
-1.624231232203795
 20
16.37685224443032
 30
0.0
 11
-1.412131232203454
 21
16.37685224443032
 31
0.0
  0
LINE
  5
FC4
330
1E
100
AcDbEntity
  8
0
100
AcDbLine
 10
-1.505831232203453
 20
16.37685224443032
 30
0.0
 11
-1.624231232203795
 21
16.37685224443032
 31
0.0
  0
LINE
  5
FC5
330
1E
100
AcDbEntity
  8
0
100
AcDbLine
 10
-1.092931232203608
 20
15.87685224443033
 30
0.0
 11
-1.092931232203608
 21
15.97585224443033
 31
0.0
  0
LINE
  5
FC6
330
1E
100
AcDbEntity
  8
0
100
AcDbLine
 10
-1.27993123220345
 20
15.87685224443033
 30
0.0
 11
-1.27993123220345
 21
16.24465224443033
 31
0.0
  0
ARC
  5
FC7
330
1E
100
AcDbEntity
  8
0
100
AcDbCircle
 10
-1.186431232203529
 20
15.87685224443033
 30
0.0
 40
0.0935
100
AcDbArc
 50
179.9999001805695
 51
0.0000998194305355
  0
LINE
  5
FC8
330
1E
100
AcDbEntity
  8
0
100
AcDbLine
 10
-0.065709218325491
 20
13.33689229385468
 30
0.0
 11
-0.0289278733906961
 21
13.257233155169
 31
0.0
  0
ARC
  5
FC9
330
1E
100
AcDbEntity
  8
0
100
AcDbCircle
 10
0.2813687677964758
 20
13.40515224443034
 30
0.0
 40
0.34375
100
AcDbArc
 50
204.0815263086942
 51
24.78444436489547
  0
ARC
  5
FCA
330
1E
100
AcDbEntity
  8
0
100
AcDbCircle
 10
1.376068767796472
 20
13.15805224443032
 30
0.0
 40
0.21875
100
AcDbArc
 50
270.0
 51
90.00000000000003
  0
LINE
  5
FCB
330
1E
100
AcDbEntity
  8
0
100
AcDbLine
 10
1.844868767796474
 20
16.37685224443032
 30
0.0
 11
1.844868767796474
 21
16.28335224443033
 31
0.0
  0
LINE
  5
FCC
330
1E
100
AcDbEntity
  8
0
100
AcDbLine
 10
1.94386876779647
 20
16.37685224443032
 30
0.0
 11
1.94386876779647
 21
11.37685224443114
 31
0.0
  0
LINE
  5
FCD
330
1E
100
AcDbEntity
  8
0
100
AcDbLine
 10
1.407068767796393
 20
11.50905224443034
 30
0.0
 11
1.53926876779639
 21
11.37685224443034
 31
0.0
  0
ARC
  5
FCE
330
1E
100
AcDbEntity
  8
0
100
AcDbCircle
 10
1.376068767796472
 20
12.40805224443032
 30
0.0
 40
0.21875
100
AcDbArc
 50
270.0
 51
90.00000000000003
  0
LINE
  5
FCF
330
1E
100
AcDbEntity
  8
0
100
AcDbLine
 10
1.376068767796472
 20
12.93930224443034
 30
0.0
 11
0.0635687677964718
 21
12.93930224443034
 31
0.0
  0
LINE
  5
FD0
330
1E
100
AcDbEntity
  8
0
100
AcDbLine
 10
1.376068767796472
 20
12.62680224443018
 30
0.0
 11
0.0635687677964718
 21
12.62680224443018
 31
0.0
  0
LINE
  5
FD1
330
1E
100
AcDbEntity
  8
0
100
AcDbLine
 10
1.376068767796472
 20
12.18930224443047
 30
0.0
 11
0.0635687677964718
 21
12.18930224443046
 31
0.0
  0
ARC
  5
FD2
330
1E
100
AcDbEntity
  8
0
100
AcDbCircle
 10
1.313568767796472
 20
11.87685224443034
 30
0.0
 40
0.0935
100
AcDbArc
 50
359.9999001805695
 51
180.0000998194305
  0
LINE
  5
FD3
330
1E
100
AcDbEntity
  8
0
100
AcDbLine
 10
1.407068767796393
 20
11.87685224443033
 30
0.0
 11
1.407068767796393
 21
11.50905224443034
 31
0.0
  0
LINE
  5
FD4
330
1E
100
AcDbEntity
  8
0
100
AcDbLine
 10
1.220068767796551
 20
11.87685224443033
 30
0.0
 11
1.220068767796551
 21
11.78411175403125
 31
0.0
  0
CIRCLE
  5
FD5
330
1E
100
AcDbEntity
  8
0
100
AcDbCircle
 10
1.188568767796465
 20
12.40805224443034
 30
0.0
 40
0.0855
  0
ARC
  5
FD6
330
1E
100
AcDbEntity
  8
0
100
AcDbCircle
 10
1.844868767796474
 20
11.37685224443033
 30
0.0
 40
0.0935
100
AcDbArc
 50
90.0
 51
179.9999999999978
  0
LINE
  5
FD7
330
1E
100
AcDbEntity
  8
0
100
AcDbLine
 10
1.751368767796205
 20
11.37685224443034
 30
0.0
 11
1.53926876779639
 21
11.37685224443034
 31
0.0
  0
LINE
  5
FD8
330
1E
100
AcDbEntity
  8
0
100
AcDbLine
 10
1.632968767796388
 20
11.37685224443033
 30
0.0
 11
1.751368767796205
 21
11.37685224443033
 31
0.0
  0
LINE
  5
FD9
330
1E
100
AcDbEntity
  8
0
100
AcDbLine
 10
1.943868767796463
 20
11.37685224443114
 30
0.0
 11
1.844868767796474
 21
11.37685224443114
 31
0.0
  0
LINE
  5
FDA
330
1E
100
AcDbEntity
  8
0
100
AcDbLine
 10
1.943868767796463
 20
11.47035224443033
 30
0.0
 11
1.844868767796474
 21
11.47035224443033
 31
0.0
  0
ARC
  5
FDB
330
1E
100
AcDbEntity
  8
0
100
AcDbCircle
 10
1.376068767796472
 20
15.34565224443033
 30
0.0
 40
0.21875
100
AcDbArc
 50
270.0
 51
90.0
  0
LINE
  5
FDC
330
1E
100
AcDbEntity
  8
0
100
AcDbLine
 10
1.53926876779639
 20
16.37685224443032
 30
0.0
 11
1.407068767796393
 21
16.24465224443033
 31
0.0
  0
ARC
  5
FDD
330
1E
100
AcDbEntity
  8
0
100
AcDbCircle
 10
1.376068767796472
 20
13.87685224443033
 30
0.0
 40
0.21875
100
AcDbArc
 50
270.0
 51
90.0
  0
ARC
  5
FDE
330
1E
100
AcDbEntity
  8
0
100
AcDbCircle
 10
1.376068767796472
 20
14.59565224443033
 30
0.0
 40
0.21875
100
AcDbArc
 50
270.0
 51
90.0
  0
CIRCLE
  5
FDF
330
1E
100
AcDbEntity
  8
0
100
AcDbCircle
 10
1.188568767796472
 20
15.34565224443033
 30
0.0
 40
0.0855
  0
LINE
  5
FE0
330
1E
100
AcDbEntity
  8
0
100
AcDbLine
 10
1.376068767796472
 20
14.81440224443033
 30
0.0
 11
0.0635687677964718
 21
14.81440224443033
 31
0.0
  0
LINE
  5
FE1
330
1E
100
AcDbEntity
  8
0
100
AcDbLine
 10
1.376068767796472
 20
15.12690224443048
 30
0.0
 11
0.0635687677964718
 21
15.12690224443048
 31
0.0
  0
LINE
  5
FE2
330
1E
100
AcDbEntity
  8
0
100
AcDbLine
 10
1.376068767796472
 20
13.37680224443032
 30
0.0
 11
0.6239477221996914
 21
13.37680224443031
 31
0.0
  0
LINE
  5
FE3
330
1E
100
AcDbEntity
  8
0
100
AcDbLine
 10
1.376068767796472
 20
13.65810224443047
 30
0.0
 11
0.5431975383524055
 21
13.65810224443047
 31
0.0
  0
LINE
  5
FE4
330
1E
100
AcDbEntity
  8
0
100
AcDbLine
 10
1.376068767796472
 20
14.0956022444302
 30
0.0
 11
0.328733810741678
 21
14.0956022444302
 31
0.0
  0
LINE
  5
FE5
330
1E
100
AcDbEntity
  8
0
100
AcDbLine
 10
1.376068767796472
 20
14.37690224443035
 30
0.0
 11
0.0635687677964718
 21
14.37690224443035
 31
0.0
  0
ARC
  5
FE6
330
1E
100
AcDbEntity
  8
0
100
AcDbCircle
 10
0.0635687677964718
 20
13.87685224443033
 30
0.0
 40
0.34375
100
AcDbArc
 50
24.78445374465106
 51
89.9999536670809
  0
LINE
  5
FE7
330
1E
100
AcDbEntity
  8
0
100
AcDbLine
 10
0.3756565646498906
 20
14.02095383899187
 30
0.0
 11
0.5934565646498946
 21
13.54925383899187
 31
0.0
  0
LINE
  5
FE8
330
1E
100
AcDbEntity
  8
0
100
AcDbLine
 10
1.376068767796472
 20
15.5644022444302
 30
0.0
 11
0.0635687677964718
 21
15.5644022444302
 31
0.0
  0
LINE
  5
FE9
330
1E
100
AcDbEntity
  8
0
100
AcDbLine
 10
1.407068767796393
 20
15.87685224443033
 30
0.0
 11
1.407068767796393
 21
16.24465224443033
 31
0.0
  0
LINE
  5
FEA
330
1E
100
AcDbEntity
  8
0
100
AcDbLine
 10
1.220068767796551
 20
15.87685224443033
 30
0.0
 11
1.220068767796551
 21
15.97585224443033
 31
0.0
  0
ARC
  5
FEB
330
1E
100
AcDbEntity
  8
0
100
AcDbCircle
 10
1.313568767796472
 20
15.87685224443033
 30
0.0
 40
0.0935
100
AcDbArc
 50
179.9999001805695
 51
0.0000998194305161
  0
ARC
  5
FEC
330
1E
100
AcDbEntity
  8
0
100
AcDbCircle
 10
1.844868767796474
 20
16.37685224443032
 30
0.0
 40
0.0935
100
AcDbArc
 50
180.0
 51
270.0
  0
LINE
  5
FED
330
1E
100
AcDbEntity
  8
0
100
AcDbLine
 10
1.53926876779639
 20
16.37685224443032
 30
0.0
 11
1.751368767796809
 21
16.37685224443032
 31
0.0
  0
LINE
  5
FEE
330
1E
100
AcDbEntity
  8
0
100
AcDbLine
 10
1.943868767796463
 20
16.37685224443032
 30
0.0
 11
1.844868767796474
 21
16.37685224443032
 31
0.0
  0
LINE
  5
FEF
330
1E
100
AcDbEntity
  8
0
100
AcDbLine
 10
1.844868767796474
 20
16.28335224443033
 30
0.0
 11
1.844868767796474
 21
11.47035224443033
 31
0.0
  0
LINE
  5
FF0
330
1E
100
AcDbEntity
  8
0
100
AcDbLine
 10
-1.717731232203538
 20
16.28335224443033
 30
0.0
 11
-1.717731232203541
 21
11.47035224443034
 31
0.0
  0
LINE
  5
FF1
330
1E
100
AcDbEntity
  8
0
100
AcDbLine
 10
1.943868767796463
 20
16.28335224443033
 30
0.0
 11
1.844868767796474
 21
16.28335224443033
 31
0.0
  0
LINE
  5
FF2
330
1E
100
AcDbEntity
  8
0
100
AcDbLine
 10
-1.816731232203527
 20
16.28335224443033
 30
0.0
 11
-1.717731232203538
 21
16.28335224443033
 31
0.0
  0
LINE
  5
FF3
330
1E
100
AcDbEntity
  8
DASHED
100
AcDbLine
 10
1.376068767796472
 20
15.4654022444302
 30
0.0
 11
0.0635687677964718
 21
15.4654022444302
 31
0.0
  0
ARC
  5
FF4
330
1E
100
AcDbEntity
  8
DASHED
100
AcDbCircle
 10
1.376068767796472
 20
15.34565224443033
 30
0.0
 40
0.11975
100
AcDbArc
 50
270.0
 51
90.0
  0
LINE
  5
FF5
330
1E
100
AcDbEntity
  8
DASHED
100
AcDbLine
 10
1.376068767796472
 20
15.22590224443048
 30
0.0
 11
0.0635687677964718
 21
15.22590224443048
 31
0.0
  0
LINE
  5
FF6
330
1E
100
AcDbEntity
  8
DASHED
100
AcDbLine
 10
-1.248931232203529
 20
15.4654022444302
 30
0.0
 11
0.0635687677964647
 21
15.4654022444302
 31
0.0
  0
ARC
  5
FF7
330
1E
100
AcDbEntity
  8
DASHED
100
AcDbCircle
 10
-1.248931232203529
 20
15.34565224443033
 30
0.0
 40
0.11975
100
AcDbArc
 50
90.00000000000011
 51
270.0000000000002
  0
LINE
  5
FF8
330
1E
100
AcDbEntity
  8
DASHED
100
AcDbLine
 10
-1.248931232203529
 20
15.22590224443048
 30
0.0
 11
0.0635687677964647
 21
15.22590224443048
 31
0.0
  0
LINE
  5
FF9
330
1E
100
AcDbEntity
  8
DASHED
100
AcDbLine
 10
1.376068767796472
 20
14.71540224443033
 30
0.0
 11
0.0635687677964718
 21
14.71540224443033
 31
0.0
  0
LINE
  5
FFA
330
1E
100
AcDbEntity
  8
DASHED
100
AcDbLine
 10
-1.248931232203529
 20
14.71540224443033
 30
0.0
 11
0.0635687677964647
 21
14.71540224443033
 31
0.0
  0
LINE
  5
FFB
330
1E
100
AcDbEntity
  8
DASHED
100
AcDbLine
 10
-1.248931232203529
 20
14.47590224443035
 30
0.0
 11
0.0635687677964718
 21
14.47590224443035
 31
0.0
  0
LINE
  5
FFC
330
1E
100
AcDbEntity
  8
DASHED
100
AcDbLine
 10
1.376068767796472
 20
14.47590224443035
 30
0.0
 11
0.0635687677964718
 21
14.47590224443035
 31
0.0
  0
ARC
  5
FFD
330
1E
100
AcDbEntity
  8
DASHED
100
AcDbCircle
 10
1.376068767796472
 20
14.59565224443033
 30
0.0
 40
0.11975
100
AcDbArc
 50
270.0
 51
90.0
  0
ARC
  5
FFE
330
1E
100
AcDbEntity
  8
DASHED
100
AcDbCircle
 10
-1.248931232203529
 20
14.59565224443033
 30
0.0
 40
0.11975
100
AcDbArc
 50
90.00000000000011
 51
270.0000000000002
  0
LINE
  5
FFF
330
1E
100
AcDbEntity
  8
DASHED
100
AcDbLine
 10
1.376068767796472
 20
13.9966022444302
 30
0.0
 11
0.386900527540563
 21
13.9966022444302
 31
0.0
  0
LINE
  5
1000
330
1E
100
AcDbEntity
  8
DASHED
100
AcDbLine
 10
1.376068767796472
 20
13.75710224443047
 30
0.0
 11
0.497485857199127
 21
13.75710224443047
 31
0.0
  0
ARC
  5
1001
330
1E
100
AcDbEntity
  8
DASHED
100
AcDbCircle
 10
1.376068767796472
 20
13.87685224443033
 30
0.0
 40
0.11975
100
AcDbArc
 50
270.0
 51
90.0
  0
ARC
  5
1002
330
1E
100
AcDbEntity
  8
DASHED
100
AcDbCircle
 10
1.376068767796472
 20
13.15805224443032
 30
0.0
 40
0.11975
100
AcDbArc
 50
270.0
 51
90.00000000000003
  0
LINE
  5
1003
330
1E
100
AcDbEntity
  8
DASHED
100
AcDbLine
 10
1.376068767796472
 20
13.27780224443032
 30
0.0
 11
0.6006586674174699
 21
13.27780224443031
 31
0.0
  0
LINE
  5
1004
330
1E
100
AcDbEntity
  8
DASHED
100
AcDbLine
 10
1.376068767796472
 20
13.03830224443034
 30
0.0
 11
0.0635687677964718
 21
13.03830224443034
 31
0.0
  0
LINE
  5
1005
330
1E
100
AcDbEntity
  8
DASHED
100
AcDbLine
 10
-1.248931232203529
 20
13.9966022444302
 30
0.0
 11
-0.758648550173918
 21
13.9966022444302
 31
0.0
  0
LINE
  5
1006
330
1E
100
AcDbEntity
  8
DASHED
100
AcDbLine
 10
-1.248931232203529
 20
13.75710224443047
 30
0.0
 11
-0.7586485501739197
 21
13.75710224443047
 31
0.0
  0
ARC
  5
1007
330
1E
100
AcDbEntity
  8
DASHED
100
AcDbCircle
 10
-1.248931232203529
 20
13.87685224443033
 30
0.0
 40
0.11975
100
AcDbArc
 50
90.00000000000011
 51
270.0000000000002
  0
ARC
  5
1008
330
1E
100
AcDbEntity
  8
DASHED
100
AcDbCircle
 10
-1.248931232203529
 20
13.15805224443032
 30
0.0
 40
0.11975
100
AcDbArc
 50
89.99999999999986
 51
269.9999999999999
  0
LINE
  5
1009
330
1E
100
AcDbEntity
  8
DASHED
100
AcDbLine
 10
-1.248931232203529
 20
13.27780224443032
 30
0.0
 11
-0.038425324400059
 21
13.27780224443032
 31
0.0
  0
LINE
  5
100A
330
1E
100
AcDbEntity
  8
DASHED
100
AcDbLine
 10
-1.248931232203529
 20
13.03830224443034
 30
0.0
 11
0.0635687677964647
 21
13.03830224443034
 31
0.0
  0
LINE
  5
100B
330
1E
100
AcDbEntity
  8
DASHED
100
AcDbLine
 10
-1.248931232203529
 20
12.52780224443018
 30
0.0
 11
0.0635687677964647
 21
12.52780224443018
 31
0.0
  0
ARC
  5
100C
330
1E
100
AcDbEntity
  8
DASHED
100
AcDbCircle
 10
-1.248931232203529
 20
12.40805224443032
 30
0.0
 40
0.11975
100
AcDbArc
 50
89.99999999999986
 51
269.9999999999999
  0
LINE
  5
100D
330
1E
100
AcDbEntity
  8
DASHED
100
AcDbLine
 10
-1.248931232203528
 20
12.28830224443047
 30
0.0
 11
0.0635687677964647
 21
12.28830224443046
 31
0.0
  0
LINE
  5
100E
330
1E
100
AcDbEntity
  8
DASHED
100
AcDbLine
 10
1.376068767796472
 20
12.52780224443018
 30
0.0
 11
0.0635687677964718
 21
12.52780224443018
 31
0.0
  0
ARC
  5
100F
330
1E
100
AcDbEntity
  8
DASHED
100
AcDbCircle
 10
1.376068767796472
 20
12.40805224443032
 30
0.0
 40
0.11975
100
AcDbArc
 50
270.0
 51
90.00000000000003
  0
LINE
  5
1010
330
1E
100
AcDbEntity
  8
DASHED
100
AcDbLine
 10
1.37606876779647
 20
12.28830224443047
 30
0.0
 11
0.06356876779647
 21
12.28830224443046
 31
0.0
  0
LINE
  5
1011
330
1E
100
AcDbEntity
  8
0
100
AcDbLine
 10
1.844868767796474
 20
11.47035224443033
 30
0.0
 11
1.844868767796474
 21
11.37685224443114
 31
0.0
  0
LINE
  5
1012
330
1E
100
AcDbEntity
  8
0
100
AcDbLine
 10
-1.717731232203541
 20
11.47035224443034
 30
0.0
 11
-1.717731232203541
 21
11.37685224443114
 31
0.0
  0
ENDSEC
  0
SECTION
  2
OBJECTS
  0
DICTIONARY
  5
C
330
0
100
AcDbDictionary
281
     1
  3
ACAD_COLOR
350
E33
  3
ACAD_GROUP
350
D
  3
ACAD_LAYOUT
350
19
  3
ACAD_MATERIAL
350
E32
  3
ACAD_MLINESTYLE
350
16
  3
ACAD_PLOTSETTINGS
350
18
  3
ACAD_PLOTSTYLENAME
350
E
  3
ACAD_TABLESTYLE
350
E34
  3
ACDBHEADERROUNDTRIPXREC
350
102C
  3
AcDbVariableDictionary
350
E97
  0
DICTIONARY
  5
E43
330
2
100
AcDbDictionary
280
     1
281
     1
  3
ACAD_LAYERFILTERS
360
F46
  3
ACAD_LAYERSTATES
360
E44
  3
ACLYDICTIONARY
360
F45
  0
DICTIONARY
  5
E33
102
{ACAD_REACTORS
330
C
102
}
330
C
100
AcDbDictionary
281
     1
  0
DICTIONARY
  5
D
102
{ACAD_REACTORS
330
C
102
}
330
C
100
AcDbDictionary
281
     1
  0
DICTIONARY
  5
19
102
{ACAD_REACTORS
330
C
102
}
330
C
100
AcDbDictionary
281
     1
  3
Layout1
350
1D
  3
Model
350
21
  0
DICTIONARY
  5
E32
102
{ACAD_REACTORS
330
C
102
}
330
C
100
AcDbDictionary
281
     1
  0
DICTIONARY
  5
16
102
{ACAD_REACTORS
330
C
102
}
330
C
100
AcDbDictionary
281
     1
  3
Standard
350
17
  0
DICTIONARY
  5
18
102
{ACAD_REACTORS
330
C
102
}
330
C
100
AcDbDictionary
281
     1
  0
ACDBDICTIONARYWDFLT
  5
E
102
{ACAD_REACTORS
330
C
102
}
330
C
100
AcDbDictionary
281
     1
  3
Normal
350
F
100
AcDbDictionaryWithDefault
340
F
  0
DICTIONARY
  5
E34
102
{ACAD_REACTORS
330
C
102
}
330
C
100
AcDbDictionary
281
     1
  3
Standard
350
E35
  0
DICTIONARY
  5
102C
102
{ACAD_REACTORS
330
C
102
}
330
C
100
AcDbDictionary
281
     1
  3
COLORDICT
350
102D
  3
MATERIALDICT
350
102E
  0
DICTIONARY
  5
E97
102
{ACAD_REACTORS
330
C
102
}
330
C
100
AcDbDictionary
281
     1
  3
CTABLESTYLE
350
E98
  0
DICTIONARY
  5
F46
102
{ACAD_REACTORS
330
E43
102
}
330
E43
100
AcDbDictionary
281
     1
  0
DICTIONARY
  5
E44
102
{ACAD_REACTORS
330
E43
102
}
330
E43
100
AcDbDictionary
281
     1
  0
DICTIONARY
  5
F45
102
{ACAD_REACTORS
330
E43
102
}
330
E43
100
AcDbDictionary
281
     1
1001
ACAD
1000
<All
  0
LAYOUT
  5
1D
102
{ACAD_REACTORS
330
19
102
}
102
{ACAD_XDICTIONARY
360
102F
102
}
330
19
100
AcDbPlotSettings
  1

  2
HP LaserJet 2100 Series PS
  4

  6

 40
0.0
 41
0.0
 42
0.0
 43
0.0
 44
0.0
 45
0.0
 46
0.0
 47
0.0
 48
0.0
 49
0.0
140
0.0
141
0.0
142
1.0
143
1.0
 70
   688
 72
     0
 73
     0
 74
     5
  7
monochrome.ctb
 75
    16
147
1.0
148
0.0
149
0.0
100
AcDbLayout
  1
Layout1
 70
     0
 71
     1
 10
0.0
 20
0.0
 11
12.0
 21
9.0
 12
0.0
 22
0.0
 32
0.0
 14
1.000000000000000E+20
 24
1.000000000000000E+20
 34
1.000000000000000E+20
 15
-1.000000000000000E+20
 25
-1.000000000000000E+20
 35
-1.000000000000000E+20
146
0.0
 13
0.0
 23
0.0
 33
0.0
 16
1.0
 26
0.0
 36
0.0
 17
0.0
 27
1.0
 37
0.0
 76
     0
330
1A
  0
LAYOUT
  5
21
102
{ACAD_REACTORS
330
19
102
}
102
{ACAD_XDICTIONARY
360
1031
102
}
330
19
100
AcDbPlotSettings
  1

  2
HP LaserJet 2100 Series PS
  4
Letter
  6

 40
5.365749835968018
 41
5.408073902130127
 42
5.132904052734375
 43
5.090576171875
 44
215.8999938964844
 45
279.3999938964844
 46
0.0
 47
0.0
 48
0.0
 49
0.0
140
0.0
141
0.0
142
1.0
143
2.479533908317576
 70
 11952
 72
     0
 73
     2
 74
     2
  7
monochrome.ctb
 75
     0
147
0.4033016030333396
148
0.0
149
0.0
100
AcDbLayout
  1
Model
 70
     1
 71
     0
 10
0.0
 20
0.0
 11
12.0
 21
9.0
 12
0.0
 22
0.0
 32
0.0
 14
0.0
 24
0.0
 34
0.0
 15
0.0
 25
0.0
 35
0.0
146
0.0
 13
0.0
 23
0.0
 33
0.0
 16
1.0
 26
0.0
 36
0.0
 17
0.0
 27
1.0
 37
0.0
 76
     0
330
1E
1001
ACAD_PSEXT
1000
HP LaserJet 2100 Series PS
1000
HP LaserJet 2100 Series PS
1000
LPT1:
1000

1070
     0
  0
MLINESTYLE
  5
17
102
{ACAD_REACTORS
330
16
102
}
330
16
100
AcDbMlineStyle
  2
STANDARD
 70
     0
  3

 62
   256
 51
90.0
 52
90.0
 71
     2
 49
0.5
 62
   256
  6
BYLAYER
 49
-0.5
 62
   256
  6
BYLAYER
  0
ACDBPLACEHOLDER
  5
F
102
{ACAD_REACTORS
330
E
102
}
330
E
  0
ACAD_PROXY_OBJECT
  5
E35
102
{ACAD_REACTORS
330
E34
102
}
330
E34
100
AcDbProxyObject
 90
      499
 91
      531
 95
   983063
 70
     0
 93
     1841
310
4214DD185B99185C9928B81E85EB51B8AE3F2E07A17AD46E2B8FC02B5E8DC0F42B1CFD028000000C1008070000C3001FDFF8000000C1003FBFF000000182007F7FE00000030400FEFFC00000060801FDFF8000000C1003FBFF00000018200000000000000681FA0B0000001820100E000186003FBFF000000182007F7FE000
310
00030400FEFFC00000060801FDFF8000000C1003FBFF000000182007F7FE000000304000AD7A3703D0AC73F4160000003040201C00030C007F7FE00000030400FEFFC00000060801FDFF8000000C1003FBFF000000182007F7FE00000030400FEFFC000000608000
340
11
340
11
340
11
 94
        0
  0
XRECORD
  5
102D
102
{ACAD_REACTORS
330
102C
102
}
330
102C
100
AcDbXrecord
340
E33
  0
XRECORD
  5
102E
102
{ACAD_REACTORS
330
102C
102
}
330
102C
100
AcDbXrecord
340
E32
  0
DICTIONARYVAR
  5
E98
102
{ACAD_REACTORS
330
E97
102
}
330
E97
100
DictionaryVariables
280
     0
  1
STANDARD
  0
DICTIONARY
  5
102F
330
1D
100
AcDbDictionary
280
     1
281
     1
  3
ACAD_XREC_ROUNDTRIP
360
1030
  0
DICTIONARY
  5
1031
330
21
100
AcDbDictionary
280
     1
281
     1
  3
ACAD_XREC_ROUNDTRIP
360
1032
  0
XRECORD
  5
1030
102
{ACAD_REACTORS
330
102F
102
}
330
102F
100
AcDbXrecord
102
SHADEPLOT
 70
     0
102
SHADEPLOTRESLEVEL
 70
     2
102
SHADEPLOTCUSTOMDPI
 70
   300
  0
XRECORD
  5
1032
102
{ACAD_REACTORS
330
1031
102
}
330
1031
100
AcDbXrecord
102
SHADEPLOT
 70
     0
102
SHADEPLOTRESLEVEL
 70
     2
102
SHADEPLOTCUSTOMDPI
 70
   300
  0
ENDSEC
  0
EOF
