  0
SECTION
  2
HEADER
  9
$ACADVER
  1
AC1015
  9
$ACADMAINTVER
 70
     6
  9
$DWGCODEPAGE
  3
ANSI_1252
  9
$INSBASE
 10
0.0
 20
0.0
 30
0.0
  9
$EXTMIN
 10
-12.50028683287794
 20
-6.833473778077092
 30
0.0
  9
$EXTMAX
 10
12.19184409163174
 20
6.616025249152276
 30
0.0
  9
$LIMMIN
 10
0.0
 20
0.0
  9
$LIMMAX
 10
31.5
 20
24.0
  9
$ORTHOMODE
 70
     1
  9
$REGENMODE
 70
     1
  9
$FILLMODE
 70
     1
  9
$QTEXTMODE
 70
     0
  9
$MIRRTEXT
 70
     0
  9
$LTSCALE
 40
0.5
  9
$ATTMODE
 70
     1
  9
$TEXTSIZE
 40
0.27
  9
$TRACEWID
 40
0.05
  9
$TEXTSTYLE
  7
STANDARD
  9
$CLAYER
  8
0
  9
$CELTYPE
  6
BYLAYER
  9
$CECOLOR
 62
   256
  9
$CELTSCALE
 40
1.0
  9
$DISPSILH
 70
     0
  9
$DIMSCALE
 40
3.0
  9
$DIMASZ
 40
0.125
  9
$DIMEXO
 40
0.062
  9
$DIMDLI
 40
0.375
  9
$DIMRND
 40
0.0
  9
$DIMDLE
 40
0.0
  9
$DIMEXE
 40
0.08
  9
$DIMTP
 40
0.0
  9
$DIMTM
 40
0.0
  9
$DIMTXT
 40
0.09
  9
$DIMCEN
 40
-0.03125
  9
$DIMTSZ
 40
0.0
  9
$DIMTOL
 70
     0
  9
$DIMLIM
 70
     0
  9
$DIMTIH
 70
     1
  9
$DIMTOH
 70
     1
  9
$DIMSE1
 70
     0
  9
$DIMSE2
 70
     0
  9
$DIMTAD
 70
     0
  9
$DIMZIN
 70
     0
  9
$DIMBLK
  1

  9
$DIMASO
 70
     0
  9
$DIMSHO
 70
     0
  9
$DIMPOST
  1

  9
$DIMAPOST
  1

  9
$DIMALT
 70
     0
  9
$DIMALTD
 70
     2
  9
$DIMALTF
 40
25.4
  9
$DIMLFAC
 40
1.0
  9
$DIMTOFL
 70
     0
  9
$DIMTVP
 40
0.0
  9
$DIMTIX
 70
     0
  9
$DIMSOXD
 70
     0
  9
$DIMSAH
 70
     0
  9
$DIMBLK1
  1

  9
$DIMBLK2
  1

  9
$DIMSTYLE
  2
STANDARD
  9
$DIMCLRD
 70
     0
  9
$DIMCLRE
 70
     0
  9
$DIMCLRT
 70
     0
  9
$DIMTFAC
 40
1.0
  9
$DIMGAP
 40
0.09
  9
$DIMJUST
 70
     0
  9
$DIMSD1
 70
     0
  9
$DIMSD2
 70
     0
  9
$DIMTOLJ
 70
     1
  9
$DIMTZIN
 70
     0
  9
$DIMALTZ
 70
     0
  9
$DIMALTTZ
 70
     0
  9
$DIMUPT
 70
     0
  9
$DIMDEC
 70
     5
  9
$DIMTDEC
 70
     5
  9
$DIMALTU
 70
     5
  9
$DIMALTTD
 70
     2
  9
$DIMTXSTY
  7
STANDARD
  9
$DIMAUNIT
 70
     0
  9
$DIMADEC
 70
     0
  9
$DIMALTRND
 40
0.0
  9
$DIMAZIN
 70
     0
  9
$DIMDSEP
 70
    46
  9
$DIMATFIT
 70
     3
  9
$DIMFRAC
 70
     0
  9
$DIMLDRBLK
  1

  9
$DIMLUNIT
 70
     5
  9
$DIMLWD
 70
    -2
  9
$DIMLWE
 70
    -2
  9
$DIMTMOVE
 70
     2
  9
$LUNITS
 70
     5
  9
$LUPREC
 70
     5
  9
$SKETCHINC
 40
0.1
  9
$FILLETRAD
 40
0.0
  9
$AUNITS
 70
     0
  9
$AUPREC
 70
     0
  9
$MENU
  1
SIMPSON
  9
$ELEVATION
 40
0.0
  9
$PELEVATION
 40
0.0
  9
$THICKNESS
 40
0.0
  9
$LIMCHECK
 70
     0
  9
$CHAMFERA
 40
0.375
  9
$CHAMFERB
 40
0.375
  9
$CHAMFERC
 40
0.0
  9
$CHAMFERD
 40
0.0
  9
$SKPOLY
 70
     0
  9
$TDCREATE
 40
2449253.665297106
  9
$TDUCREATE
 40
2449253.99863044
  9
$TDUPDATE
 40
2454946.993092639
  9
$TDUUPDATE
 40
2454947.326425972
  9
$TDINDWG
 40
0.085182963
  9
$TDUSRTIMER
 40
0.085182963
  9
$USRTIMER
 70
     1
  9
$ANGBASE
 50
0.0
  9
$ANGDIR
 70
     0
  9
$PDMODE
 70
     0
  9
$PDSIZE
 40
0.0
  9
$PLINEWID
 40
0.0
  9
$SPLFRAME
 70
     0
  9
$SPLINETYPE
 70
     6
  9
$SPLINESEGS
 70
     8
  9
$HANDSEED
  5
D55
  9
$SURFTAB1
 70
     6
  9
$SURFTAB2
 70
     6
  9
$SURFTYPE
 70
     6
  9
$SURFU
 70
     6
  9
$SURFV
 70
     6
  9
$UCSBASE
  2

  9
$UCSNAME
  2

  9
$UCSORG
 10
0.0
 20
0.0
 30
0.0
  9
$UCSXDIR
 10
1.0
 20
0.0
 30
0.0
  9
$UCSYDIR
 10
0.0
 20
1.0
 30
0.0
  9
$UCSORTHOREF
  2

  9
$UCSORTHOVIEW
 70
     0
  9
$UCSORGTOP
 10
0.0
 20
0.0
 30
0.0
  9
$UCSORGBOTTOM
 10
0.0
 20
0.0
 30
0.0
  9
$UCSORGLEFT
 10
0.0
 20
0.0
 30
0.0
  9
$UCSORGRIGHT
 10
0.0
 20
0.0
 30
0.0
  9
$UCSORGFRONT
 10
0.0
 20
0.0
 30
0.0
  9
$UCSORGBACK
 10
0.0
 20
0.0
 30
0.0
  9
$PUCSBASE
  2

  9
$PUCSNAME
  2

  9
$PUCSORG
 10
0.0
 20
0.0
 30
0.0
  9
$PUCSXDIR
 10
1.0
 20
0.0
 30
0.0
  9
$PUCSYDIR
 10
0.0
 20
1.0
 30
0.0
  9
$PUCSORTHOREF
  2

  9
$PUCSORTHOVIEW
 70
     0
  9
$PUCSORGTOP
 10
0.0
 20
0.0
 30
0.0
  9
$PUCSORGBOTTOM
 10
0.0
 20
0.0
 30
0.0
  9
$PUCSORGLEFT
 10
0.0
 20
0.0
 30
0.0
  9
$PUCSORGRIGHT
 10
0.0
 20
0.0
 30
0.0
  9
$PUCSORGFRONT
 10
0.0
 20
0.0
 30
0.0
  9
$PUCSORGBACK
 10
0.0
 20
0.0
 30
0.0
  9
$USERI1
 70
     0
  9
$USERI2
 70
     0
  9
$USERI3
 70
     0
  9
$USERI4
 70
     0
  9
$USERI5
 70
     0
  9
$USERR1
 40
0.0
  9
$USERR2
 40
0.0
  9
$USERR3
 40
0.0
  9
$USERR4
 40
0.0
  9
$USERR5
 40
0.0
  9
$WORLDVIEW
 70
     1
  9
$SHADEDGE
 70
     3
  9
$SHADEDIF
 70
    70
  9
$TILEMODE
 70
     1
  9
$MAXACTVP
 70
    16
  9
$PINSBASE
 10
0.0
 20
0.0
 30
0.0
  9
$PLIMCHECK
 70
     0
  9
$PEXTMIN
 10
1.000000000000000E+20
 20
1.000000000000000E+20
 30
1.000000000000000E+20
  9
$PEXTMAX
 10
-1.000000000000000E+20
 20
-1.000000000000000E+20
 30
-1.000000000000000E+20
  9
$PLIMMIN
 10
0.0
 20
0.0
  9
$PLIMMAX
 10
12.0
 20
9.0
  9
$UNITMODE
 70
     0
  9
$VISRETAIN
 70
     0
  9
$PLINEGEN
 70
     0
  9
$PSLTSCALE
 70
     0
  9
$TREEDEPTH
 70
  3020
  9
$CMLSTYLE
  2
STANDARD
  9
$CMLJUST
 70
     0
  9
$CMLSCALE
 40
1.0
  9
$PROXYGRAPHICS
 70
     1
  9
$MEASUREMENT
 70
     0
  9
$CELWEIGHT
370
    -1
  9
$ENDCAPS
280
     0
  9
$JOINSTYLE
280
     0
  9
$LWDISPLAY
290
     0
  9
$INSUNITS
 70
     0
  9
$HYPERLINKBASE
  1

  9
$STYLESHEET
  1
monochrome.ctb
  9
$XEDIT
290
     1
  9
$CEPSNTYPE
380
     0
  9
$PSTYLEMODE
290
     1
  9
$FINGERPRINTGUID
  2
{DEC6D506-4AE0-11D5-BE3F-00508B5FCD51}
  9
$VERSIONGUID
  2
{1E5411C3-63F6-440E-8DE4-B612E0777F8F}
  9
$EXTNAMES
290
     1
  9
$PSVPSCALE
 40
0.0
  9
$OLESTARTUP
290
     0
  0
ENDSEC
  0
SECTION
  2
CLASSES
  0
CLASS
  1
DICTIONARYVAR
  2
AcDbDictionaryVar
  3
AutoCAD 2000
 90
        0
280
     0
281
     0
  0
CLASS
  1
XRECORD
  2
AcDbXrecord
  3
AutoCAD 2000
 90
        0
280
     0
281
     0
  0
CLASS
  1
LWPOLYLINE
  2
AcDbPolyline
  3
AutoCAD 2000
 90
        0
280
     0
281
     1
  0
CLASS
  1
ACDBDICTIONARYWDFLT
  2
AcDbDictionaryWithDefault
  3
AutoCAD 2000
 90
        0
280
     0
281
     0
  0
CLASS
  1
ACDBPLACEHOLDER
  2
AcDbPlaceHolder
  3
ObjectDBX Classes
 90
        0
280
     0
281
     0
  0
CLASS
  1
LAYOUT
  2
AcDbLayout
  3
ObjectDBX Classes
 90
        0
280
     0
281
     0
  0
CLASS
  1
LONG_TRANSACTION
  2
AcDbLongTransaction
  3
ObjectDBX Classes
 90
   -65536
280
     1
281
     0
  0
CLASS
  1
LWPOLYLINE
  2
AcDbPolyline
  3
AutoCAD 2000
 90
        0
280
     0
281
     1
  0
CLASS
  1
HATCH
  2
AcDbHatch
  3
AutoCAD 2000
 90
        0
280
     0
281
     1
  0
CLASS
  1
XRECORD
  2
AcDbXrecord
  3
AutoCAD 2000
 90
        0
280
     0
281
     0
  0
CLASS
  1
LONG_TRANSACTION
  2
AcDbLongTransaction
  3
ObjectDBX Classes
 90
   -65536
280
     1
281
     0
  0
CLASS
  1
LWPOLYLINE
  2
AcDbPolyline
  3
AutoCAD 2000
 90
        0
280
     0
281
     1
  0
CLASS
  1
HATCH
  2
AcDbHatch
  3
AutoCAD 2000
 90
        0
280
     0
281
     1
  0
CLASS
  1
XRECORD
  2
AcDbXrecord
  3
AutoCAD 2000
 90
        0
280
     0
281
     0
  0
CLASS
  1
LONG_TRANSACTION
  2
AcDbLongTransaction
  3
ObjectDBX Classes
 90
   -65536
280
     1
281
     0
  0
CLASS
  1
LWPOLYLINE
  2
AcDbPolyline
  3
AutoCAD 2000
 90
        0
280
     0
281
     1
  0
CLASS
  1
HATCH
  2
AcDbHatch
  3
AutoCAD 2000
 90
        0
280
     0
281
     1
  0
CLASS
  1
XRECORD
  2
AcDbXrecord
  3
AutoCAD 2000
 90
        0
280
     0
281
     0
  0
CLASS
  1
LONG_TRANSACTION
  2
AcDbLongTransaction
  3
ObjectDBX Classes
 90
   -65536
280
     1
281
     0
  0
CLASS
  1
LWPOLYLINE
  2
AcDbPolyline
  3
AutoCAD 2000
 90
        0
280
     0
281
     1
  0
CLASS
  1
HATCH
  2
AcDbHatch
  3
AutoCAD 2000
 90
        0
280
     0
281
     1
  0
CLASS
  1
XRECORD
  2
AcDbXrecord
  3
AutoCAD 2000
 90
        0
280
     0
281
     0
  0
CLASS
  1
TABLESTYLE
  2
AcDbTableStyle
  3
ObjectDBX Classes
 90
     2047
280
     1
281
     0
  0
CLASS
  1
SORTENTSTABLE
  2
AcDbSortentsTable
  3
AutoCAD 2000
 90
        0
280
     0
281
     0
  0
ENDSEC
  0
SECTION
  2
TABLES
  0
TABLE
  2
VPORT
  5
8
330
0
100
AcDbSymbolTable
 70
     3
  0
VPORT
  5
D47
330
8
100
AcDbSymbolTableRecord
100
AcDbViewportTableRecord
  2
*Active
 70
     0
 10
0.0
 20
0.0
 11
1.0
 21
1.0
 12
4.913578332298592
 22
2.067947396306824
 13
0.0
 23
0.0
 14
0.03125
 24
0.03125
 15
0.25
 25
0.25
 16
0.0
 26
0.0
 36
1.0
 17
0.0
 27
0.0
 37
0.0
 40
21.96264636974585
 41
1.87741935483871
 42
50.0
 43
0.0
 44
0.0
 50
0.0
 51
0.0
 71
     0
 72
   100
 73
     1
 74
     0
 75
     0
 76
     0
 77
     0
 78
     0
281
     0
 65
     1
110
0.0
120
0.0
130
0.0
111
1.0
121
0.0
131
0.0
112
0.0
122
1.0
132
0.0
 79
     0
146
0.0
  0
ENDTAB
  0
TABLE
  2
LTYPE
  5
5
330
0
100
AcDbSymbolTable
 70
     3
  0
LTYPE
  5
11
330
5
100
AcDbSymbolTableRecord
100
AcDbLinetypeTableRecord
  2
BYBLOCK
 70
     0
  3

 72
    65
 73
     0
 40
0.0
  0
LTYPE
  5
12
330
5
100
AcDbSymbolTableRecord
100
AcDbLinetypeTableRecord
  2
BYLAYER
 70
     0
  3

 72
    65
 73
     0
 40
0.0
  0
LTYPE
  5
13
330
5
100
AcDbSymbolTableRecord
100
AcDbLinetypeTableRecord
  2
CONTINUOUS
 70
     0
  3
Solid line
 72
    65
 73
     0
 40
0.0
  0
LTYPE
  5
31
330
5
100
AcDbSymbolTableRecord
100
AcDbLinetypeTableRecord
  2
HIDDEN
 70
     0
  3
_ _ _ _ _ _ _ _ _ _ _ _ _ _ _ _ _ _ _ _ _ _ _
 72
    65
 73
     2
 40
0.375
 49
0.25
 74
     0
 49
-0.125
 74
     0
  0
LTYPE
  5
32
330
5
100
AcDbSymbolTableRecord
100
AcDbLinetypeTableRecord
  2
DASHED
 70
     0
  3
__ __ __ __ __ __ __ __ __ __ __ __ __ __ __
 72
    65
 73
     2
 40
0.75
 49
0.5
 74
     0
 49
-0.25
 74
     0
  0
ENDTAB
  0
TABLE
  2
LAYER
  5
2
102
{ACAD_XDICTIONARY
360
BFA
102
}
330
0
100
AcDbSymbolTable
 70
     4
  0
LAYER
  5
E
330
2
100
AcDbSymbolTableRecord
100
AcDbLayerTableRecord
  2
0
 70
     0
 62
     7
  6
CONTINUOUS
370
    -3
390
9DC
  0
LAYER
  5
3C
330
2
100
AcDbSymbolTableRecord
100
AcDbLayerTableRecord
  2
REV
 70
     0
 62
     1
  6
CONTINUOUS
370
    -3
390
9DC
  0
LAYER
  5
40
330
2
100
AcDbSymbolTableRecord
100
AcDbLayerTableRecord
  2
HIDDEN
 70
     0
 62
   253
  6
HIDDEN
370
    -3
390
9DC
  0
LAYER
  5
42
330
2
100
AcDbSymbolTableRecord
100
AcDbLayerTableRecord
  2
DASHED
 70
     0
 62
     8
  6
DASHED
370
    -3
390
9DC
  0
ENDTAB
  0
TABLE
  2
STYLE
  5
3
330
0
100
AcDbSymbolTable
 70
     1
  0
STYLE
  5
F
330
3
100
AcDbSymbolTableRecord
100
AcDbTextStyleTableRecord
  2
STANDARD
 70
     0
 40
0.0
 41
1.0
 50
0.0
 71
     0
 42
0.27
  3
TXT
  4

  0
ENDTAB
  0
TABLE
  2
VIEW
  5
6
330
0
100
AcDbSymbolTable
 70
     0
  0
ENDTAB
  0
TABLE
  2
UCS
  5
7
330
0
100
AcDbSymbolTable
 70
     0
  0
ENDTAB
  0
TABLE
  2
APPID
  5
9
330
0
100
AcDbSymbolTable
 70
     3
  0
APPID
  5
10
330
9
100
AcDbSymbolTableRecord
100
AcDbRegAppTableRecord
  2
ACAD
 70
     0
  0
APPID
  5
BF9
330
9
100
AcDbSymbolTableRecord
100
AcDbRegAppTableRecord
  2
ACAD_PSEXT
 70
     0
  0
APPID
  5
C4E
330
9
100
AcDbSymbolTableRecord
100
AcDbRegAppTableRecord
  2
CONTENTBLOCKICON
 70
     0
  0
ENDTAB
  0
TABLE
  2
DIMSTYLE
  5
A
330
0
100
AcDbSymbolTable
 70
     1
100
AcDbDimStyleTable
  0
DIMSTYLE
105
98A
330
A
100
AcDbSymbolTableRecord
100
AcDbDimStyleTableRecord
  2
STANDARD
 70
     0
  3

  4

340
F
  0
ENDTAB
  0
TABLE
  2
BLOCK_RECORD
  5
1
330
0
100
AcDbSymbolTable
 70
     0
  0
BLOCK_RECORD
  5
17
330
1
100
AcDbSymbolTableRecord
100
AcDbBlockTableRecord
  2
*MODEL_SPACE
340
9DF
  0
BLOCK_RECORD
  5
14
330
1
100
AcDbSymbolTableRecord
100
AcDbBlockTableRecord
  2
*PAPER_SPACE
340
9E0
  0
ENDTAB
  0
ENDSEC
  0
SECTION
  2
BLOCKS
  0
BLOCK
  5
4A
330
17
100
AcDbEntity
  8
0
100
AcDbBlockBegin
  2
*MODEL_SPACE
 70
     0
 10
0.0
 20
0.0
 30
0.0
  3
*MODEL_SPACE
  1

  4

  0
ENDBLK
  5
4B
330
17
100
AcDbEntity
  8
0
100
AcDbBlockEnd
  0
BLOCK
  5
48
330
14
100
AcDbEntity
 67
     1
  8
0
100
AcDbBlockBegin
  2
*PAPER_SPACE
 70
     0
 10
0.0
 20
0.0
 30
0.0
  3
*PAPER_SPACE
  1

  4

  0
ENDBLK
  5
49
330
14
100
AcDbEntity
 67
     1
  8
0
100
AcDbBlockEnd
  0
ENDSEC
  0
SECTION
  2
ENTITIES
  0
LINE
  5
784
330
17
100
AcDbEntity
  8
HIDDEN
100
AcDbLine
 10
11.89263593883002
 20
1.437569879803711
 30
0.0
 11
6.95763593883002
 21
1.437569879803707
 31
0.0
  0
LINE
  5
785
330
17
100
AcDbEntity
  8
0
100
AcDbLine
 10
11.98663593883002
 20
1.500069879803711
 30
0.0
 11
11.95495641019135
 21
1.500069879803711
 31
0.0
  0
ARC
  5
786
330
17
100
AcDbEntity
  8
0
100
AcDbCircle
 10
6.938635938830014
 20
1.330069879803709
 30
0.0
 40
0.17
100
AcDbArc
 50
90.0
 51
180.0
  0
ARC
  5
787
330
17
100
AcDbEntity
  8
0
100
AcDbCircle
 10
6.957635938830016
 20
1.347569879803707
 30
0.0
 40
0.09
100
AcDbArc
 50
90.00000000000003
 51
180.0000000000001
  0
LINE
  5
788
330
17
100
AcDbEntity
  8
HIDDEN
100
AcDbLine
 10
7.032635938830023
 20
0.5325698798037095
 30
0.0
 11
7.032635938830023
 21
1.437569879803707
 31
0.0
  0
LINE
  5
789
330
17
100
AcDbEntity
  8
0
100
AcDbLine
 10
6.76863593883002
 20
1.330069879803709
 30
0.0
 11
6.76863593883002
 21
0.532569879803706
 31
0.0
  0
LINE
  5
78A
330
17
100
AcDbEntity
  8
0
100
AcDbLine
 10
6.867635938830016
 20
1.347569879803707
 30
0.0
 11
6.867635938830016
 21
0.532569879803706
 31
0.0
  0
LINE
  5
78B
330
17
100
AcDbEntity
  8
0
100
AcDbLine
 10
6.934981090091537
 20
0.5325698798037095
 30
0.0
 11
6.934981090091529
 21
1.386113645757838
 31
0.0
  0
LINE
  5
78C
330
17
100
AcDbEntity
  8
0
100
AcDbLine
 10
6.867635938830016
 20
0.5325698798037095
 30
0.0
 11
6.768635938830027
 21
0.532569879803706
 31
0.0
  0
LINE
  5
78D
330
17
100
AcDbEntity
  8
HIDDEN
100
AcDbLine
 10
6.932924385112795
 20
1.386113645757838
 30
0.0
 11
7.032635938830023
 21
1.386113645757842
 31
0.0
  0
ARC
  5
78E
330
17
100
AcDbEntity
  8
HIDDEN
100
AcDbCircle
 10
6.98684227383259
 20
1.444610155439285
 30
0.0
 40
0.0583872782687024
100
AcDbArc
 50
353.0744844638531
 51
71.7794065912048
  0
POINT
  5
78F
330
17
100
AcDbEntity
  8
HIDDEN
100
AcDbPoint
 10
9.345186594001714
 20
0.5043993178581161
 30
0.0
  0
ARC
  5
790
330
17
100
AcDbEntity
  8
0
100
AcDbCircle
 10
11.98663593883002
 20
1.330069879803709
 30
0.0
 40
0.17
100
AcDbArc
 50
0.0
 51
90.00000000000003
  0
LINE
  5
791
330
17
100
AcDbEntity
  8
HIDDEN
100
AcDbLine
 10
11.90480354350987
 20
1.386113645757842
 30
0.0
 11
11.90480354350987
 21
1.437569879803707
 31
0.0
  0
ARC
  5
792
330
17
100
AcDbEntity
  8
0
100
AcDbCircle
 10
11.96763593883003
 20
1.347569879803711
 30
0.0
 40
0.09
100
AcDbArc
 50
0.0
 51
90.00000000000003
  0
LINE
  5
793
330
17
100
AcDbEntity
  8
HIDDEN
100
AcDbLine
 10
11.90480354350987
 20
1.386113645757842
 30
0.0
 11
11.95495641019135
 21
1.38611364575784
 31
0.0
  0
LINE
  5
794
330
17
100
AcDbEntity
  8
HIDDEN
100
AcDbLine
 10
11.90480354350987
 20
0.5325698798037095
 30
0.0
 11
11.90480354350987
 21
1.386113645757842
 31
0.0
  0
LINE
  5
795
330
17
100
AcDbEntity
  8
0
100
AcDbLine
 10
11.99076153549201
 20
0.5325698798037095
 30
0.0
 11
11.99076153549201
 21
1.386113645757838
 31
0.0
  0
LINE
  5
796
330
17
100
AcDbEntity
  8
0
100
AcDbLine
 10
12.05763593883002
 20
1.347569879803711
 30
0.0
 11
12.05763593883002
 21
0.532569879803706
 31
0.0
  0
LINE
  5
797
330
17
100
AcDbEntity
  8
0
100
AcDbLine
 10
12.15663593883002
 20
1.330069879803709
 30
0.0
 11
12.15663593883002
 21
0.532569879803706
 31
0.0
  0
ARC
  5
798
330
17
100
AcDbEntity
  8
HIDDEN
100
AcDbCircle
 10
11.96724754526464
 20
1.442897509875628
 30
0.0
 40
0.062670862426912
100
AcDbArc
 50
107.6954635473207
 51
184.8765816099655
  0
LINE
  5
799
330
17
100
AcDbEntity
  8
0
100
AcDbLine
 10
11.96763593883003
 20
1.437569879803711
 30
0.0
 11
11.95495641019135
 21
1.437569879803711
 31
0.0
  0
LINE
  5
79A
330
17
100
AcDbEntity
  8
0
100
AcDbLine
 10
12.15663593883002
 20
0.532569879803706
 30
0.0
 11
12.05763593883003
 21
0.5325698798037024
 31
0.0
  0
LINE
  5
79B
330
17
100
AcDbEntity
  8
0
100
AcDbLine
 10
6.934981090091537
 20
0.5325698798037095
 30
0.0
 11
6.95763391872724
 21
0.5325698798037095
 31
0.0
  0
LINE
  5
79C
330
17
100
AcDbEntity
  8
0
100
AcDbLine
 10
11.99076153549201
 20
0.5325698798037095
 30
0.0
 11
11.86147189334732
 21
0.5325698798037095
 31
0.0
  0
LINE
  5
863
330
17
100
AcDbEntity
  8
0
100
AcDbLine
 10
6.954956410191354
 20
0.6243683774096773
 30
0.0
 11
6.954956410191354
 21
6.343368377409963
 31
0.0
  0
LINE
  5
864
330
17
100
AcDbEntity
  8
0
100
AcDbLine
 10
11.95495641019135
 20
6.343368377409963
 30
0.0
 11
11.95495641019135
 21
0.6243683774105868
 31
0.0
  0
LINE
  5
865
330
17
100
AcDbEntity
  8
HIDDEN
100
AcDbLine
 10
7.843450454487378
 20
0.6598683774099605
 30
0.0
 11
8.15595045448709
 21
0.659868377409957
 31
0.0
  0
LINE
  5
866
330
17
100
AcDbEntity
  8
0
100
AcDbLine
 10
6.954956410191354
 20
0.4018683774099578
 30
0.0
 11
11.95495641019135
 21
0.401868377409965
 31
0.0
  0
LINE
  5
867
330
17
100
AcDbEntity
  8
0
100
AcDbLine
 10
6.954956410191354
 20
0.5308683774099556
 30
0.0
 11
7.048456410191353
 21
0.5308683774099556
 31
0.0
  0
LINE
  5
86A
330
17
100
AcDbEntity
  8
0
100
AcDbLine
 10
6.954956410191354
 20
0.5308683774099556
 30
0.0
 11
6.954956410191354
 21
0.4018683774099578
 31
0.0
  0
LINE
  5
86E
330
17
100
AcDbEntity
  8
HIDDEN
100
AcDbLine
 10
7.339500454487265
 20
0.7956712265012627
 30
0.0
 11
7.468500454487266
 21
0.7956712265012627
 31
0.0
  0
LINE
  5
86F
330
17
100
AcDbEntity
  8
HIDDEN
100
AcDbLine
 10
7.339500454487268
 20
0.9278712265012601
 30
0.0
 11
7.468500454487266
 21
0.9278712265012601
 31
0.0
  0
ARC
  5
870
330
17
100
AcDbEntity
  8
0
100
AcDbCircle
 10
6.954956410191354
 20
0.5308683774099556
 30
0.0
 40
0.0935
100
AcDbArc
 50
0.0
 51
90.0
  0
LINE
  5
871
330
17
100
AcDbEntity
  8
HIDDEN
100
AcDbLine
 10
7.339500454487268
 20
0.9278712265012636
 30
0.0
 11
7.339500454487261
 21
0.5308683774099556
 31
0.0
  0
LINE
  5
872
330
17
100
AcDbEntity
  8
HIDDEN
100
AcDbLine
 10
7.468500454487266
 20
0.9278712265012636
 30
0.0
 11
7.468500454487259
 21
0.5308683774099556
 31
0.0
  0
ARC
  5
873
330
17
100
AcDbEntity
  8
HIDDEN
100
AcDbCircle
 10
7.843450454487378
 20
0.5973683774099605
 30
0.0
 40
0.0625
100
AcDbArc
 50
90.0
 51
180.0
  0
LINE
  5
874
330
17
100
AcDbEntity
  8
HIDDEN
100
AcDbLine
 10
7.780950454487378
 20
0.5973683774099605
 30
0.0
 11
7.780950454487378
 21
0.5308683774099592
 31
0.0
  0
CIRCLE
  5
876
330
17
100
AcDbEntity
  8
0
100
AcDbCircle
 10
11.58106108435167
 20
3.468368377409963
 30
0.0
 40
0.0855
  0
LINE
  5
87E
330
17
100
AcDbEntity
  8
0
100
AcDbLine
 10
11.95495641019135
 20
0.5308683774099627
 30
0.0
 11
11.95495641019135
 21
0.401868377409965
 31
0.0
  0
ARC
  5
881
330
17
100
AcDbEntity
  8
HIDDEN
100
AcDbCircle
 10
9.312250454487359
 20
0.5973683774099641
 30
0.0
 40
0.0625
100
AcDbArc
 50
90.0
 51
180.0
  0
LINE
  5
882
330
17
100
AcDbEntity
  8
HIDDEN
100
AcDbLine
 10
8.593450454487243
 20
0.659868377409957
 30
0.0
 11
8.905950454487222
 21
0.6598683774099605
 31
0.0
  0
ARC
  5
883
330
17
100
AcDbEntity
  8
HIDDEN
100
AcDbCircle
 10
8.15595045448709
 20
0.597368377409957
 30
0.0
 40
0.0625
100
AcDbArc
 50
0.0
 51
89.99999999999972
  0
LINE
  5
884
330
17
100
AcDbEntity
  8
HIDDEN
100
AcDbLine
 10
8.21845045448709
 20
0.597368377409957
 30
0.0
 11
8.21845045448709
 21
0.5308683774099592
 31
0.0
  0
ARC
  5
885
330
17
100
AcDbEntity
  8
HIDDEN
100
AcDbCircle
 10
8.593450454487243
 20
0.597368377409957
 30
0.0
 40
0.0625
100
AcDbArc
 50
90.00000000000021
 51
180.0
  0
LINE
  5
886
330
17
100
AcDbEntity
  8
HIDDEN
100
AcDbLine
 10
8.530950454487243
 20
0.597368377409957
 30
0.0
 11
8.530950454487243
 21
0.5308683774099592
 31
0.0
  0
ARC
  5
887
330
17
100
AcDbEntity
  8
HIDDEN
100
AcDbCircle
 10
8.905950454487222
 20
0.5973683774099605
 30
0.0
 40
0.0625
100
AcDbArc
 50
0.0
 51
90.0000000000005
  0
LINE
  5
888
330
17
100
AcDbEntity
  8
HIDDEN
100
AcDbLine
 10
8.968450454487222
 20
0.5973683774099605
 30
0.0
 11
8.968450454487222
 21
0.5308683774099627
 31
0.0
  0
LINE
  5
889
330
17
100
AcDbEntity
  8
HIDDEN
100
AcDbLine
 10
9.249750454487359
 20
0.5973683774099641
 30
0.0
 11
9.249750454487362
 21
0.5308683774099627
 31
0.0
  0
LINE
  5
88A
330
17
100
AcDbEntity
  8
HIDDEN
100
AcDbLine
 10
9.312250454487359
 20
0.6598683774099641
 30
0.0
 11
9.62475045448711
 21
0.6598683774099641
 31
0.0
  0
ARC
  5
88B
330
17
100
AcDbEntity
  8
HIDDEN
100
AcDbCircle
 10
9.62475045448711
 20
0.5973683774099641
 30
0.0
 40
0.0625
100
AcDbArc
 50
0.0
 51
90.0
  0
LINE
  5
88C
330
17
100
AcDbEntity
  8
HIDDEN
100
AcDbLine
 10
9.68725045448711
 20
0.5973683774099641
 30
0.0
 11
9.68725045448711
 21
0.5308683774099627
 31
0.0
  0
LINE
  5
88D
330
17
100
AcDbEntity
  8
HIDDEN
100
AcDbLine
 10
10.03105045448725
 20
0.6598683774099641
 30
0.0
 11
10.34355045448723
 21
0.6598683774099641
 31
0.0
  0
ARC
  5
88E
330
17
100
AcDbEntity
  8
HIDDEN
100
AcDbCircle
 10
10.03105045448725
 20
0.5973683774099641
 30
0.0
 40
0.0625
100
AcDbArc
 50
90.0
 51
180.0
  0
LINE
  5
88F
330
17
100
AcDbEntity
  8
HIDDEN
100
AcDbLine
 10
9.96855045448725
 20
0.5973683774099641
 30
0.0
 11
9.96855045448725
 21
0.5308683774099663
 31
0.0
  0
ARC
  5
890
330
17
100
AcDbEntity
  8
HIDDEN
100
AcDbCircle
 10
10.34355045448723
 20
0.5973683774099641
 30
0.0
 40
0.0625
100
AcDbArc
 50
0.0
 51
90.0000000000003
  0
LINE
  5
891
330
17
100
AcDbEntity
  8
HIDDEN
100
AcDbLine
 10
10.40605045448723
 20
0.5973683774099641
 30
0.0
 11
10.40605045448723
 21
0.5308683774099663
 31
0.0
  0
CIRCLE
  5
892
330
17
100
AcDbEntity
  8
0
100
AcDbCircle
 10
9.454956410191354
 20
3.280868377409956
 30
0.0
 40
0.3435
  0
CIRCLE
  5
895
330
17
100
AcDbEntity
  8
0
100
AcDbCircle
 10
8.584214883920975
 20
2.718368377409966
 30
0.0
 40
0.0855
  0
ARC
  5
896
330
17
100
AcDbEntity
  8
HIDDEN
100
AcDbCircle
 10
11.0935504544871
 20
0.5973683774099676
 30
0.0
 40
0.0625
100
AcDbArc
 50
359.9999999999984
 51
90.0000000000003
  0
LINE
  5
897
330
17
100
AcDbEntity
  8
HIDDEN
100
AcDbLine
 10
10.78105045448739
 20
0.6598683774099641
 30
0.0
 11
11.0935504544871
 21
0.6598683774099676
 31
0.0
  0
ARC
  5
898
330
17
100
AcDbEntity
  8
HIDDEN
100
AcDbCircle
 10
10.78105045448739
 20
0.5973683774099641
 30
0.0
 40
0.0625
100
AcDbArc
 50
90.00000000000021
 51
180.0
  0
LINE
  5
899
330
17
100
AcDbEntity
  8
HIDDEN
100
AcDbLine
 10
10.71855045448739
 20
0.5973683774099641
 30
0.0
 11
10.71855045448739
 21
0.5308683774099663
 31
0.0
  0
LINE
  5
89A
330
17
100
AcDbEntity
  8
HIDDEN
100
AcDbLine
 10
11.1560504544871
 20
0.5973683774099676
 30
0.0
 11
11.15605045448709
 21
0.5308683774099663
 31
0.0
  0
LINE
  5
89B
330
17
100
AcDbEntity
  8
HIDDEN
100
AcDbLine
 10
11.46850045448723
 20
0.7956712265012627
 30
0.0
 11
11.59750045448723
 21
0.7956712265012627
 31
0.0
  0
LINE
  5
89C
330
17
100
AcDbEntity
  8
HIDDEN
100
AcDbLine
 10
11.46850045448723
 20
0.9278712265012601
 30
0.0
 11
11.59750045448723
 21
0.9278712265012601
 31
0.0
  0
LINE
  5
89D
330
17
100
AcDbEntity
  8
HIDDEN
100
AcDbLine
 10
11.59750045448723
 20
0.9278712265012601
 30
0.0
 11
11.59750045448723
 21
0.5308683774099698
 31
0.0
  0
LINE
  5
89E
330
17
100
AcDbEntity
  8
HIDDEN
100
AcDbLine
 10
11.46850045448723
 20
0.9278712265012601
 30
0.0
 11
11.46850045448723
 21
0.5308683774099698
 31
0.0
  0
ARC
  5
89F
330
17
100
AcDbEntity
  8
0
100
AcDbCircle
 10
11.95495641019135
 20
0.5308683774099627
 30
0.0
 40
0.0935
100
AcDbArc
 50
90.0
 51
179.9999999999957
  0
LINE
  5
8A6
330
17
100
AcDbEntity
  8
0
100
AcDbLine
 10
7.204956410191354
 20
6.593368377409963
 30
0.0
 11
11.70495641019135
 21
6.593368377409963
 31
0.0
  0
CIRCLE
  5
8C0
330
17
100
AcDbEntity
  8
0
100
AcDbCircle
 10
11.58106108435167
 20
6.218368377409963
 30
0.0
 40
0.0855
  0
LINE
  5
8C7
330
17
100
AcDbEntity
  8
0
100
AcDbLine
 10
7.204956410191354
 20
6.593368377409949
 30
0.0
 11
6.954956410191354
 21
6.343368377409949
 31
0.0
  0
CIRCLE
  5
8DF
330
17
100
AcDbEntity
  8
0
100
AcDbCircle
 10
8.579956410191343
 20
6.218368377409949
 30
0.0
 40
0.0855
  0
CIRCLE
  5
8E0
330
17
100
AcDbEntity
  8
0
100
AcDbCircle
 10
9.454956410191354
 20
5.280868377409963
 30
0.0
 40
0.3435
  0
CIRCLE
  5
8E2
330
17
100
AcDbEntity
  8
0
100
AcDbCircle
 10
7.327961117499193
 20
4.71836837740997
 30
0.0
 40
0.0855
  0
CIRCLE
  5
8E4
330
17
100
AcDbEntity
  8
0
100
AcDbCircle
 10
10.32995641019136
 20
4.718368377409949
 30
0.0
 40
0.0855
  0
LINE
  5
8E7
330
17
100
AcDbEntity
  8
0
100
AcDbLine
 10
11.95495641019135
 20
6.343368377409963
 30
0.0
 11
11.70495641019135
 21
6.593368377409963
 31
0.0
  0
LINE
  5
951
330
17
100
AcDbEntity
  8
DASHED
100
AcDbLine
 10
7.048456410191353
 20
0.5308683774099556
 30
0.0
 11
11.86145641019136
 21
0.5308683774099698
 31
0.0
  0
LINE
  5
952
330
17
100
AcDbEntity
  8
0
100
AcDbLine
 10
7.048456410191353
 20
0.5308683774099556
 30
0.0
 11
7.048456410191353
 21
0.4018683774099578
 31
0.0
  0
LINE
  5
953
330
17
100
AcDbEntity
  8
0
100
AcDbLine
 10
11.86145641019136
 20
0.5308683774099698
 30
0.0
 11
11.95495641019135
 21
0.5308683774099698
 31
0.0
  0
LINE
  5
954
330
17
100
AcDbEntity
  8
0
100
AcDbLine
 10
11.86145641019136
 20
0.5308683774099627
 30
0.0
 11
11.86145641019136
 21
0.401868377409965
 31
0.0
  0
LINE
  5
955
330
17
100
AcDbEntity
  8
0
100
AcDbLine
 10
11.95495641019135
 20
1.38611364575784
 30
0.0
 11
11.99076153549201
 21
1.386113645757838
 31
0.0
  0
LINE
  5
956
330
17
100
AcDbEntity
  8
HIDDEN
100
AcDbLine
 10
11.95495641019135
 20
1.437569879803711
 30
0.0
 11
11.89263593882998
 21
1.437569879803711
 31
0.0
  0
LINE
  5
957
330
17
100
AcDbEntity
  8
HIDDEN
100
AcDbLine
 10
11.95495641019135
 20
1.500069879803711
 30
0.0
 11
6.938635938830014
 21
1.500069879803707
 31
0.0
  0
TEXT
  5
C4A
330
17
100
AcDbEntity
  8
REV
100
AcDbText
 10
27.2979796048138
 20
5.138102895157769
 30
0.0
 40
0.198
  1

 72
     4
 11
27.2979796048138
 21
5.138102895157769
 31
0.0
100
AcDbText
  0
ENDSEC
  0
SECTION
  2
OBJECTS
  0
DICTIONARY
  5
C
330
0
100
AcDbDictionary
281
     1
  3
ACAD_COLOR
350
BEA
  3
ACAD_GROUP
350
D
  3
ACAD_LAYOUT
350
9DD
  3
ACAD_MATERIAL
350
BE9
  3
ACAD_MLINESTYLE
350
1A
  3
ACAD_PLOTSETTINGS
350
9DE
  3
ACAD_PLOTSTYLENAME
350
9DB
  3
ACAD_TABLESTYLE
350
BEB
  3
ACDBHEADERROUNDTRIPXREC
350
D4E
  3
ACDBVARIABLEDICTIONARY
350
4C
  0
DICTIONARY
  5
BFA
330
2
100
AcDbDictionary
280
     1
281
     1
  3
ACAD_LAYERFILTERS
360
CD3
  3
ACAD_LAYERSTATES
360
BFB
  3
ACLYDICTIONARY
360
CD2
  0
DICTIONARY
  5
BEA
102
{ACAD_REACTORS
330
C
102
}
330
C
100
AcDbDictionary
281
     1
  0
DICTIONARY
  5
D
102
{ACAD_REACTORS
330
C
102
}
330
C
100
AcDbDictionary
281
     1
  0
DICTIONARY
  5
9DD
102
{ACAD_REACTORS
330
C
102
}
330
C
100
AcDbDictionary
281
     1
  3
Layout1
350
9E0
  3
Model
350
9DF
  0
DICTIONARY
  5
BE9
102
{ACAD_REACTORS
330
C
102
}
330
C
100
AcDbDictionary
281
     1
  0
DICTIONARY
  5
1A
102
{ACAD_REACTORS
330
C
102
}
330
C
100
AcDbDictionary
281
     1
  3
STANDARD
350
1B
  0
DICTIONARY
  5
9DE
102
{ACAD_REACTORS
330
C
102
}
330
C
100
AcDbDictionary
281
     1
  0
ACDBDICTIONARYWDFLT
  5
9DB
102
{ACAD_REACTORS
330
C
102
}
330
C
100
AcDbDictionary
281
     1
  3
Normal
350
9DC
100
AcDbDictionaryWithDefault
340
9DC
  0
DICTIONARY
  5
BEB
102
{ACAD_REACTORS
330
C
102
}
330
C
100
AcDbDictionary
281
     1
  3
Standard
350
BEC
  0
DICTIONARY
  5
D4E
102
{ACAD_REACTORS
330
C
102
}
330
C
100
AcDbDictionary
281
     1
  3
COLORDICT
350
D4F
  3
MATERIALDICT
350
D50
  0
DICTIONARY
  5
4C
102
{ACAD_REACTORS
330
C
102
}
330
C
100
AcDbDictionary
281
     1
  3
CTABLESTYLE
350
C3B
  3
DIMADEC
350
4D
  0
DICTIONARY
  5
CD3
102
{ACAD_REACTORS
330
BFA
102
}
330
BFA
100
AcDbDictionary
281
     1
  0
DICTIONARY
  5
BFB
102
{ACAD_REACTORS
330
BFA
102
}
330
BFA
100
AcDbDictionary
281
     1
  0
DICTIONARY
  5
CD2
102
{ACAD_REACTORS
330
BFA
102
}
330
BFA
100
AcDbDictionary
281
     1
1001
ACAD
1000
<All
  0
LAYOUT
  5
9E0
102
{ACAD_REACTORS
330
9DD
102
}
102
{ACAD_XDICTIONARY
360
D51
102
}
330
9DD
100
AcDbPlotSettings
  1

  2
HP LaserJet 2100 Series PS
  4

  6

 40
0.0
 41
0.0
 42
0.0
 43
0.0
 44
0.0
 45
0.0
 46
0.0
 47
0.0
 48
0.0
 49
0.0
140
0.0
141
0.0
142
1.0
143
1.0
 70
   688
 72
     0
 73
     0
 74
     5
  7
monochrome.ctb
 75
    16
147
1.0
148
0.0
149
0.0
100
AcDbLayout
  1
Layout1
 70
     0
 71
     1
 10
0.0
 20
0.0
 11
12.0
 21
9.0
 12
0.0
 22
0.0
 32
0.0
 14
1.000000000000000E+20
 24
1.000000000000000E+20
 34
1.000000000000000E+20
 15
-1.000000000000000E+20
 25
-1.000000000000000E+20
 35
-1.000000000000000E+20
146
0.0
 13
0.0
 23
0.0
 33
0.0
 16
1.0
 26
0.0
 36
0.0
 17
0.0
 27
1.0
 37
0.0
 76
     0
330
14
  0
LAYOUT
  5
9DF
102
{ACAD_REACTORS
330
9DD
102
}
102
{ACAD_XDICTIONARY
360
D53
102
}
330
9DD
100
AcDbPlotSettings
  1

  2
HP LaserJet 2100 Series PS
  4
Letter
  6

 40
5.365749835968018
 41
5.408073902130127
 42
5.132904052734375
 43
5.090576171875
 44
215.8999938964844
 45
279.3999938964844
 46
0.0
 47
0.0
 48
0.0
 49
0.0
140
0.0
141
0.0
142
1.0
143
2.975440689981091
 70
 11952
 72
     0
 73
     3
 74
     2
  7
monochrome.ctb
 75
     0
147
0.3360846691944497
148
0.0
149
0.0
100
AcDbLayout
  1
Model
 70
     1
 71
     0
 10
0.0
 20
0.0
 11
12.0
 21
9.0
 12
0.0
 22
0.0
 32
0.0
 14
0.0
 24
0.0
 34
0.0
 15
0.0
 25
0.0
 35
0.0
146
0.0
 13
0.0
 23
0.0
 33
0.0
 16
1.0
 26
0.0
 36
0.0
 17
0.0
 27
1.0
 37
0.0
 76
     0
330
17
1001
ACAD_PSEXT
1000
HP LaserJet 2100 Series PS
1000
HP LaserJet 2100 Series PS
1000
LPT1:
1000

1070
     0
  0
MLINESTYLE
  5
1B
102
{ACAD_REACTORS
330
1A
102
}
330
1A
100
AcDbMlineStyle
  2
STANDARD
 70
     0
  3

 62
   256
 51
90.0
 52
90.0
 71
     2
 49
0.5
 62
   256
  6
BYLAYER
 49
-0.5
 62
   256
  6
BYLAYER
  0
ACDBPLACEHOLDER
  5
9DC
102
{ACAD_REACTORS
330
9DB
102
}
330
9DB
  0
ACAD_PROXY_OBJECT
  5
BEC
102
{ACAD_REACTORS
330
BEB
102
}
330
BEB
100
AcDbProxyObject
 90
      499
 91
      522
 95
   983063
 70
     0
 93
     1841
310
4214DD185B99185C9928B81E85EB51B8AE3F2E07A17AD46E2B8FC02B5E8DC0F42B1CFD028000000C1008070000C3001FDFF8000000C1003FBFF000000182007F7FE00000030400FEFFC00000060801FDFF8000000C1003FBFF00000018200000000000000681FA0B0000001820100E000186003FBFF000000182007F7FE000
310
00030400FEFFC00000060801FDFF8000000C1003FBFF000000182007F7FE000000304000AD7A3703D0AC73F4160000003040201C00030C007F7FE00000030400FEFFC00000060801FDFF8000000C1003FBFF000000182007F7FE00000030400FEFFC000000608000
340
F
340
F
340
F
 94
        0
  0
XRECORD
  5
D4F
102
{ACAD_REACTORS
330
D4E
102
}
330
D4E
100
AcDbXrecord
340
BEA
  0
XRECORD
  5
D50
102
{ACAD_REACTORS
330
D4E
102
}
330
D4E
100
AcDbXrecord
340
BE9
  0
DICTIONARYVAR
  5
C3B
102
{ACAD_REACTORS
330
4C
102
}
330
4C
100
DictionaryVariables
280
     0
  1
STANDARD
  0
DICTIONARYVAR
  5
4D
102
{ACAD_REACTORS
330
4C
102
}
330
4C
100
DictionaryVariables
280
     0
  1
0
  0
DICTIONARY
  5
D51
330
9E0
100
AcDbDictionary
280
     1
281
     1
  3
ACAD_XREC_ROUNDTRIP
360
D52
  0
DICTIONARY
  5
D53
330
9DF
100
AcDbDictionary
280
     1
281
     1
  3
ACAD_XREC_ROUNDTRIP
360
D54
  0
XRECORD
  5
D52
102
{ACAD_REACTORS
330
D51
102
}
330
D51
100
AcDbXrecord
102
SHADEPLOT
 70
     0
102
SHADEPLOTRESLEVEL
 70
     2
102
SHADEPLOTCUSTOMDPI
 70
   300
  0
XRECORD
  5
D54
102
{ACAD_REACTORS
330
D53
102
}
330
D53
100
AcDbXrecord
102
SHADEPLOT
 70
     0
102
SHADEPLOTRESLEVEL
 70
     2
102
SHADEPLOTCUSTOMDPI
 70
   300
  0
ENDSEC
  0
EOF
