  0
SECTION
  2
HEADER
  9
$ACADVER
  1
AC1015
  9
$ACADMAINTVER
 70
     6
  9
$DWGCODEPAGE
  3
ANSI_1252
  9
$INSBASE
 10
0.0
 20
0.0
 30
0.0
  9
$EXTMIN
 10
-2.881114964279291
 20
-0.3713207296429033
 30
-0.0000000349181948
  9
$EXTMAX
 10
2.881595929835839
 20
4.630651759014313
 30
0.0000000814935746
  9
$LIMMIN
 10
0.0
 20
0.0
  9
$LIMMAX
 10
31.5
 20
24.0
  9
$ORTHOMODE
 70
     0
  9
$REGENMODE
 70
     1
  9
$FILLMODE
 70
     1
  9
$QTEXTMODE
 70
     0
  9
$MIRRTEXT
 70
     0
  9
$LTSCALE
 40
0.5
  9
$ATTMODE
 70
     1
  9
$TEXTSIZE
 40
0.27
  9
$TRACEWID
 40
0.05
  9
$TEXTSTYLE
  7
STANDARD
  9
$CLAYER
  8
0
  9
$CELTYPE
  6
BYLAYER
  9
$CECOLOR
 62
   256
  9
$CELTSCALE
 40
1.0
  9
$DISPSILH
 70
     0
  9
$DIMSCALE
 40
3.0
  9
$DIMASZ
 40
0.125
  9
$DIMEXO
 40
0.062
  9
$DIMDLI
 40
0.375
  9
$DIMRND
 40
0.0
  9
$DIMDLE
 40
0.0
  9
$DIMEXE
 40
0.08
  9
$DIMTP
 40
0.0
  9
$DIMTM
 40
0.0
  9
$DIMTXT
 40
0.09
  9
$DIMCEN
 40
-0.03125
  9
$DIMTSZ
 40
0.0
  9
$DIMTOL
 70
     0
  9
$DIMLIM
 70
     0
  9
$DIMTIH
 70
     1
  9
$DIMTOH
 70
     1
  9
$DIMSE1
 70
     0
  9
$DIMSE2
 70
     0
  9
$DIMTAD
 70
     0
  9
$DIMZIN
 70
     0
  9
$DIMBLK
  1

  9
$DIMASO
 70
     0
  9
$DIMSHO
 70
     0
  9
$DIMPOST
  1

  9
$DIMAPOST
  1

  9
$DIMALT
 70
     0
  9
$DIMALTD
 70
     2
  9
$DIMALTF
 40
25.4
  9
$DIMLFAC
 40
1.0
  9
$DIMTOFL
 70
     0
  9
$DIMTVP
 40
0.0
  9
$DIMTIX
 70
     0
  9
$DIMSOXD
 70
     0
  9
$DIMSAH
 70
     0
  9
$DIMBLK1
  1

  9
$DIMBLK2
  1

  9
$DIMSTYLE
  2
STANDARD
  9
$DIMCLRD
 70
     0
  9
$DIMCLRE
 70
     0
  9
$DIMCLRT
 70
     0
  9
$DIMTFAC
 40
1.0
  9
$DIMGAP
 40
0.09
  9
$DIMJUST
 70
     0
  9
$DIMSD1
 70
     0
  9
$DIMSD2
 70
     0
  9
$DIMTOLJ
 70
     1
  9
$DIMTZIN
 70
     0
  9
$DIMALTZ
 70
     0
  9
$DIMALTTZ
 70
     0
  9
$DIMUPT
 70
     0
  9
$DIMDEC
 70
     5
  9
$DIMTDEC
 70
     5
  9
$DIMALTU
 70
     5
  9
$DIMALTTD
 70
     2
  9
$DIMTXSTY
  7
STANDARD
  9
$DIMAUNIT
 70
     0
  9
$DIMADEC
 70
     0
  9
$DIMALTRND
 40
0.0
  9
$DIMAZIN
 70
     0
  9
$DIMDSEP
 70
    46
  9
$DIMATFIT
 70
     3
  9
$DIMFRAC
 70
     0
  9
$DIMLDRBLK
  1

  9
$DIMLUNIT
 70
     5
  9
$DIMLWD
 70
    -2
  9
$DIMLWE
 70
    -2
  9
$DIMTMOVE
 70
     2
  9
$LUNITS
 70
     5
  9
$LUPREC
 70
     5
  9
$SKETCHINC
 40
0.1
  9
$FILLETRAD
 40
0.129
  9
$AUNITS
 70
     0
  9
$AUPREC
 70
     0
  9
$MENU
  1
SIMPSON
  9
$ELEVATION
 40
0.0
  9
$PELEVATION
 40
0.0
  9
$THICKNESS
 40
0.0
  9
$LIMCHECK
 70
     0
  9
$CHAMFERA
 40
0.375
  9
$CHAMFERB
 40
0.375
  9
$CHAMFERC
 40
0.0
  9
$CHAMFERD
 40
0.0
  9
$SKPOLY
 70
     0
  9
$TDCREATE
 40
2449253.62363044
  9
$TDUCREATE
 40
2449253.956963773
  9
$TDUPDATE
 40
2454160.709085706
  9
$TDUUPDATE
 40
2454161.042419039
  9
$TDINDWG
 40
0.0544946296
  9
$TDUSRTIMER
 40
0.0544946296
  9
$USRTIMER
 70
     1
  9
$ANGBASE
 50
0.0
  9
$ANGDIR
 70
     0
  9
$PDMODE
 70
     0
  9
$PDSIZE
 40
0.0
  9
$PLINEWID
 40
0.0
  9
$SPLFRAME
 70
     0
  9
$SPLINETYPE
 70
     6
  9
$SPLINESEGS
 70
     8
  9
$HANDSEED
  5
139
  9
$SURFTAB1
 70
     6
  9
$SURFTAB2
 70
     6
  9
$SURFTYPE
 70
     6
  9
$SURFU
 70
     6
  9
$SURFV
 70
     6
  9
$UCSBASE
  2

  9
$UCSNAME
  2

  9
$UCSORG
 10
0.0
 20
0.0
 30
0.0
  9
$UCSXDIR
 10
1.0
 20
0.0
 30
0.0
  9
$UCSYDIR
 10
0.0
 20
1.0
 30
0.0
  9
$UCSORTHOREF
  2

  9
$UCSORTHOVIEW
 70
     0
  9
$UCSORGTOP
 10
0.0
 20
0.0
 30
0.0
  9
$UCSORGBOTTOM
 10
0.0
 20
0.0
 30
0.0
  9
$UCSORGLEFT
 10
0.0
 20
0.0
 30
0.0
  9
$UCSORGRIGHT
 10
0.0
 20
0.0
 30
0.0
  9
$UCSORGFRONT
 10
0.0
 20
0.0
 30
0.0
  9
$UCSORGBACK
 10
0.0
 20
0.0
 30
0.0
  9
$PUCSBASE
  2

  9
$PUCSNAME
  2

  9
$PUCSORG
 10
0.0
 20
0.0
 30
0.0
  9
$PUCSXDIR
 10
1.0
 20
0.0
 30
0.0
  9
$PUCSYDIR
 10
0.0
 20
1.0
 30
0.0
  9
$PUCSORTHOREF
  2

  9
$PUCSORTHOVIEW
 70
     0
  9
$PUCSORGTOP
 10
0.0
 20
0.0
 30
0.0
  9
$PUCSORGBOTTOM
 10
0.0
 20
0.0
 30
0.0
  9
$PUCSORGLEFT
 10
0.0
 20
0.0
 30
0.0
  9
$PUCSORGRIGHT
 10
0.0
 20
0.0
 30
0.0
  9
$PUCSORGFRONT
 10
0.0
 20
0.0
 30
0.0
  9
$PUCSORGBACK
 10
0.0
 20
0.0
 30
0.0
  9
$USERI1
 70
     0
  9
$USERI2
 70
     0
  9
$USERI3
 70
     0
  9
$USERI4
 70
     0
  9
$USERI5
 70
     0
  9
$USERR1
 40
0.0
  9
$USERR2
 40
0.0
  9
$USERR3
 40
0.0
  9
$USERR4
 40
0.0
  9
$USERR5
 40
0.0
  9
$WORLDVIEW
 70
     1
  9
$SHADEDGE
 70
     3
  9
$SHADEDIF
 70
    70
  9
$TILEMODE
 70
     1
  9
$MAXACTVP
 70
    16
  9
$PINSBASE
 10
0.0
 20
0.0
 30
0.0
  9
$PLIMCHECK
 70
     0
  9
$PEXTMIN
 10
1.000000000000000E+20
 20
1.000000000000000E+20
 30
1.000000000000000E+20
  9
$PEXTMAX
 10
-1.000000000000000E+20
 20
-1.000000000000000E+20
 30
-1.000000000000000E+20
  9
$PLIMMIN
 10
0.0
 20
0.0
  9
$PLIMMAX
 10
12.0
 20
9.0
  9
$UNITMODE
 70
     0
  9
$VISRETAIN
 70
     0
  9
$PLINEGEN
 70
     0
  9
$PSLTSCALE
 70
     0
  9
$TREEDEPTH
 70
  3020
  9
$CMLSTYLE
  2
STANDARD
  9
$CMLJUST
 70
     0
  9
$CMLSCALE
 40
1.0
  9
$PROXYGRAPHICS
 70
     1
  9
$MEASUREMENT
 70
     0
  9
$CELWEIGHT
370
    -1
  9
$ENDCAPS
280
     0
  9
$JOINSTYLE
280
     0
  9
$LWDISPLAY
290
     0
  9
$INSUNITS
 70
     0
  9
$HYPERLINKBASE
  1

  9
$STYLESHEET
  1

  9
$XEDIT
290
     1
  9
$CEPSNTYPE
380
     0
  9
$PSTYLEMODE
290
     1
  9
$FINGERPRINTGUID
  2
{DEC6D506-4AE0-11D5-BE3F-00508B5FCD51}
  9
$VERSIONGUID
  2
{DCC92994-13B4-4279-B44A-AC631BDD5E69}
  9
$EXTNAMES
290
     1
  9
$PSVPSCALE
 40
0.0
  9
$OLESTARTUP
290
     0
  0
ENDSEC
  0
SECTION
  2
CLASSES
  0
CLASS
  1
DICTIONARYVAR
  2
AcDbDictionaryVar
  3
AutoCAD 2000
 90
        0
280
     0
281
     0
  0
CLASS
  1
XRECORD
  2
AcDbXrecord
  3
AutoCAD 2000
 90
        0
280
     0
281
     0
  0
CLASS
  1
LWPOLYLINE
  2
AcDbPolyline
  3
AutoCAD 2000
 90
        0
280
     0
281
     1
  0
CLASS
  1
ACDBDICTIONARYWDFLT
  2
AcDbDictionaryWithDefault
  3
AutoCAD 2000
 90
        0
280
     0
281
     0
  0
CLASS
  1
ACDBPLACEHOLDER
  2
AcDbPlaceHolder
  3
ObjectDBX Classes
 90
        0
280
     0
281
     0
  0
CLASS
  1
LAYOUT
  2
AcDbLayout
  3
ObjectDBX Classes
 90
        0
280
     0
281
     0
  0
CLASS
  1
LONG_TRANSACTION
  2
AcDbLongTransaction
  3
ObjectDBX Classes
 90
   -65536
280
     1
281
     0
  0
CLASS
  1
LWPOLYLINE
  2
AcDbPolyline
  3
AutoCAD 2000
 90
        0
280
     0
281
     1
  0
CLASS
  1
HATCH
  2
AcDbHatch
  3
AutoCAD 2000
 90
        0
280
     0
281
     1
  0
CLASS
  1
XRECORD
  2
AcDbXrecord
  3
AutoCAD 2000
 90
        0
280
     0
281
     0
  0
CLASS
  1
LONG_TRANSACTION
  2
AcDbLongTransaction
  3
ObjectDBX Classes
 90
   -65536
280
     1
281
     0
  0
CLASS
  1
LWPOLYLINE
  2
AcDbPolyline
  3
AutoCAD 2000
 90
        0
280
     0
281
     1
  0
CLASS
  1
HATCH
  2
AcDbHatch
  3
AutoCAD 2000
 90
        0
280
     0
281
     1
  0
CLASS
  1
XRECORD
  2
AcDbXrecord
  3
AutoCAD 2000
 90
        0
280
     0
281
     0
  0
CLASS
  1
LONG_TRANSACTION
  2
AcDbLongTransaction
  3
ObjectDBX Classes
 90
   -65536
280
     1
281
     0
  0
CLASS
  1
LWPOLYLINE
  2
AcDbPolyline
  3
AutoCAD 2000
 90
        0
280
     0
281
     1
  0
CLASS
  1
HATCH
  2
AcDbHatch
  3
AutoCAD 2000
 90
        0
280
     0
281
     1
  0
CLASS
  1
XRECORD
  2
AcDbXrecord
  3
AutoCAD 2000
 90
        0
280
     0
281
     0
  0
CLASS
  1
LONG_TRANSACTION
  2
AcDbLongTransaction
  3
ObjectDBX Classes
 90
   -65536
280
     1
281
     0
  0
CLASS
  1
LWPOLYLINE
  2
AcDbPolyline
  3
AutoCAD 2000
 90
        0
280
     0
281
     1
  0
CLASS
  1
HATCH
  2
AcDbHatch
  3
AutoCAD 2000
 90
        0
280
     0
281
     1
  0
CLASS
  1
XRECORD
  2
AcDbXrecord
  3
AutoCAD 2000
 90
        0
280
     0
281
     0
  0
CLASS
  1
TABLESTYLE
  2
AcDbTableStyle
  3
ObjectDBX Classes
 90
     2047
280
     1
281
     0
  0
ENDSEC
  0
SECTION
  2
TABLES
  0
TABLE
  2
VPORT
  5
1D
330
0
100
AcDbSymbolTable
 70
     2
  0
VPORT
  5
129
330
1D
100
AcDbSymbolTableRecord
100
AcDbViewportTableRecord
  2
*Active
 70
     0
 10
0.0
 20
0.0
 11
1.0
 21
1.0
 12
14.30944251786036
 22
11.81433963517855
 13
0.0
 23
0.0
 14
0.03125
 24
0.03125
 15
0.25
 25
0.25
 16
0.0
 26
0.0
 36
1.0
 17
0.0
 27
0.0
 37
0.0
 40
24.67532888843263
 41
1.814583333333333
 42
50.0
 43
0.0
 44
0.0
 50
0.0
 51
0.0
 71
     0
 72
   100
 73
     1
 74
     0
 75
     0
 76
     0
 77
     0
 78
     0
281
     0
 65
     1
110
0.0
120
0.0
130
0.0
111
1.0
121
0.0
131
0.0
112
0.0
122
1.0
132
0.0
 79
     0
146
0.0
  0
ENDTAB
  0
TABLE
  2
LTYPE
  5
18
330
0
100
AcDbSymbolTable
 70
     1
  0
LTYPE
  5
19
330
18
100
AcDbSymbolTableRecord
100
AcDbLinetypeTableRecord
  2
BYBLOCK
 70
     0
  3

 72
    65
 73
     0
 40
0.0
  0
LTYPE
  5
1A
330
18
100
AcDbSymbolTableRecord
100
AcDbLinetypeTableRecord
  2
BYLAYER
 70
     0
  3

 72
    65
 73
     0
 40
0.0
  0
LTYPE
  5
A
330
18
100
AcDbSymbolTableRecord
100
AcDbLinetypeTableRecord
  2
CONTINUOUS
 70
     0
  3
Solid line
 72
    65
 73
     0
 40
0.0
  0
ENDTAB
  0
TABLE
  2
LAYER
  5
14
330
0
100
AcDbSymbolTable
 70
     2
  0
LAYER
  5
6
330
14
100
AcDbSymbolTableRecord
100
AcDbLayerTableRecord
  2
0
 70
     0
 62
     7
  6
CONTINUOUS
370
    -3
390
7
  0
ENDTAB
  0
TABLE
  2
STYLE
  5
15
330
0
100
AcDbSymbolTable
 70
     1
  0
STYLE
  5
16
330
15
100
AcDbSymbolTableRecord
100
AcDbTextStyleTableRecord
  2
STANDARD
 70
     0
 40
0.0
 41
1.0
 50
0.0
 71
     0
 42
0.27
  3
TXT
  4

  0
ENDTAB
  0
TABLE
  2
VIEW
  5
1B
330
0
100
AcDbSymbolTable
 70
     0
  0
ENDTAB
  0
TABLE
  2
UCS
  5
1C
330
0
100
AcDbSymbolTable
 70
     0
  0
ENDTAB
  0
TABLE
  2
APPID
  5
1F
330
0
100
AcDbSymbolTable
 70
     1
  0
APPID
  5
20
330
1F
100
AcDbSymbolTableRecord
100
AcDbRegAppTableRecord
  2
ACAD
 70
     0
  0
ENDTAB
  0
TABLE
  2
DIMSTYLE
  5
21
330
0
100
AcDbSymbolTable
 70
     1
100
AcDbDimStyleTable
  0
DIMSTYLE
105
27
330
21
100
AcDbSymbolTableRecord
100
AcDbDimStyleTableRecord
  2
STANDARD
 70
     0
  3

  4

340
16
  0
ENDTAB
  0
TABLE
  2
BLOCK_RECORD
  5
1
330
0
100
AcDbSymbolTable
 70
     0
  0
BLOCK_RECORD
  5
2
330
1
100
AcDbSymbolTableRecord
100
AcDbBlockTableRecord
  2
*MODEL_SPACE
340
C
  0
BLOCK_RECORD
  5
E
330
1
100
AcDbSymbolTableRecord
100
AcDbBlockTableRecord
  2
*PAPER_SPACE
340
13
  0
ENDTAB
  0
ENDSEC
  0
SECTION
  2
BLOCKS
  0
BLOCK
  5
5
330
2
100
AcDbEntity
  8
0
100
AcDbBlockBegin
  2
*MODEL_SPACE
 70
     0
 10
0.0
 20
0.0
 30
0.0
  3
*MODEL_SPACE
  1

  4

  0
ENDBLK
  5
B
330
2
100
AcDbEntity
  8
0
100
AcDbBlockEnd
  0
BLOCK
  5
11
330
E
100
AcDbEntity
 67
     1
  8
0
100
AcDbBlockBegin
  2
*PAPER_SPACE
 70
     0
 10
0.0
 20
0.0
 30
0.0
  3
*PAPER_SPACE
  1

  4

  0
ENDBLK
  5
12
330
E
100
AcDbEntity
 67
     1
  8
0
100
AcDbBlockEnd
  0
ENDSEC
  0
SECTION
  2
ENTITIES
  0
LINE
  5
AC
330
2
100
AcDbEntity
  8
0
100
AcDbLine
 10
1.312500000000373
 20
0.5704501628937546
 30
0.0
 11
0.0000000000003757
 21
0.5704501628937475
 31
0.0
  0
LINE
  5
AD
330
2
100
AcDbEntity
  8
0
100
AcDbLine
 10
1.312500000000373
 20
0.7499501628934713
 30
0.0
 11
0.0000000000003766
 21
0.7499501628934713
 31
0.0
  0
LINE
  5
AE
330
2
100
AcDbEntity
  8
0
100
AcDbLine
 10
1.312500000000375
 20
1.499950162893606
 30
0.0
 11
0.5603789544035935
 21
1.499950162893599
 31
0.0
  0
LINE
  5
AF
330
2
100
AcDbEntity
  8
0
100
AcDbLine
 10
1.312500000000373
 20
1.320450162893627
 30
0.0
 11
0.2863283882785037
 21
1.320450162893626
 31
0.0
  0
LINE
  5
B0
330
2
100
AcDbEntity
  8
0
100
AcDbLine
 10
1.312500000000373
 20
2.039250162893756
 30
0.0
 11
0.4200650648111282
 21
2.039250162893755
 31
0.0
  0
LINE
  5
B1
330
2
100
AcDbEntity
  8
0
100
AcDbLine
 10
1.312500000000373
 20
2.218750162893494
 30
0.0
 11
0.3371837843363696
 21
2.218750162893493
 31
0.0
  0
LINE
  5
B2
330
2
100
AcDbEntity
  8
0
100
AcDbLine
 10
1.312500000000373
 20
2.758050162893637
 30
0.0
 11
0.0000000000003766
 21
2.758050162893637
 31
0.0
  0
LINE
  5
B3
330
2
100
AcDbEntity
  8
0
100
AcDbLine
 10
1.312500000000373
 20
2.937550162893617
 30
0.0
 11
0.0000000000003766
 21
2.937550162893617
 31
0.0
  0
LINE
  5
B4
330
2
100
AcDbEntity
  8
0
100
AcDbLine
 10
1.312500000000373
 20
3.508050162893765
 30
0.0
 11
0.0000000000003766
 21
3.508050162893765
 31
0.0
  0
LINE
  5
B5
330
2
100
AcDbEntity
  8
0
100
AcDbLine
 10
1.312500000000373
 20
3.687550162893489
 30
0.0
 11
0.0000000000003766
 21
3.687550162893489
 31
0.0
  0
LINE
  5
B6
330
2
100
AcDbEntity
  8
0
100
AcDbLine
 10
1.312500000000373
 20
3.379050162893766
 30
0.0
 11
0.0000000000003766
 21
3.379050162893766
 31
0.0
  0
LINE
  5
B7
330
2
100
AcDbEntity
  8
0
100
AcDbLine
 10
1.312500000000373
 20
3.066550162893616
 30
0.0
 11
0.0000000000003766
 21
3.066550162893616
 31
0.0
  0
LINE
  5
B8
330
2
100
AcDbEntity
  8
0
100
AcDbLine
 10
1.312500000000373
 20
2.629050162893638
 30
0.0
 11
0.0000000000003766
 21
2.629050162893638
 31
0.0
  0
LINE
  5
B9
330
2
100
AcDbEntity
  8
0
100
AcDbLine
 10
1.312500000000373
 20
3.816550162893488
 30
0.0
 11
0.0000000000003766
 21
3.816550162893488
 31
0.0
  0
LINE
  5
BA
330
2
100
AcDbEntity
  8
0
100
AcDbLine
 10
1.312500000000373
 20
0.4414501628937551
 30
0.0
 11
0.0000000000003766
 21
0.4414501628937479
 31
0.0
  0
LINE
  5
BB
330
2
100
AcDbEntity
  8
0
100
AcDbLine
 10
1.312500000000373
 20
0.8789501628934708
 30
0.0
 11
0.0000000000003766
 21
0.8789501628934708
 31
0.0
  0
LINE
  5
BC
330
2
100
AcDbEntity
  8
0
100
AcDbLine
 10
1.312500000000373
 20
1.191450162893627
 30
0.0
 11
0.0000000000003766
 21
1.191450162893627
 31
0.0
  0
LINE
  5
BD
330
2
100
AcDbEntity
  8
0
100
AcDbLine
 10
1.312500000000373
 20
2.347750162893494
 30
0.0
 11
0.2651650429455827
 21
2.347750162893494
 31
0.0
  0
LINE
  5
BE
330
2
100
AcDbEntity
  8
0
100
AcDbLine
 10
1.312500000000373
 20
1.910250162893757
 30
0.0
 11
0.4796287705563067
 21
1.910250162893757
 31
0.0
  0
LINE
  5
BF
330
2
100
AcDbEntity
  8
0
100
AcDbLine
 10
1.312500000000373
 20
1.628950162893606
 30
0.0
 11
0.5603789544035926
 21
1.628950162893599
 31
0.0
  0
LINE
  5
C0
330
2
100
AcDbEntity
  8
0
100
AcDbLine
 10
-2.156499999999627
 20
4.129000162893616
 30
0.0
 11
2.156500000000365
 21
4.129000162893634
 31
0.0
  0
LINE
  5
C1
330
2
100
AcDbEntity
  8
0
100
AcDbLine
 10
-2.156500000000143
 20
4.258000162893612
 30
0.0
 11
2.156500000000879
 21
4.258000162893634
 31
0.0
  0
LINE
  5
C2
330
2
100
AcDbEntity
  8
0
100
AcDbLine
 10
-2.156500000000509
 20
-0.0000000000000107
 30
0.0
 11
2.156500000000509
 21
0.0000000000000107
 31
0.0
  0
LINE
  5
C3
330
2
100
AcDbEntity
  8
0
100
AcDbLine
 10
-2.156499999999769
 20
0.128999999999988
 30
0.0
 11
2.156500000000508
 21
0.1290000000000093
 31
0.0
  0
LINE
  5
C4
330
2
100
AcDbEntity
  8
0
100
AcDbLine
 10
-2.749999999999634
 20
4.535500162893621
 30
0.0
 11
-2.749999999999627
 21
-0.2774998371063715
 31
0.0
  0
LINE
  5
C5
330
2
100
AcDbEntity
  8
0
100
AcDbLine
 10
-2.878999999999625
 20
4.629000162893622
 30
0.0
 11
-2.878999999999625
 21
-0.3709998371063854
 31
0.0
  0
ARC
  5
C6
330
2
100
AcDbEntity
  8
0
100
AcDbCircle
 10
-1.312499999999627
 20
2.847800162893623
 30
0.0
 40
0.21875
100
AcDbArc
 50
90.0000000000001
 51
270.0000000000002
  0
LINE
  5
C7
330
2
100
AcDbEntity
  8
0
100
AcDbLine
 10
-2.475699999999112
 20
-0.3709998371063783
 30
0.0
 11
-2.656499999999607
 21
-0.3709998371063712
 31
0.0
  0
LINE
  5
C8
330
2
100
AcDbEntity
  8
0
100
AcDbLine
 10
-2.749999999999627
 20
-0.2774998371063715
 30
0.0
 11
-2.749999999999627
 21
-0.3709998371063854
 31
0.0
  0
ARC
  5
C9
330
2
100
AcDbEntity
  8
0
100
AcDbCircle
 10
-2.749999999999627
 20
-0.3709998371063712
 30
0.0
 40
0.0935
100
AcDbArc
 50
0.0
 51
90.0
  0
LINE
  5
CA
330
2
100
AcDbEntity
  8
0
100
AcDbLine
 10
-2.749999999999641
 20
-0.3709998371063854
 30
0.0
 11
-2.878999999999632
 21
-0.3709998371063854
 31
0.0
  0
LINE
  5
CB
330
2
100
AcDbEntity
  8
0
100
AcDbLine
 10
-2.749999999999641
 20
-0.2774998371063715
 30
0.0
 11
-2.878999999999632
 21
-0.2774998371063715
 31
0.0
  0
ARC
  5
CC
330
2
100
AcDbEntity
  8
0
100
AcDbCircle
 10
-1.312499999999627
 20
0.6602001628936129
 30
0.0
 40
0.21875
100
AcDbArc
 50
89.99999999999986
 51
269.9999999999999
  0
LINE
  5
CD
330
2
100
AcDbEntity
  8
0
100
AcDbLine
 10
-1.312499999999627
 20
0.7499501628934713
 30
0.0
 11
0.0000000000003695
 21
0.7499501628934713
 31
0.0
  0
LINE
  5
CE
330
2
100
AcDbEntity
  8
0
100
AcDbLine
 10
-1.312499999999626
 20
0.5704501628937546
 30
0.0
 11
0.0000000000003704
 21
0.5704501628937475
 31
0.0
  0
LINE
  5
CF
330
2
100
AcDbEntity
  8
0
100
AcDbLine
 10
-1.312499999999627
 20
0.4414501628937551
 30
0.0
 11
0.0000000000003695
 21
0.4414501628937479
 31
0.0
  0
LINE
  5
D0
330
2
100
AcDbEntity
  8
0
100
AcDbLine
 10
-2.343499999999114
 20
0.1290001628936217
 30
0.0
 11
-2.343499999999114
 21
-0.2387998371063809
 31
0.0
  0
LINE
  5
D1
330
2
100
AcDbEntity
  8
0
100
AcDbLine
 10
-2.343499999999114
 20
-0.2387998371063809
 30
0.0
 11
-2.475699999999112
 21
-0.3709998371063783
 31
0.0
  0
ARC
  5
D2
330
2
100
AcDbEntity
  8
0
100
AcDbCircle
 10
-2.249999999999627
 20
0.1290001628936288
 30
0.0
 40
0.0935
100
AcDbArc
 50
359.9999001805695
 51
180.0000998194305
  0
LINE
  5
D3
330
2
100
AcDbEntity
  8
0
100
AcDbLine
 10
-2.15650000000051
 20
-0.0000000000000107
 30
0.0
 11
-2.156500000000509
 21
0.1290001628936288
 31
0.0
  0
ARC
  5
D4
330
2
100
AcDbEntity
  8
0
100
AcDbCircle
 10
-1.312499999999627
 20
0.6602001628936129
 30
0.0
 40
0.08975
100
AcDbArc
 50
89.99999999999986
 51
269.9999999999999
  0
CIRCLE
  5
D5
330
2
100
AcDbEntity
  8
0
100
AcDbCircle
 10
-1.124999999999613
 20
0.6602001628936272
 30
0.0
 40
0.0855
  0
LINE
  5
D6
330
2
100
AcDbEntity
  8
0
100
AcDbLine
 10
-1.312499999999627
 20
1.320450162893627
 30
0.0
 11
0.0000000000003695
 21
1.320450162893627
 31
0.0
  0
LINE
  5
D7
330
2
100
AcDbEntity
  8
0
100
AcDbLine
 10
-1.312499999999627
 20
1.499950162893606
 30
0.0
 11
-0.0878223813789765
 21
1.499950162893606
 31
0.0
  0
LINE
  5
D8
330
2
100
AcDbEntity
  8
0
100
AcDbLine
 10
-1.312499999999627
 20
2.218750162893494
 30
0.0
 11
-0.8318267620306932
 21
2.218750162893494
 31
0.0
  0
LINE
  5
D9
330
2
100
AcDbEntity
  8
0
100
AcDbLine
 10
-1.312499999999627
 20
2.039250162893756
 30
0.0
 11
-0.8318267620306949
 21
2.039250162893756
 31
0.0
  0
LINE
  5
DA
330
2
100
AcDbEntity
  8
0
100
AcDbLine
 10
-1.312499999999627
 20
2.629050162893638
 30
0.0
 11
0.0000000000003766
 21
2.629050162893638
 31
0.0
  0
LINE
  5
DB
330
2
100
AcDbEntity
  8
0
100
AcDbLine
 10
-1.312499999999627
 20
1.628950162893606
 30
0.0
 11
-0.1515890732813734
 21
1.628950162893606
 31
0.0
  0
LINE
  5
DC
330
2
100
AcDbEntity
  8
0
100
AcDbLine
 10
-1.312499999999627
 20
0.8789501628934708
 30
0.0
 11
0.0000000000003695
 21
0.8789501628934708
 31
0.0
  0
LINE
  5
DD
330
2
100
AcDbEntity
  8
0
100
AcDbLine
 10
-1.312499999999627
 20
1.191450162893627
 30
0.0
 11
0.0000000000003695
 21
1.191450162893627
 31
0.0
  0
LINE
  5
DE
330
2
100
AcDbEntity
  8
0
100
AcDbLine
 10
-1.312499999999627
 20
1.910250162893757
 30
0.0
 11
-0.76516504294462
 21
1.910250162893757
 31
0.0
  0
LINE
  5
DF
330
2
100
AcDbEntity
  8
0
100
AcDbLine
 10
-1.312499999999627
 20
2.347750162893494
 30
0.0
 11
-0.7651650429447336
 21
2.347750162893494
 31
0.0
  0
ARC
  5
E0
330
2
100
AcDbEntity
  8
0
100
AcDbCircle
 10
-1.312499999999627
 20
1.410200162893613
 30
0.0
 40
0.21875
100
AcDbArc
 50
89.99999999999986
 51
269.9999999999999
  0
ARC
  5
E1
330
2
100
AcDbEntity
  8
0
100
AcDbCircle
 10
-1.312499999999627
 20
1.410200162893613
 30
0.0
 40
0.08975
100
AcDbArc
 50
89.99999999999986
 51
269.9999999999999
  0
ARC
  5
E2
330
2
100
AcDbEntity
  8
0
100
AcDbCircle
 10
-1.312499999999627
 20
2.129000162893622
 30
0.0
 40
0.08975
100
AcDbArc
 50
90.0000000000001
 51
270.0000000000002
  0
ARC
  5
E3
330
2
100
AcDbEntity
  8
0
100
AcDbCircle
 10
-1.312499999999627
 20
2.129000162893622
 30
0.0
 40
0.21875
100
AcDbArc
 50
90.0000000000001
 51
270.0000000000002
  0
ARC
  5
E4
330
2
100
AcDbEntity
  8
0
100
AcDbCircle
 10
-0.439816438892267
 20
1.441629453379225
 30
0.0
 40
0.34375
100
AcDbArc
 50
24.78445374465106
 51
89.9999536670809
  0
ARC
  5
E5
330
2
100
AcDbEntity
  8
0
100
AcDbCircle
 10
0.2178000000003806
 20
1.65730016289363
 30
0.0
 40
0.34375
100
AcDbArc
 50
204.0815263086942
 51
24.78444436489547
  0
LINE
  5
E6
330
2
100
AcDbEntity
  8
0
100
AcDbLine
 10
-0.129277986121588
 20
1.589040212317965
 30
0.0
 11
-0.0924966411867931
 21
1.509381073632287
 31
0.0
  0
LINE
  5
E7
330
2
100
AcDbEntity
  8
0
100
AcDbLine
 10
0.1492716117222575
 20
1.320450162893626
 30
0.0
 11
0.0000000000003766
 21
1.320450162893627
 31
0.0
  0
LINE
  5
E8
330
2
100
AcDbEntity
  8
0
100
AcDbLine
 10
-0.4999999999996252
 20
2.472750162893622
 30
0.0
 11
0.0000000000003766
 21
2.472750162893622
 31
0.0
  0
ARC
  5
E9
330
2
100
AcDbEntity
  8
0
100
AcDbCircle
 10
-0.4999999999996252
 20
2.129000162893622
 30
0.0
 40
0.34375
100
AcDbArc
 50
89.99997617713687
 51
270.0
  0
LINE
  5
EA
330
2
100
AcDbEntity
  8
0
100
AcDbLine
 10
-0.4999999999996252
 20
1.785250162893622
 30
0.0
 11
-0.4303893241265033
 21
1.785250162893622
 31
0.0
  0
LINE
  5
EB
330
2
100
AcDbEntity
  8
0
100
AcDbLine
 10
0.3120877968537954
 20
2.273101757455155
 30
0.0
 11
0.5298877968537958
 21
1.801401757455164
 31
0.0
  0
ARC
  5
EC
330
2
100
AcDbEntity
  8
0
100
AcDbCircle
 10
0.0000000000003766
 20
2.129000162893622
 30
0.0
 40
0.34375
100
AcDbArc
 50
24.78445374465106
 51
89.9999536670809
  0
LINE
  5
ED
330
2
100
AcDbEntity
  8
0
100
AcDbLine
 10
-2.656499999999216
 20
4.629000162893629
 30
0.0
 11
-2.475699999999112
 21
4.629000162893622
 31
0.0
  0
ARC
  5
EE
330
2
100
AcDbEntity
  8
0
100
AcDbCircle
 10
-2.749999999999627
 20
4.629000162893622
 30
0.0
 40
0.0935
100
AcDbArc
 50
269.9999999999956
 51
0.0000000000021771
  0
LINE
  5
EF
330
2
100
AcDbEntity
  8
0
100
AcDbLine
 10
-2.74999999999964
 20
4.535500162893621
 30
0.0
 11
-2.878999999999631
 21
4.535500162893621
 31
0.0
  0
LINE
  5
F0
330
2
100
AcDbEntity
  8
0
100
AcDbLine
 10
-2.749999999999627
 20
4.629000162893622
 30
0.0
 11
-2.878999999999625
 21
4.629000162893622
 31
0.0
  0
LINE
  5
F1
330
2
100
AcDbEntity
  8
0
100
AcDbLine
 10
-2.749999999999634
 20
4.629000162893622
 30
0.0
 11
-2.749999999999634
 21
4.535500162893621
 31
0.0
  0
LINE
  5
F2
330
2
100
AcDbEntity
  8
0
100
AcDbLine
 10
-2.343499999999114
 20
4.496800162893624
 30
0.0
 11
-2.475699999999112
 21
4.629000162893622
 31
0.0
  0
LINE
  5
F3
330
2
100
AcDbEntity
  8
0
100
AcDbLine
 10
-1.312499999999627
 20
2.758050162893637
 30
0.0
 11
0.0000000000003766
 21
2.758050162893637
 31
0.0
  0
LINE
  5
F4
330
2
100
AcDbEntity
  8
0
100
AcDbLine
 10
-1.312499999999627
 20
2.937550162893617
 30
0.0
 11
0.0000000000003695
 21
2.937550162893617
 31
0.0
  0
LINE
  5
F5
330
2
100
AcDbEntity
  8
0
100
AcDbLine
 10
-1.312499999999627
 20
3.508050162893765
 30
0.0
 11
0.0000000000003695
 21
3.508050162893765
 31
0.0
  0
LINE
  5
F6
330
2
100
AcDbEntity
  8
0
100
AcDbLine
 10
-1.312499999999627
 20
3.687550162893489
 30
0.0
 11
0.0000000000003695
 21
3.687550162893489
 31
0.0
  0
LINE
  5
F7
330
2
100
AcDbEntity
  8
0
100
AcDbLine
 10
-1.312499999999627
 20
3.816550162893488
 30
0.0
 11
0.0000000000003695
 21
3.816550162893488
 31
0.0
  0
LINE
  5
F8
330
2
100
AcDbEntity
  8
0
100
AcDbLine
 10
-1.312499999999627
 20
3.379050162893766
 30
0.0
 11
0.0000000000003695
 21
3.379050162893766
 31
0.0
  0
LINE
  5
F9
330
2
100
AcDbEntity
  8
0
100
AcDbLine
 10
-1.312499999999627
 20
3.066550162893616
 30
0.0
 11
0.0000000000003695
 21
3.066550162893616
 31
0.0
  0
ARC
  5
FA
330
2
100
AcDbEntity
  8
0
100
AcDbCircle
 10
-1.312499999999627
 20
3.597800162893623
 30
0.0
 40
0.08975
100
AcDbArc
 50
90.0000000000001
 51
270.0000000000002
  0
CIRCLE
  5
FB
330
2
100
AcDbEntity
  8
0
100
AcDbCircle
 10
-1.12499999999962
 20
3.597800162893623
 30
0.0
 40
0.0855
  0
ARC
  5
FC
330
2
100
AcDbEntity
  8
0
100
AcDbCircle
 10
-1.312499999999627
 20
3.597800162893623
 30
0.0
 40
0.21875
100
AcDbArc
 50
90.0000000000001
 51
270.0000000000002
  0
ARC
  5
FD
330
2
100
AcDbEntity
  8
0
100
AcDbCircle
 10
-1.312499999999627
 20
2.847800162893623
 30
0.0
 40
0.08975
100
AcDbArc
 50
90.0000000000001
 51
270.0000000000002
  0
ARC
  5
FE
330
2
100
AcDbEntity
  8
0
100
AcDbCircle
 10
-2.249999999999627
 20
4.129000162893622
 30
0.0
 40
0.0935
100
AcDbArc
 50
179.9999001805695
 51
0.0000998194305355
  0
LINE
  5
FF
330
2
100
AcDbEntity
  8
0
100
AcDbLine
 10
-2.343499999999114
 20
4.129000162893622
 30
0.0
 11
-2.343499999999114
 21
4.496800162893624
 31
0.0
  0
LINE
  5
100
330
2
100
AcDbEntity
  8
0
100
AcDbLine
 10
-2.15650000000014
 20
4.129000162893622
 30
0.0
 11
-2.15650000000014
 21
4.258000162893614
 31
0.0
  0
LINE
  5
101
330
2
100
AcDbEntity
  8
0
100
AcDbLine
 10
2.750000000000366
 20
4.535500162893621
 30
0.0
 11
2.750000000000373
 21
-0.2774998371063786
 31
0.0
  0
ARC
  5
102
330
2
100
AcDbEntity
  8
0
100
AcDbCircle
 10
1.312500000000373
 20
2.847800162893623
 30
0.0
 40
0.21875
100
AcDbArc
 50
270.0
 51
90.0
  0
LINE
  5
103
330
2
100
AcDbEntity
  8
0
100
AcDbLine
 10
2.879000000000357
 20
4.629000162893622
 30
0.0
 11
2.879000000000371
 21
-0.3709998371063783
 31
0.0
  0
ARC
  5
104
330
2
100
AcDbEntity
  8
0
100
AcDbCircle
 10
1.312500000000373
 20
0.6602001628936129
 30
0.0
 40
0.21875
100
AcDbArc
 50
270.0
 51
90.00000000000003
  0
LINE
  5
105
330
2
100
AcDbEntity
  8
0
100
AcDbLine
 10
2.343499999999853
 20
-0.2387998371063809
 30
0.0
 11
2.475699999999858
 21
-0.3709998371063783
 31
0.0
  0
LINE
  5
106
330
2
100
AcDbEntity
  8
0
100
AcDbLine
 10
2.343499999999853
 20
0.1290001628936217
 30
0.0
 11
2.343499999999853
 21
-0.2387998371063809
 31
0.0
  0
CIRCLE
  5
107
330
2
100
AcDbEntity
  8
0
100
AcDbCircle
 10
1.125000000000366
 20
0.6602001628936272
 30
0.0
 40
0.0855
  0
ARC
  5
108
330
2
100
AcDbEntity
  8
0
100
AcDbCircle
 10
1.312500000000373
 20
0.6602001628936129
 30
0.0
 40
0.08975
100
AcDbArc
 50
270.0
 51
90.00000000000003
  0
ARC
  5
109
330
2
100
AcDbEntity
  8
0
100
AcDbCircle
 10
2.250000000000366
 20
0.1290001628936288
 30
0.0
 40
0.0935
100
AcDbArc
 50
359.9999001805695
 51
180.0000998194305
  0
LINE
  5
10A
330
2
100
AcDbEntity
  8
0
100
AcDbLine
 10
2.156500000000509
 20
0.0000000000000107
 30
0.0
 11
2.156500000000509
 21
0.1290001628936288
 31
0.0
  0
LINE
  5
10B
330
2
100
AcDbEntity
  8
0
100
AcDbLine
 10
2.750000000000373
 20
-0.2774998371063786
 30
0.0
 11
2.750000000000373
 21
-0.3709998371063783
 31
0.0
  0
LINE
  5
10C
330
2
100
AcDbEntity
  8
0
100
AcDbLine
 10
2.750000000000373
 20
-0.3709998371063854
 30
0.0
 11
2.879000000000364
 21
-0.3709998371063854
 31
0.0
  0
LINE
  5
10D
330
2
100
AcDbEntity
  8
0
100
AcDbLine
 10
2.750000000000373
 20
-0.2774998371063786
 30
0.0
 11
2.879000000000364
 21
-0.2774998371063786
 31
0.0
  0
LINE
  5
10E
330
2
100
AcDbEntity
  8
0
100
AcDbLine
 10
2.656499999999742
 20
-0.3709998371063783
 30
0.0
 11
2.475699999999858
 21
-0.3709998371063783
 31
0.0
  0
ARC
  5
10F
330
2
100
AcDbEntity
  8
0
100
AcDbCircle
 10
2.750000000000373
 20
-0.3709998371063783
 30
0.0
 40
0.0935
100
AcDbArc
 50
90.0
 51
180.0
  0
ARC
  5
110
330
2
100
AcDbEntity
  8
0
100
AcDbCircle
 10
1.312500000000373
 20
1.410200162893613
 30
0.0
 40
0.21875
100
AcDbArc
 50
270.0
 51
90.00000000000003
  0
ARC
  5
111
330
2
100
AcDbEntity
  8
0
100
AcDbCircle
 10
1.312500000000373
 20
1.410200162893613
 30
0.0
 40
0.08975
100
AcDbArc
 50
270.0
 51
90.00000000000003
  0
ARC
  5
112
330
2
100
AcDbEntity
  8
0
100
AcDbCircle
 10
1.312500000000373
 20
2.129000162893622
 30
0.0
 40
0.08975
100
AcDbArc
 50
270.0
 51
90.0
  0
ARC
  5
113
330
2
100
AcDbEntity
  8
0
100
AcDbCircle
 10
1.312500000000373
 20
2.129000162893622
 30
0.0
 40
0.21875
100
AcDbArc
 50
270.0
 51
90.0
  0
ARC
  5
114
330
2
100
AcDbEntity
  8
0
100
AcDbCircle
 10
2.750000000000366
 20
4.629000162893622
 30
0.0
 40
0.0935
100
AcDbArc
 50
180.0
 51
270.0
  0
LINE
  5
115
330
2
100
AcDbEntity
  8
0
100
AcDbLine
 10
2.475699999999858
 20
4.629000162893622
 30
0.0
 11
2.343499999999853
 21
4.496800162893624
 31
0.0
  0
ARC
  5
116
330
2
100
AcDbEntity
  8
0
100
AcDbCircle
 10
1.312500000000373
 20
3.597800162893623
 30
0.0
 40
0.08975
100
AcDbArc
 50
270.0
 51
90.0
  0
ARC
  5
117
330
2
100
AcDbEntity
  8
0
100
AcDbCircle
 10
1.312500000000373
 20
3.597800162893623
 30
0.0
 40
0.21875
100
AcDbArc
 50
270.0
 51
90.0
  0
CIRCLE
  5
118
330
2
100
AcDbEntity
  8
0
100
AcDbCircle
 10
1.125000000000373
 20
3.597800162893623
 30
0.0
 40
0.0855
  0
ARC
  5
119
330
2
100
AcDbEntity
  8
0
100
AcDbCircle
 10
1.312500000000373
 20
2.847800162893623
 30
0.0
 40
0.08975
100
AcDbArc
 50
270.0
 51
90.0
  0
ARC
  5
11A
330
2
100
AcDbEntity
  8
0
100
AcDbCircle
 10
2.250000000000366
 20
4.129000162893622
 30
0.0
 40
0.0935
100
AcDbArc
 50
179.9999001805695
 51
0.0000998194305166
  0
LINE
  5
11B
330
2
100
AcDbEntity
  8
0
100
AcDbLine
 10
2.343499999999853
 20
4.129000162893622
 30
0.0
 11
2.343499999999853
 21
4.496800162893624
 31
0.0
  0
LINE
  5
11C
330
2
100
AcDbEntity
  8
0
100
AcDbLine
 10
2.156500000000879
 20
4.129000162893622
 30
0.0
 11
2.156500000000879
 21
4.258000162893634
 31
0.0
  0
LINE
  5
11D
330
2
100
AcDbEntity
  8
0
100
AcDbLine
 10
2.750000000000359
 20
4.629000162893622
 30
0.0
 11
2.879000000000357
 21
4.629000162893622
 31
0.0
  0
LINE
  5
11E
330
2
100
AcDbEntity
  8
0
100
AcDbLine
 10
2.750000000000373
 20
4.535500162893621
 30
0.0
 11
2.879000000000364
 21
4.535500162893621
 31
0.0
  0
LINE
  5
11F
330
2
100
AcDbEntity
  8
0
100
AcDbLine
 10
2.475699999999858
 20
4.629000162893622
 30
0.0
 11
2.656500000000644
 21
4.629000162893622
 31
0.0
  0
LINE
  5
120
330
2
100
AcDbEntity
  8
0
100
AcDbLine
 10
2.750000000000366
 20
4.629000162893622
 30
0.0
 11
2.750000000000366
 21
4.535500162893621
 31
0.0
  0
ENDSEC
  0
SECTION
  2
OBJECTS
  0
DICTIONARY
  5
9
330
0
100
AcDbDictionary
281
     1
  3
ACAD_COLOR
350
124
  3
ACAD_GROUP
350
23
  3
ACAD_LAYOUT
350
D
  3
ACAD_MATERIAL
350
123
  3
ACAD_MLINESTYLE
350
24
  3
ACAD_PLOTSETTINGS
350
25
  3
ACAD_PLOTSTYLENAME
350
8
  3
ACAD_TABLESTYLE
350
125
  3
ACDBHEADERROUNDTRIPXREC
350
132
  3
AcDbVariableDictionary
350
A6
  0
DICTIONARY
  5
124
102
{ACAD_REACTORS
330
9
102
}
330
9
100
AcDbDictionary
281
     1
  0
DICTIONARY
  5
23
102
{ACAD_REACTORS
330
9
102
}
330
9
100
AcDbDictionary
281
     1
  0
DICTIONARY
  5
D
102
{ACAD_REACTORS
330
9
102
}
330
9
100
AcDbDictionary
281
     1
  3
Layout1
350
13
  3
Model
350
C
  0
DICTIONARY
  5
123
102
{ACAD_REACTORS
330
9
102
}
330
9
100
AcDbDictionary
281
     1
  0
DICTIONARY
  5
24
102
{ACAD_REACTORS
330
9
102
}
330
9
100
AcDbDictionary
281
     1
  3
STANDARD
350
26
  0
DICTIONARY
  5
25
102
{ACAD_REACTORS
330
9
102
}
330
9
100
AcDbDictionary
281
     1
  0
ACDBDICTIONARYWDFLT
  5
8
102
{ACAD_REACTORS
330
9
102
}
330
9
100
AcDbDictionary
281
     1
  3
Normal
350
7
100
AcDbDictionaryWithDefault
340
7
  0
DICTIONARY
  5
125
102
{ACAD_REACTORS
330
9
102
}
330
9
100
AcDbDictionary
281
     1
  3
Standard
350
126
  0
DICTIONARY
  5
132
102
{ACAD_REACTORS
330
9
102
}
330
9
100
AcDbDictionary
281
     1
  3
COLORDICT
350
133
  3
MATERIALDICT
350
134
  0
DICTIONARY
  5
A6
102
{ACAD_REACTORS
330
9
102
}
330
9
100
AcDbDictionary
281
     1
  3
CTABLESTYLE
350
12F
  3
HIDETEXT
350
131
  0
LAYOUT
  5
13
102
{ACAD_REACTORS
330
D
102
}
102
{ACAD_XDICTIONARY
360
135
102
}
330
D
100
AcDbPlotSettings
  1

  2
HP LaserJet 2100 Series PS
  4

  6

 40
0.0
 41
0.0
 42
0.0
 43
0.0
 44
0.0
 45
0.0
 46
0.0
 47
0.0
 48
0.0
 49
0.0
140
0.0
141
0.0
142
1.0
143
1.0
 70
   688
 72
     0
 73
     0
 74
     5
  7

 75
    16
147
1.0
148
0.0
149
0.0
100
AcDbLayout
  1
Layout1
 70
     0
 71
     1
 10
0.0
 20
0.0
 11
12.0
 21
9.0
 12
0.0
 22
0.0
 32
0.0
 14
1.000000000000000E+20
 24
1.000000000000000E+20
 34
1.000000000000000E+20
 15
-1.000000000000000E+20
 25
-1.000000000000000E+20
 35
-1.000000000000000E+20
146
0.0
 13
0.0
 23
0.0
 33
0.0
 16
1.0
 26
0.0
 36
0.0
 17
0.0
 27
1.0
 37
0.0
 76
     0
330
E
  0
LAYOUT
  5
C
102
{ACAD_REACTORS
330
D
102
}
102
{ACAD_XDICTIONARY
360
137
102
}
330
D
100
AcDbPlotSettings
  1

  2
HP LaserJet 2100 Series PS
  4
Letter
  6

 40
5.365749835968018
 41
5.386905193328857
 42
5.386917114257813
 43
5.365753173828125
 44
215.8999938964844
 45
279.3999938964844
 46
0.0
 47
0.0
 48
0.0
 49
0.0
140
0.0
141
0.0
142
1.0
143
1.0
 70
 11952
 72
     0
 73
     1
 74
     0
  7

 75
     0
147
1.0
148
-269.9071163985967
149
19.76672654033451
100
AcDbLayout
  1
Model
 70
     1
 71
     0
 10
0.0
 20
0.0
 11
12.0
 21
9.0
 12
0.0
 22
0.0
 32
0.0
 14
0.0
 24
0.0
 34
0.0
 15
0.0
 25
0.0
 35
0.0
146
0.0
 13
0.0
 23
0.0
 33
0.0
 16
1.0
 26
0.0
 36
0.0
 17
0.0
 27
1.0
 37
0.0
 76
     0
330
2
  0
MLINESTYLE
  5
26
102
{ACAD_REACTORS
330
24
102
}
330
24
100
AcDbMlineStyle
  2
STANDARD
 70
     0
  3

 62
   256
 51
90.0
 52
90.0
 71
     2
 49
0.5
 62
   256
  6
BYLAYER
 49
-0.5
 62
   256
  6
BYLAYER
  0
ACDBPLACEHOLDER
  5
7
102
{ACAD_REACTORS
330
8
102
}
330
8
  0
ACAD_PROXY_OBJECT
  5
126
102
{ACAD_REACTORS
330
125
102
}
330
125
100
AcDbProxyObject
 90
      499
 91
      522
 95
   983063
 70
     0
 93
     1841
310
4214DD185B99185C9928B81E85EB51B8AE3F2E07A17AD46E2B8FC02B5E8DC0F42B1CFD028000000C1008070000C3001FDFF8000000C1003FBFF000000182007F7FE00000030400FEFFC00000060801FDFF8000000C1003FBFF00000018200000000000000681FA0B0000001820100E000186003FBFF000000182007F7FE000
310
00030400FEFFC00000060801FDFF8000000C1003FBFF000000182007F7FE000000304000AD7A3703D0AC73F4160000003040201C00030C007F7FE00000030400FEFFC00000060801FDFF8000000C1003FBFF000000182007F7FE00000030400FEFFC000000608000
340
16
340
16
340
16
 94
        0
  0
XRECORD
  5
133
102
{ACAD_REACTORS
330
132
102
}
330
132
100
AcDbXrecord
340
124
  0
XRECORD
  5
134
102
{ACAD_REACTORS
330
132
102
}
330
132
100
AcDbXrecord
340
123
  0
DICTIONARYVAR
  5
12F
102
{ACAD_REACTORS
330
A6
102
}
330
A6
100
DictionaryVariables
280
     0
  1
STANDARD
  0
DICTIONARYVAR
  5
131
102
{ACAD_REACTORS
330
A6
102
}
330
A6
100
DictionaryVariables
280
     0
  1
0
  0
DICTIONARY
  5
135
330
13
100
AcDbDictionary
280
     1
281
     1
  3
ACAD_XREC_ROUNDTRIP
360
136
  0
DICTIONARY
  5
137
330
C
100
AcDbDictionary
280
     1
281
     1
  3
ACAD_XREC_ROUNDTRIP
360
138
  0
XRECORD
  5
136
102
{ACAD_REACTORS
330
135
102
}
330
135
100
AcDbXrecord
102
SHADEPLOT
 70
     0
102
SHADEPLOTRESLEVEL
 70
     2
102
SHADEPLOTCUSTOMDPI
 70
   300
  0
XRECORD
  5
138
102
{ACAD_REACTORS
330
137
102
}
330
137
100
AcDbXrecord
102
SHADEPLOT
 70
     0
102
SHADEPLOTRESLEVEL
 70
     2
102
SHADEPLOTCUSTOMDPI
 70
   300
  0
ENDSEC
  0
EOF
