  0
SECTION
  2
HEADER
  9
$ACADVER
  1
AC1015
  9
$ACADMAINTVER
 70
     6
  9
$DWGCODEPAGE
  3
ANSI_1252
  9
$INSBASE
 10
0.0
 20
0.0
 30
0.0
  9
$EXTMIN
 10
-12.46573463576052
 20
-6.834278225050277
 30
-0.0000000000000129
  9
$EXTMAX
 10
12.19281354564104
 20
6.617470019251371
 30
0.0000000000000023
  9
$LIMMIN
 10
0.0
 20
0.0
  9
$LIMMAX
 10
31.5
 20
24.0
  9
$ORTHOMODE
 70
     1
  9
$REGENMODE
 70
     1
  9
$FILLMODE
 70
     1
  9
$QTEXTMODE
 70
     0
  9
$MIRRTEXT
 70
     0
  9
$LTSCALE
 40
0.5
  9
$ATTMODE
 70
     1
  9
$TEXTSIZE
 40
0.27
  9
$TRACEWID
 40
0.05
  9
$TEXTSTYLE
  7
STANDARD
  9
$CLAYER
  8
0
  9
$CELTYPE
  6
BYLAYER
  9
$CECOLOR
 62
   256
  9
$CELTSCALE
 40
1.0
  9
$DISPSILH
 70
     0
  9
$DIMSCALE
 40
3.0
  9
$DIMASZ
 40
0.125
  9
$DIMEXO
 40
0.062
  9
$DIMDLI
 40
0.375
  9
$DIMRND
 40
0.0
  9
$DIMDLE
 40
0.0
  9
$DIMEXE
 40
0.08
  9
$DIMTP
 40
0.0
  9
$DIMTM
 40
0.0
  9
$DIMTXT
 40
0.09
  9
$DIMCEN
 40
-0.03125
  9
$DIMTSZ
 40
0.0
  9
$DIMTOL
 70
     0
  9
$DIMLIM
 70
     0
  9
$DIMTIH
 70
     1
  9
$DIMTOH
 70
     1
  9
$DIMSE1
 70
     0
  9
$DIMSE2
 70
     0
  9
$DIMTAD
 70
     0
  9
$DIMZIN
 70
     0
  9
$DIMBLK
  1

  9
$DIMASO
 70
     0
  9
$DIMSHO
 70
     0
  9
$DIMPOST
  1

  9
$DIMAPOST
  1

  9
$DIMALT
 70
     0
  9
$DIMALTD
 70
     2
  9
$DIMALTF
 40
25.4
  9
$DIMLFAC
 40
1.0
  9
$DIMTOFL
 70
     0
  9
$DIMTVP
 40
0.0
  9
$DIMTIX
 70
     0
  9
$DIMSOXD
 70
     0
  9
$DIMSAH
 70
     0
  9
$DIMBLK1
  1

  9
$DIMBLK2
  1

  9
$DIMSTYLE
  2
STANDARD
  9
$DIMCLRD
 70
     0
  9
$DIMCLRE
 70
     0
  9
$DIMCLRT
 70
     0
  9
$DIMTFAC
 40
1.0
  9
$DIMGAP
 40
0.09
  9
$DIMJUST
 70
     0
  9
$DIMSD1
 70
     0
  9
$DIMSD2
 70
     0
  9
$DIMTOLJ
 70
     1
  9
$DIMTZIN
 70
     0
  9
$DIMALTZ
 70
     0
  9
$DIMALTTZ
 70
     0
  9
$DIMUPT
 70
     0
  9
$DIMDEC
 70
     5
  9
$DIMTDEC
 70
     5
  9
$DIMALTU
 70
     5
  9
$DIMALTTD
 70
     2
  9
$DIMTXSTY
  7
STANDARD
  9
$DIMAUNIT
 70
     0
  9
$DIMADEC
 70
     0
  9
$DIMALTRND
 40
0.0
  9
$DIMAZIN
 70
     0
  9
$DIMDSEP
 70
    46
  9
$DIMATFIT
 70
     3
  9
$DIMFRAC
 70
     0
  9
$DIMLDRBLK
  1

  9
$DIMLUNIT
 70
     5
  9
$DIMLWD
 70
    -2
  9
$DIMLWE
 70
    -2
  9
$DIMTMOVE
 70
     2
  9
$LUNITS
 70
     5
  9
$LUPREC
 70
     5
  9
$SKETCHINC
 40
0.1
  9
$FILLETRAD
 40
0.0
  9
$AUNITS
 70
     0
  9
$AUPREC
 70
     0
  9
$MENU
  1
SIMPSON
  9
$ELEVATION
 40
0.0
  9
$PELEVATION
 40
0.0
  9
$THICKNESS
 40
0.0
  9
$LIMCHECK
 70
     0
  9
$CHAMFERA
 40
0.375
  9
$CHAMFERB
 40
0.375
  9
$CHAMFERC
 40
0.0
  9
$CHAMFERD
 40
0.0
  9
$SKPOLY
 70
     0
  9
$TDCREATE
 40
2449253.665297106
  9
$TDUCREATE
 40
2449253.99863044
  9
$TDUPDATE
 40
2454946.992705266
  9
$TDUUPDATE
 40
2454947.3260386
  9
$TDINDWG
 40
0.0850102546
  9
$TDUSRTIMER
 40
0.0850102546
  9
$USRTIMER
 70
     1
  9
$ANGBASE
 50
0.0
  9
$ANGDIR
 70
     0
  9
$PDMODE
 70
     0
  9
$PDSIZE
 40
0.0
  9
$PLINEWID
 40
0.0
  9
$SPLFRAME
 70
     0
  9
$SPLINETYPE
 70
     6
  9
$SPLINESEGS
 70
     8
  9
$HANDSEED
  5
D46
  9
$SURFTAB1
 70
     6
  9
$SURFTAB2
 70
     6
  9
$SURFTYPE
 70
     6
  9
$SURFU
 70
     6
  9
$SURFV
 70
     6
  9
$UCSBASE
  2

  9
$UCSNAME
  2

  9
$UCSORG
 10
0.0
 20
0.0
 30
0.0
  9
$UCSXDIR
 10
1.0
 20
0.0
 30
0.0
  9
$UCSYDIR
 10
0.0
 20
1.0
 30
0.0
  9
$UCSORTHOREF
  2

  9
$UCSORTHOVIEW
 70
     0
  9
$UCSORGTOP
 10
0.0
 20
0.0
 30
0.0
  9
$UCSORGBOTTOM
 10
0.0
 20
0.0
 30
0.0
  9
$UCSORGLEFT
 10
0.0
 20
0.0
 30
0.0
  9
$UCSORGRIGHT
 10
0.0
 20
0.0
 30
0.0
  9
$UCSORGFRONT
 10
0.0
 20
0.0
 30
0.0
  9
$UCSORGBACK
 10
0.0
 20
0.0
 30
0.0
  9
$PUCSBASE
  2

  9
$PUCSNAME
  2

  9
$PUCSORG
 10
0.0
 20
0.0
 30
0.0
  9
$PUCSXDIR
 10
1.0
 20
0.0
 30
0.0
  9
$PUCSYDIR
 10
0.0
 20
1.0
 30
0.0
  9
$PUCSORTHOREF
  2

  9
$PUCSORTHOVIEW
 70
     0
  9
$PUCSORGTOP
 10
0.0
 20
0.0
 30
0.0
  9
$PUCSORGBOTTOM
 10
0.0
 20
0.0
 30
0.0
  9
$PUCSORGLEFT
 10
0.0
 20
0.0
 30
0.0
  9
$PUCSORGRIGHT
 10
0.0
 20
0.0
 30
0.0
  9
$PUCSORGFRONT
 10
0.0
 20
0.0
 30
0.0
  9
$PUCSORGBACK
 10
0.0
 20
0.0
 30
0.0
  9
$USERI1
 70
     0
  9
$USERI2
 70
     0
  9
$USERI3
 70
     0
  9
$USERI4
 70
     0
  9
$USERI5
 70
     0
  9
$USERR1
 40
0.0
  9
$USERR2
 40
0.0
  9
$USERR3
 40
0.0
  9
$USERR4
 40
0.0
  9
$USERR5
 40
0.0
  9
$WORLDVIEW
 70
     1
  9
$SHADEDGE
 70
     3
  9
$SHADEDIF
 70
    70
  9
$TILEMODE
 70
     1
  9
$MAXACTVP
 70
    16
  9
$PINSBASE
 10
0.0
 20
0.0
 30
0.0
  9
$PLIMCHECK
 70
     0
  9
$PEXTMIN
 10
1.000000000000000E+20
 20
1.000000000000000E+20
 30
1.000000000000000E+20
  9
$PEXTMAX
 10
-1.000000000000000E+20
 20
-1.000000000000000E+20
 30
-1.000000000000000E+20
  9
$PLIMMIN
 10
0.0
 20
0.0
  9
$PLIMMAX
 10
12.0
 20
9.0
  9
$UNITMODE
 70
     0
  9
$VISRETAIN
 70
     0
  9
$PLINEGEN
 70
     0
  9
$PSLTSCALE
 70
     0
  9
$TREEDEPTH
 70
  3020
  9
$CMLSTYLE
  2
STANDARD
  9
$CMLJUST
 70
     0
  9
$CMLSCALE
 40
1.0
  9
$PROXYGRAPHICS
 70
     1
  9
$MEASUREMENT
 70
     0
  9
$CELWEIGHT
370
    -1
  9
$ENDCAPS
280
     0
  9
$JOINSTYLE
280
     0
  9
$LWDISPLAY
290
     0
  9
$INSUNITS
 70
     0
  9
$HYPERLINKBASE
  1

  9
$STYLESHEET
  1
monochrome.ctb
  9
$XEDIT
290
     1
  9
$CEPSNTYPE
380
     0
  9
$PSTYLEMODE
290
     1
  9
$FINGERPRINTGUID
  2
{DEC6D506-4AE0-11D5-BE3F-00508B5FCD51}
  9
$VERSIONGUID
  2
{72812533-3F9D-4EB4-8688-4E42CD9D0697}
  9
$EXTNAMES
290
     1
  9
$PSVPSCALE
 40
0.0
  9
$OLESTARTUP
290
     0
  0
ENDSEC
  0
SECTION
  2
CLASSES
  0
CLASS
  1
DICTIONARYVAR
  2
AcDbDictionaryVar
  3
AutoCAD 2000
 90
        0
280
     0
281
     0
  0
CLASS
  1
XRECORD
  2
AcDbXrecord
  3
AutoCAD 2000
 90
        0
280
     0
281
     0
  0
CLASS
  1
LWPOLYLINE
  2
AcDbPolyline
  3
AutoCAD 2000
 90
        0
280
     0
281
     1
  0
CLASS
  1
ACDBDICTIONARYWDFLT
  2
AcDbDictionaryWithDefault
  3
AutoCAD 2000
 90
        0
280
     0
281
     0
  0
CLASS
  1
ACDBPLACEHOLDER
  2
AcDbPlaceHolder
  3
ObjectDBX Classes
 90
        0
280
     0
281
     0
  0
CLASS
  1
LAYOUT
  2
AcDbLayout
  3
ObjectDBX Classes
 90
        0
280
     0
281
     0
  0
CLASS
  1
LONG_TRANSACTION
  2
AcDbLongTransaction
  3
ObjectDBX Classes
 90
   -65536
280
     1
281
     0
  0
CLASS
  1
LWPOLYLINE
  2
AcDbPolyline
  3
AutoCAD 2000
 90
        0
280
     0
281
     1
  0
CLASS
  1
HATCH
  2
AcDbHatch
  3
AutoCAD 2000
 90
        0
280
     0
281
     1
  0
CLASS
  1
XRECORD
  2
AcDbXrecord
  3
AutoCAD 2000
 90
        0
280
     0
281
     0
  0
CLASS
  1
LONG_TRANSACTION
  2
AcDbLongTransaction
  3
ObjectDBX Classes
 90
   -65536
280
     1
281
     0
  0
CLASS
  1
LWPOLYLINE
  2
AcDbPolyline
  3
AutoCAD 2000
 90
        0
280
     0
281
     1
  0
CLASS
  1
HATCH
  2
AcDbHatch
  3
AutoCAD 2000
 90
        0
280
     0
281
     1
  0
CLASS
  1
XRECORD
  2
AcDbXrecord
  3
AutoCAD 2000
 90
        0
280
     0
281
     0
  0
CLASS
  1
LONG_TRANSACTION
  2
AcDbLongTransaction
  3
ObjectDBX Classes
 90
   -65536
280
     1
281
     0
  0
CLASS
  1
LWPOLYLINE
  2
AcDbPolyline
  3
AutoCAD 2000
 90
        0
280
     0
281
     1
  0
CLASS
  1
HATCH
  2
AcDbHatch
  3
AutoCAD 2000
 90
        0
280
     0
281
     1
  0
CLASS
  1
XRECORD
  2
AcDbXrecord
  3
AutoCAD 2000
 90
        0
280
     0
281
     0
  0
CLASS
  1
LONG_TRANSACTION
  2
AcDbLongTransaction
  3
ObjectDBX Classes
 90
   -65536
280
     1
281
     0
  0
CLASS
  1
LWPOLYLINE
  2
AcDbPolyline
  3
AutoCAD 2000
 90
        0
280
     0
281
     1
  0
CLASS
  1
HATCH
  2
AcDbHatch
  3
AutoCAD 2000
 90
        0
280
     0
281
     1
  0
CLASS
  1
XRECORD
  2
AcDbXrecord
  3
AutoCAD 2000
 90
        0
280
     0
281
     0
  0
CLASS
  1
TABLESTYLE
  2
AcDbTableStyle
  3
ObjectDBX Classes
 90
     2047
280
     1
281
     0
  0
CLASS
  1
SORTENTSTABLE
  2
AcDbSortentsTable
  3
AutoCAD 2000
 90
        0
280
     0
281
     0
  0
ENDSEC
  0
SECTION
  2
TABLES
  0
TABLE
  2
VPORT
  5
8
330
0
100
AcDbSymbolTable
 70
     3
  0
VPORT
  5
D34
330
8
100
AcDbSymbolTableRecord
100
AcDbViewportTableRecord
  2
*Active
 70
     0
 10
0.0
 20
0.0
 11
1.0
 21
1.0
 12
4.913578332298592
 22
2.067947396306824
 13
0.0
 23
0.0
 14
0.03125
 24
0.03125
 15
0.25
 25
0.25
 16
0.0
 26
0.0
 36
1.0
 17
0.0
 27
0.0
 37
0.0
 40
21.96264636974585
 41
1.87741935483871
 42
50.0
 43
0.0
 44
0.0
 50
0.0
 51
0.0
 71
     0
 72
   100
 73
     1
 74
     0
 75
     0
 76
     0
 77
     0
 78
     0
281
     0
 65
     1
110
0.0
120
0.0
130
0.0
111
1.0
121
0.0
131
0.0
112
0.0
122
1.0
132
0.0
 79
     0
146
0.0
  0
ENDTAB
  0
TABLE
  2
LTYPE
  5
5
330
0
100
AcDbSymbolTable
 70
     4
  0
LTYPE
  5
11
330
5
100
AcDbSymbolTableRecord
100
AcDbLinetypeTableRecord
  2
BYBLOCK
 70
     0
  3

 72
    65
 73
     0
 40
0.0
  0
LTYPE
  5
12
330
5
100
AcDbSymbolTableRecord
100
AcDbLinetypeTableRecord
  2
BYLAYER
 70
     0
  3

 72
    65
 73
     0
 40
0.0
  0
LTYPE
  5
13
330
5
100
AcDbSymbolTableRecord
100
AcDbLinetypeTableRecord
  2
CONTINUOUS
 70
     0
  3
Solid line
 72
    65
 73
     0
 40
0.0
  0
LTYPE
  5
31
330
5
100
AcDbSymbolTableRecord
100
AcDbLinetypeTableRecord
  2
HIDDEN
 70
     0
  3
_ _ _ _ _ _ _ _ _ _ _ _ _ _ _ _ _ _ _ _ _ _ _
 72
    65
 73
     2
 40
0.375
 49
0.25
 74
     0
 49
-0.125
 74
     0
  0
LTYPE
  5
32
330
5
100
AcDbSymbolTableRecord
100
AcDbLinetypeTableRecord
  2
DASHED
 70
     0
  3
__ __ __ __ __ __ __ __ __ __ __ __ __ __ __
 72
    65
 73
     2
 40
0.75
 49
0.5
 74
     0
 49
-0.25
 74
     0
  0
ENDTAB
  0
TABLE
  2
LAYER
  5
2
102
{ACAD_XDICTIONARY
360
BFA
102
}
330
0
100
AcDbSymbolTable
 70
    12
  0
LAYER
  5
E
330
2
100
AcDbSymbolTableRecord
100
AcDbLayerTableRecord
  2
0
 70
     0
 62
     7
  6
CONTINUOUS
370
    -3
390
9DC
  0
LAYER
  5
3C
330
2
100
AcDbSymbolTableRecord
100
AcDbLayerTableRecord
  2
REV
 70
     0
 62
     1
  6
CONTINUOUS
370
    -3
390
9DC
  0
LAYER
  5
40
330
2
100
AcDbSymbolTableRecord
100
AcDbLayerTableRecord
  2
HIDDEN
 70
     0
 62
   253
  6
HIDDEN
370
    -3
390
9DC
  0
LAYER
  5
42
330
2
100
AcDbSymbolTableRecord
100
AcDbLayerTableRecord
  2
DASHED
 70
     0
 62
     8
  6
DASHED
370
    -3
390
9DC
  0
ENDTAB
  0
TABLE
  2
STYLE
  5
3
330
0
100
AcDbSymbolTable
 70
     4
  0
STYLE
  5
F
330
3
100
AcDbSymbolTableRecord
100
AcDbTextStyleTableRecord
  2
STANDARD
 70
     0
 40
0.0
 41
1.0
 50
0.0
 71
     0
 42
0.27
  3
TXT
  4

  0
ENDTAB
  0
TABLE
  2
VIEW
  5
6
330
0
100
AcDbSymbolTable
 70
     0
  0
ENDTAB
  0
TABLE
  2
UCS
  5
7
330
0
100
AcDbSymbolTable
 70
     0
  0
ENDTAB
  0
TABLE
  2
APPID
  5
9
330
0
100
AcDbSymbolTable
 70
     3
  0
APPID
  5
10
330
9
100
AcDbSymbolTableRecord
100
AcDbRegAppTableRecord
  2
ACAD
 70
     0
  0
APPID
  5
BF9
330
9
100
AcDbSymbolTableRecord
100
AcDbRegAppTableRecord
  2
ACAD_PSEXT
 70
     0
  0
APPID
  5
C4E
330
9
100
AcDbSymbolTableRecord
100
AcDbRegAppTableRecord
  2
CONTENTBLOCKICON
 70
     0
  0
ENDTAB
  0
TABLE
  2
DIMSTYLE
  5
A
330
0
100
AcDbSymbolTable
 70
     1
100
AcDbDimStyleTable
  0
DIMSTYLE
105
98A
330
A
100
AcDbSymbolTableRecord
100
AcDbDimStyleTableRecord
  2
STANDARD
 70
     0
  3

  4

340
F
  0
ENDTAB
  0
TABLE
  2
BLOCK_RECORD
  5
1
330
0
100
AcDbSymbolTable
 70
    10
  0
BLOCK_RECORD
  5
17
330
1
100
AcDbSymbolTableRecord
100
AcDbBlockTableRecord
  2
*MODEL_SPACE
340
9DF
  0
BLOCK_RECORD
  5
14
330
1
100
AcDbSymbolTableRecord
100
AcDbBlockTableRecord
  2
*PAPER_SPACE
340
9E0
  0
ENDTAB
  0
ENDSEC
  0
SECTION
  2
BLOCKS
  0
BLOCK
  5
4A
330
17
100
AcDbEntity
  8
0
100
AcDbBlockBegin
  2
*MODEL_SPACE
 70
     0
 10
0.0
 20
0.0
 30
0.0
  3
*MODEL_SPACE
  1

  4

  0
ENDBLK
  5
4B
330
17
100
AcDbEntity
  8
0
100
AcDbBlockEnd
  0
BLOCK
  5
48
330
14
100
AcDbEntity
 67
     1
  8
0
100
AcDbBlockBegin
  2
*PAPER_SPACE
 70
     0
 10
0.0
 20
0.0
 30
0.0
  3
*PAPER_SPACE
  1

  4

  0
ENDBLK
  5
49
330
14
100
AcDbEntity
 67
     1
  8
0
100
AcDbBlockEnd
  0
ENDSEC
  0
SECTION
  2
ENTITIES
  0
LINE
  5
76B
330
17
100
AcDbEntity
  8
0
100
AcDbLine
 10
-2.62980714610298
 20
1.442320302223417
 30
0.0
 11
2.321364404856771
 21
1.442320302223417
 31
0.0
  0
LINE
  5
76C
330
17
100
AcDbEntity
  8
0
100
AcDbLine
 10
-2.62980714610298
 20
1.532320302223416
 30
0.0
 11
2.321364404856771
 21
1.532320302223416
 31
0.0
  0
LINE
  5
76D
330
17
100
AcDbEntity
  8
0
100
AcDbLine
 10
-2.62980714610298
 20
0.5373203022234154
 30
0.0
 11
-2.62980714610298
 21
1.532320302223416
 31
0.0
  0
LINE
  5
76E
330
17
100
AcDbEntity
  8
0
100
AcDbLine
 10
-2.828807146102985
 20
0.5373203022234154
 30
0.0
 11
-2.828807146102985
 21
1.415349318502356
 31
0.0
  0
ARC
  5
76F
330
17
100
AcDbEntity
  8
0
100
AcDbCircle
 10
-2.656039211808018
 20
1.370132243674215
 30
0.0
 40
0.0738501512862321
100
AcDbArc
 50
77.64111696514414
 51
177.296147320882
  0
LINE
  5
770
330
17
100
AcDbEntity
  8
0
100
AcDbLine
 10
-2.729807146102981
 20
0.5373203022234154
 30
0.0
 11
-2.729807146102981
 21
1.373616022492241
 31
0.0
  0
LINE
  5
771
330
17
100
AcDbEntity
  8
0
100
AcDbLine
 10
-2.62980714610298
 20
1.373503490074667
 30
0.0
 11
-2.828807146102985
 21
1.373503490074667
 31
0.0
  0
LINE
  5
772
330
17
100
AcDbEntity
  8
0
100
AcDbLine
 10
-2.62980714610298
 20
1.442320302223417
 30
0.0
 11
-2.640232740013826
 21
1.442271000902343
 31
0.0
  0
ARC
  5
773
330
17
100
AcDbEntity
  8
0
100
AcDbCircle
 10
-2.646504845843555
 20
1.332965192724016
 30
0.0
 40
0.2000531750813782
100
AcDbArc
 50
85.21216268362923
 51
155.6813414294017
  0
LINE
  5
775
330
17
100
AcDbEntity
  8
HIDDEN
100
AcDbLine
 10
-1.041234125781536
 20
0.6593201092713308
 30
0.0
 11
0.7712658742184644
 21
0.6593201092713308
 31
0.0
  0
LINE
  5
77A
330
17
100
AcDbEntity
  8
0
100
AcDbLine
 10
2.321364404856771
 20
0.5373203022234154
 30
0.0
 11
2.321364404856771
 21
1.532320302223416
 31
0.0
  0
LINE
  5
77B
330
17
100
AcDbEntity
  8
0
100
AcDbLine
 10
2.520364404856769
 20
0.5373203022234154
 30
0.0
 11
2.520364404856769
 21
1.427904621623247
 31
0.0
  0
ARC
  5
77C
330
17
100
AcDbEntity
  8
0
100
AcDbCircle
 10
2.347870975108426
 20
1.370032613844861
 30
0.0
 40
0.0735732968735009
100
AcDbArc
 50
2.669935946913371
 51
101.6130340233053
  0
LINE
  5
77D
330
17
100
AcDbEntity
  8
0
100
AcDbLine
 10
2.421364404856773
 20
0.5373203022234154
 30
0.0
 11
2.421364404856773
 21
1.373459827970278
 31
0.0
  0
LINE
  5
77E
330
17
100
AcDbEntity
  8
0
100
AcDbLine
 10
2.321364404856771
 20
1.376682779750682
 30
0.0
 11
2.520364404856769
 21
1.376682779750682
 31
0.0
  0
LINE
  5
77F
330
17
100
AcDbEntity
  8
0
100
AcDbLine
 10
2.321364404856771
 20
1.442320302223417
 30
0.0
 11
2.333060614811286
 21
1.442099827199515
 31
0.0
  0
ARC
  5
780
330
17
100
AcDbEntity
  8
0
100
AcDbCircle
 10
2.345836803553281
 20
1.33712155697903
 30
0.0
 40
0.1967268371192499
100
AcDbArc
 50
27.48185073471241
 51
97.14598463469567
  0
LINE
  5
784
330
17
100
AcDbEntity
  8
HIDDEN
100
AcDbLine
 10
11.89263593883002
 20
1.437569879803711
 30
0.0
 11
6.95763593883002
 21
1.437569879803707
 31
0.0
  0
LINE
  5
785
330
17
100
AcDbEntity
  8
0
100
AcDbLine
 10
11.98663593883002
 20
1.500069879803711
 30
0.0
 11
11.95495641019135
 21
1.500069879803711
 31
0.0
  0
ARC
  5
786
330
17
100
AcDbEntity
  8
0
100
AcDbCircle
 10
6.938635938830014
 20
1.330069879803709
 30
0.0
 40
0.17
100
AcDbArc
 50
90.0
 51
180.0
  0
ARC
  5
787
330
17
100
AcDbEntity
  8
0
100
AcDbCircle
 10
6.957635938830016
 20
1.347569879803707
 30
0.0
 40
0.09
100
AcDbArc
 50
90.00000000000003
 51
180.0000000000001
  0
LINE
  5
788
330
17
100
AcDbEntity
  8
HIDDEN
100
AcDbLine
 10
7.032635938830023
 20
0.5325698798037095
 30
0.0
 11
7.032635938830023
 21
1.437569879803707
 31
0.0
  0
LINE
  5
789
330
17
100
AcDbEntity
  8
0
100
AcDbLine
 10
6.76863593883002
 20
1.330069879803709
 30
0.0
 11
6.76863593883002
 21
0.532569879803706
 31
0.0
  0
LINE
  5
78A
330
17
100
AcDbEntity
  8
0
100
AcDbLine
 10
6.867635938830016
 20
1.347569879803707
 30
0.0
 11
6.867635938830016
 21
0.532569879803706
 31
0.0
  0
LINE
  5
78B
330
17
100
AcDbEntity
  8
0
100
AcDbLine
 10
6.934981090091537
 20
0.5325698798037095
 30
0.0
 11
6.934981090091529
 21
1.386113645757838
 31
0.0
  0
LINE
  5
78C
330
17
100
AcDbEntity
  8
0
100
AcDbLine
 10
6.867635938830016
 20
0.5325698798037095
 30
0.0
 11
6.768635938830027
 21
0.532569879803706
 31
0.0
  0
LINE
  5
78D
330
17
100
AcDbEntity
  8
HIDDEN
100
AcDbLine
 10
6.932924385112795
 20
1.386113645757838
 30
0.0
 11
7.032635938830023
 21
1.386113645757842
 31
0.0
  0
ARC
  5
78E
330
17
100
AcDbEntity
  8
HIDDEN
100
AcDbCircle
 10
6.98684227383259
 20
1.444610155439285
 30
0.0
 40
0.0583872782687024
100
AcDbArc
 50
353.0744844638531
 51
71.7794065912048
  0
POINT
  5
78F
330
17
100
AcDbEntity
  8
HIDDEN
100
AcDbPoint
 10
9.345186594001714
 20
0.5043993178581161
 30
0.0
  0
ARC
  5
790
330
17
100
AcDbEntity
  8
0
100
AcDbCircle
 10
11.98663593883002
 20
1.330069879803709
 30
0.0
 40
0.17
100
AcDbArc
 50
0.0
 51
90.00000000000003
  0
LINE
  5
791
330
17
100
AcDbEntity
  8
HIDDEN
100
AcDbLine
 10
11.90480354350987
 20
1.386113645757842
 30
0.0
 11
11.90480354350987
 21
1.437569879803707
 31
0.0
  0
ARC
  5
792
330
17
100
AcDbEntity
  8
0
100
AcDbCircle
 10
11.96763593883003
 20
1.347569879803711
 30
0.0
 40
0.09
100
AcDbArc
 50
0.0
 51
90.00000000000003
  0
LINE
  5
793
330
17
100
AcDbEntity
  8
HIDDEN
100
AcDbLine
 10
11.90480354350987
 20
1.386113645757842
 30
0.0
 11
11.95495641019135
 21
1.38611364575784
 31
0.0
  0
LINE
  5
794
330
17
100
AcDbEntity
  8
HIDDEN
100
AcDbLine
 10
11.90480354350987
 20
0.5325698798037095
 30
0.0
 11
11.90480354350987
 21
1.386113645757842
 31
0.0
  0
LINE
  5
795
330
17
100
AcDbEntity
  8
0
100
AcDbLine
 10
11.99076153549201
 20
0.5325698798037095
 30
0.0
 11
11.99076153549201
 21
1.386113645757838
 31
0.0
  0
LINE
  5
796
330
17
100
AcDbEntity
  8
0
100
AcDbLine
 10
12.05763593883002
 20
1.347569879803711
 30
0.0
 11
12.05763593883002
 21
0.532569879803706
 31
0.0
  0
LINE
  5
797
330
17
100
AcDbEntity
  8
0
100
AcDbLine
 10
12.15663593883002
 20
1.330069879803709
 30
0.0
 11
12.15663593883002
 21
0.532569879803706
 31
0.0
  0
ARC
  5
798
330
17
100
AcDbEntity
  8
HIDDEN
100
AcDbCircle
 10
11.96724754526464
 20
1.442897509875628
 30
0.0
 40
0.062670862426912
100
AcDbArc
 50
107.6954635473207
 51
184.8765816099655
  0
LINE
  5
799
330
17
100
AcDbEntity
  8
0
100
AcDbLine
 10
11.96763593883003
 20
1.437569879803711
 30
0.0
 11
11.95495641019135
 21
1.437569879803711
 31
0.0
  0
LINE
  5
79A
330
17
100
AcDbEntity
  8
0
100
AcDbLine
 10
12.15663593883002
 20
0.532569879803706
 30
0.0
 11
12.05763593883003
 21
0.5325698798037024
 31
0.0
  0
LINE
  5
79B
330
17
100
AcDbEntity
  8
0
100
AcDbLine
 10
6.934981090091537
 20
0.5325698798037095
 30
0.0
 11
6.95763391872724
 21
0.5325698798037095
 31
0.0
  0
LINE
  5
79C
330
17
100
AcDbEntity
  8
0
100
AcDbLine
 10
11.99076153549201
 20
0.5325698798037095
 30
0.0
 11
11.86147189334732
 21
0.5325698798037095
 31
0.0
  0
LINE
  5
7A1
330
17
100
AcDbEntity
  8
HIDDEN
100
AcDbLine
 10
-2.327875534446337
 20
-6.33347394097072
 30
0.0
 11
1.985124465553939
 21
-6.333473940970698
 31
0.0
  0
LINE
  5
7A2
330
17
100
AcDbEntity
  8
0
100
AcDbLine
 10
-2.327875534447077
 20
-6.462473940970718
 30
0.0
 11
1.985124465553941
 21
-6.462473940970696
 31
0.0
  0
LINE
  5
7A3
330
17
100
AcDbEntity
  8
0
100
AcDbLine
 10
-2.327875534446712
 20
-2.204473778077096
 30
0.0
 11
1.985124465554311
 21
-2.204473778077075
 31
0.0
  0
ARC
  5
7A4
330
17
100
AcDbEntity
  8
DASHED
100
AcDbCircle
 10
-1.483875534446195
 20
-3.614673778077085
 30
0.0
 40
0.21875
100
AcDbArc
 50
90.00000000000011
 51
270.0000000000002
  0
LINE
  5
7A5
330
17
100
AcDbEntity
  8
DASHED
100
AcDbLine
 10
-1.483875534446195
 20
-4.114723778077215
 30
0.0
 11
-0.9365405773913018
 21
-4.114723778077215
 31
0.0
  0
LINE
  5
7A6
330
17
100
AcDbEntity
  8
DASHED
100
AcDbLine
 10
-1.483875534446195
 20
-4.552223778076952
 30
0.0
 11
-0.9365405773911881
 21
-4.552223778076952
 31
0.0
  0
ARC
  5
7A7
330
17
100
AcDbEntity
  8
DASHED
100
AcDbCircle
 10
-1.483875534446195
 20
-4.333473778077087
 30
0.0
 40
0.21875
100
AcDbArc
 50
90.00000000000011
 51
270.0000000000002
  0
ARC
  5
7A8
330
17
100
AcDbEntity
  8
DASHED
100
AcDbCircle
 10
-1.483875534446195
 20
-5.802273778077096
 30
0.0
 40
0.21875
100
AcDbArc
 50
89.99999999999986
 51
269.9999999999999
  0
ARC
  5
7A9
330
17
100
AcDbEntity
  8
DASHED
100
AcDbCircle
 10
-1.483875534446195
 20
-5.052273778077096
 30
0.0
 40
0.21875
100
AcDbArc
 50
89.99999999999986
 51
269.9999999999999
  0
ARC
  5
7AA
330
17
100
AcDbEntity
  8
DASHED
100
AcDbCircle
 10
-1.483875534446195
 20
-2.864673778077085
 30
0.0
 40
0.21875
100
AcDbArc
 50
90.00000000000011
 51
270.0000000000002
  0
LINE
  5
7AB
330
17
100
AcDbEntity
  8
DASHED
100
AcDbLine
 10
-1.483875534446195
 20
-5.271023778077081
 30
0.0
 11
-0.1713755344461987
 21
-5.271023778077081
 31
0.0
  0
LINE
  5
7AC
330
17
100
AcDbEntity
  8
DASHED
100
AcDbLine
 10
-1.483875534446195
 20
-5.583523778077238
 30
0.0
 11
-0.1713755344461987
 21
-5.583523778077238
 31
0.0
  0
LINE
  5
7AD
330
17
100
AcDbEntity
  8
DASHED
100
AcDbLine
 10
-1.483875534446195
 20
-6.021023778076954
 30
0.0
 11
-0.1713755344461987
 21
-6.021023778076961
 31
0.0
  0
LINE
  5
7AE
330
17
100
AcDbEntity
  8
DASHED
100
AcDbLine
 10
-1.483875534446195
 20
-4.833523778077103
 30
0.0
 11
-0.3229646077279416
 21
-4.833523778077103
 31
0.0
  0
LINE
  5
7AF
330
17
100
AcDbEntity
  8
DASHED
100
AcDbLine
 10
-1.483875534446195
 20
-3.833423778077071
 30
0.0
 11
-0.1713755344461916
 21
-3.833423778077071
 31
0.0
  0
LINE
  5
7B0
330
17
100
AcDbEntity
  8
DASHED
100
AcDbLine
 10
-1.483875534446195
 20
-3.395923778077092
 30
0.0
 11
-0.1713755344461987
 21
-3.395923778077092
 31
0.0
  0
LINE
  5
7B1
330
17
100
AcDbEntity
  8
DASHED
100
AcDbLine
 10
-1.483875534446195
 20
-3.083423778076943
 30
0.0
 11
-0.1713755344461987
 21
-3.083423778076943
 31
0.0
  0
LINE
  5
7B2
330
17
100
AcDbEntity
  8
DASHED
100
AcDbLine
 10
-1.483875534446195
 20
-2.64592377807722
 30
0.0
 11
-0.1713755344461987
 21
-2.64592377807722
 31
0.0
  0
LINE
  5
7B3
330
17
100
AcDbEntity
  8
HIDDEN
100
AcDbLine
 10
-2.327875534446196
 20
-2.333473778077092
 30
0.0
 11
1.985124465553797
 21
-2.333473778077075
 31
0.0
  0
LINE
  5
7B4
330
17
100
AcDbEntity
  8
0
100
AcDbLine
 10
-3.050375534446193
 20
-1.833473778077087
 30
0.0
 11
-3.050375534446193
 21
-6.833473778077092
 31
0.0
  0
LINE
  5
7B5
330
17
100
AcDbEntity
  8
0
100
AcDbLine
 10
-2.921375534446202
 20
-1.833473778077087
 30
0.0
 11
-2.921375534446202
 21
-1.926973778077088
 31
0.0
  0
LINE
  5
7BA
330
17
100
AcDbEntity
  8
0
100
AcDbLine
 10
-2.64707553444568
 20
-6.833473778077085
 30
0.0
 11
-2.827875534446175
 21
-6.833473778077078
 31
0.0
  0
LINE
  5
7BB
330
17
100
AcDbEntity
  8
0
100
AcDbLine
 10
-2.921375534446209
 20
-6.739973778077079
 30
0.0
 11
-3.0503755344462
 21
-6.739973778077079
 31
0.0
  0
LINE
  5
7BC
330
17
100
AcDbEntity
  8
0
100
AcDbLine
 10
-2.921375534446209
 20
-6.833473778077092
 30
0.0
 11
-3.0503755344462
 21
-6.833473778077092
 31
0.0
  0
ARC
  5
7BD
330
17
100
AcDbEntity
  8
0
100
AcDbCircle
 10
-2.921375534446195
 20
-6.833473778077078
 30
0.0
 40
0.0935
100
AcDbArc
 50
0.0
 51
90.0
  0
LINE
  5
7BE
330
17
100
AcDbEntity
  8
0
100
AcDbLine
 10
-2.327875534447077
 20
-6.462473940970718
 30
0.0
 11
-2.327875534447077
 21
-6.33347377807708
 31
0.0
  0
LINE
  5
7BF
330
17
100
AcDbEntity
  8
0
100
AcDbLine
 10
-2.514875534445682
 20
-6.333473778077087
 30
0.0
 11
-2.514875534445682
 21
-6.701273778077088
 31
0.0
  0
LINE
  5
7C0
330
17
100
AcDbEntity
  8
0
100
AcDbLine
 10
-2.514875534445682
 20
-6.701273778077088
 30
0.0
 11
-2.64707553444568
 21
-6.833473778077085
 31
0.0
  0
ARC
  5
7C1
330
17
100
AcDbEntity
  8
0
100
AcDbCircle
 10
-2.421375534446195
 20
-6.33347377807708
 30
0.0
 40
0.0935
100
AcDbArc
 50
359.9999001805695
 51
180.0000998194305
  0
LINE
  5
7C5
330
17
100
AcDbEntity
  8
0
100
AcDbLine
 10
-2.514875534445682
 20
-2.333473778077087
 30
0.0
 11
-2.514875534445682
 21
-1.965673778077084
 31
0.0
  0
LINE
  5
7C6
330
17
100
AcDbEntity
  8
0
100
AcDbLine
 10
-2.327875534446708
 20
-2.333473778077087
 30
0.0
 11
-2.327875534446708
 21
-2.204473778077094
 31
0.0
  0
ARC
  5
7C7
330
17
100
AcDbEntity
  8
0
100
AcDbCircle
 10
-2.421375534446195
 20
-2.333473778077087
 30
0.0
 40
0.0935
100
AcDbArc
 50
179.9999001805695
 51
0.0000998194305355
  0
LINE
  5
7C9
330
17
100
AcDbEntity
  8
0
100
AcDbLine
 10
-2.827875534445784
 20
-1.83347377807708
 30
0.0
 11
-2.64707553444568
 21
-1.833473778077087
 31
0.0
  0
LINE
  5
7CA
330
17
100
AcDbEntity
  8
0
100
AcDbLine
 10
-2.921375534446195
 20
-1.833473778077087
 30
0.0
 11
-3.050375534446193
 21
-1.833473778077087
 31
0.0
  0
LINE
  5
7CB
330
17
100
AcDbEntity
  8
0
100
AcDbLine
 10
-2.921375534446209
 20
-1.926973778077088
 30
0.0
 11
-3.0503755344462
 21
-1.926973778077088
 31
0.0
  0
ARC
  5
7CC
330
17
100
AcDbEntity
  8
0
100
AcDbCircle
 10
-2.921375534446195
 20
-1.833473778077087
 30
0.0
 40
0.0935
100
AcDbArc
 50
269.9999999999956
 51
0.0000000000021771
  0
LINE
  5
7CD
330
17
100
AcDbEntity
  8
0
100
AcDbLine
 10
-2.514875534445682
 20
-1.965673778077084
 30
0.0
 11
-2.64707553444568
 21
-1.833473778077087
 31
0.0
  0
LINE
  5
7D1
330
17
100
AcDbEntity
  8
0
100
AcDbLine
 10
2.707624465553788
 20
-1.833473778077087
 30
0.0
 11
2.707624465553803
 21
-6.833473778077085
 31
0.0
  0
ARC
  5
7D2
330
17
100
AcDbEntity
  8
0
100
AcDbCircle
 10
-0.1713755344461916
 20
-4.333473778077087
 30
0.0
 40
0.34375
100
AcDbArc
 50
24.78445374465106
 51
89.9999536670809
  0
LINE
  5
7D3
330
17
100
AcDbEntity
  8
0
100
AcDbLine
 10
2.578624465553798
 20
-1.833473778077087
 30
0.0
 11
2.578624465553798
 21
-1.926973778077088
 31
0.0
  0
ARC
  5
7D4
330
17
100
AcDbEntity
  8
0
100
AcDbCircle
 10
-0.6713755344461934
 20
-4.333473778077087
 30
0.0
 40
0.34375
100
AcDbArc
 50
89.99997617713687
 51
270.0
  0
LINE
  5
7DA
330
17
100
AcDbEntity
  8
DASHED
100
AcDbLine
 10
1.141124465553805
 20
-4.833523778077103
 30
0.0
 11
0.3890034199570245
 21
-4.83352377807711
 31
0.0
  0
LINE
  5
7DB
330
17
100
AcDbEntity
  8
DASHED
100
AcDbLine
 10
1.141124465553805
 20
-4.552223778076952
 30
0.0
 11
0.3082532361097385
 21
-4.552223778076952
 31
0.0
  0
LINE
  5
7DC
330
17
100
AcDbEntity
  8
DASHED
100
AcDbLine
 10
1.141124465553805
 20
-4.114723778077215
 30
0.0
 11
0.0937895084990146
 21
-4.114723778077215
 31
0.0
  0
LINE
  5
7DD
330
17
100
AcDbEntity
  8
DASHED
100
AcDbLine
 10
1.141124465553805
 20
-5.271023778077081
 30
0.0
 11
-0.1713755344461916
 21
-5.271023778077081
 31
0.0
  0
LINE
  5
7DE
330
17
100
AcDbEntity
  8
DASHED
100
AcDbLine
 10
1.141124465553805
 20
-5.583523778077238
 30
0.0
 11
-0.1713755344461916
 21
-5.583523778077238
 31
0.0
  0
LINE
  5
7DF
330
17
100
AcDbEntity
  8
DASHED
100
AcDbLine
 10
1.141124465553805
 20
-6.021023778076954
 30
0.0
 11
-0.1713755344461916
 21
-6.021023778076961
 31
0.0
  0
CIRCLE
  5
7E0
330
17
100
AcDbEntity
  8
0
100
AcDbCircle
 10
0.9536244655537978
 20
-5.802273778077081
 30
0.0
 40
0.0855
  0
ARC
  5
7E8
330
17
100
AcDbEntity
  8
0
100
AcDbCircle
 10
0.0464244655538124
 20
-4.805173778077078
 30
0.0
 40
0.34375
100
AcDbArc
 50
204.0815263086942
 51
24.78444436489547
  0
CIRCLE
  5
7E9
330
17
100
AcDbEntity
  8
0
100
AcDbCircle
 10
-1.296375534446181
 20
-5.802273778077081
 30
0.0
 40
0.0855
  0
ARC
  5
7EA
330
17
100
AcDbEntity
  8
0
100
AcDbCircle
 10
-0.6111919733388351
 20
-5.020844487591484
 30
0.0
 40
0.34375
100
AcDbArc
 50
24.78445374465106
 51
89.9999536670809
  0
LINE
  5
7EB
330
17
100
AcDbEntity
  8
0
100
AcDbLine
 10
-0.6713755344461934
 20
-4.677223778077087
 30
0.0
 11
-0.6017648585730715
 21
-4.677223778077087
 31
0.0
  0
LINE
  5
7EC
330
17
100
AcDbEntity
  8
0
100
AcDbLine
 10
-0.3006535205681562
 20
-4.873433728652744
 30
0.0
 11
-0.2638721756333613
 21
-4.953092867338421
 31
0.0
  0
LINE
  5
7ED
330
17
100
AcDbEntity
  8
0
100
AcDbLine
 10
0.1407122624072272
 20
-4.189372183515554
 30
0.0
 11
0.3585122624072277
 21
-4.661072183515545
 31
0.0
  0
ARC
  5
7EF
330
17
100
AcDbEntity
  8
DASHED
100
AcDbCircle
 10
1.141124465553805
 20
-5.802273778077096
 30
0.0
 40
0.21875
100
AcDbArc
 50
270.0
 51
90.00000000000003
  0
LINE
  5
7F0
330
17
100
AcDbEntity
  8
0
100
AcDbLine
 10
2.172124465553285
 20
-6.701273778077088
 30
0.0
 11
2.30432446555329
 21
-6.833473778077085
 31
0.0
  0
LINE
  5
7F1
330
17
100
AcDbEntity
  8
0
100
AcDbLine
 10
1.985124465553941
 20
-6.462473940970696
 30
0.0
 11
1.985124465553941
 21
-6.33347377807708
 31
0.0
  0
LINE
  5
7F2
330
17
100
AcDbEntity
  8
0
100
AcDbLine
 10
2.172124465553285
 20
-6.333473778077087
 30
0.0
 11
2.172124465553285
 21
-6.701273778077088
 31
0.0
  0
ARC
  5
7F3
330
17
100
AcDbEntity
  8
0
100
AcDbCircle
 10
2.078624465553798
 20
-6.33347377807708
 30
0.0
 40
0.0935
100
AcDbArc
 50
359.9999001805695
 51
180.0000998194305
  0
ARC
  5
7F4
330
17
100
AcDbEntity
  8
0
100
AcDbCircle
 10
2.578624465553805
 20
-6.833473778077085
 30
0.0
 40
0.0935
100
AcDbArc
 50
90.0
 51
180.0
  0
LINE
  5
7F5
330
17
100
AcDbEntity
  8
0
100
AcDbLine
 10
2.485124465553174
 20
-6.833473778077085
 30
0.0
 11
2.30432446555329
 21
-6.833473778077085
 31
0.0
  0
LINE
  5
7F6
330
17
100
AcDbEntity
  8
0
100
AcDbLine
 10
2.578624465553805
 20
-6.739973778077086
 30
0.0
 11
2.707624465553796
 21
-6.739973778077086
 31
0.0
  0
LINE
  5
7F7
330
17
100
AcDbEntity
  8
0
100
AcDbLine
 10
2.578624465553805
 20
-6.833473778077092
 30
0.0
 11
2.707624465553796
 21
-6.833473778077092
 31
0.0
  0
ARC
  5
7F8
330
17
100
AcDbEntity
  8
DASHED
100
AcDbCircle
 10
1.141124465553805
 20
-5.052273778077096
 30
0.0
 40
0.21875
100
AcDbArc
 50
270.0
 51
90.00000000000003
  0
ARC
  5
7F9
330
17
100
AcDbEntity
  8
DASHED
100
AcDbCircle
 10
1.141124465553805
 20
-4.333473778077087
 30
0.0
 40
0.21875
100
AcDbArc
 50
270.0
 51
90.0
  0
CIRCLE
  5
806
330
17
100
AcDbEntity
  8
0
100
AcDbCircle
 10
0.9536244655538049
 20
-2.864673778077085
 30
0.0
 40
0.0855
  0
LINE
  5
807
330
17
100
AcDbEntity
  8
DASHED
100
AcDbLine
 10
1.141124465553805
 20
-2.64592377807722
 30
0.0
 11
-0.1713755344461916
 21
-2.64592377807722
 31
0.0
  0
LINE
  5
808
330
17
100
AcDbEntity
  8
DASHED
100
AcDbLine
 10
1.141124465553805
 20
-3.833423778077071
 30
0.0
 11
-0.1713755344461916
 21
-3.833423778077071
 31
0.0
  0
LINE
  5
809
330
17
100
AcDbEntity
  8
DASHED
100
AcDbLine
 10
1.141124465553805
 20
-3.395923778077092
 30
0.0
 11
-0.1713755344461916
 21
-3.395923778077092
 31
0.0
  0
LINE
  5
80A
330
17
100
AcDbEntity
  8
DASHED
100
AcDbLine
 10
1.141124465553805
 20
-3.083423778076943
 30
0.0
 11
-0.1713755344461916
 21
-3.083423778076943
 31
0.0
  0
LINE
  5
80C
330
17
100
AcDbEntity
  8
0
100
AcDbLine
 10
-0.6713755344461934
 20
-3.989723778077087
 30
0.0
 11
-0.1713755344461916
 21
-3.989723778077087
 31
0.0
  0
CIRCLE
  5
80E
330
17
100
AcDbEntity
  8
0
100
AcDbCircle
 10
-1.296375534446188
 20
-2.864673778077085
 30
0.0
 40
0.0855
  0
LINE
  5
813
330
17
100
AcDbEntity
  8
0
100
AcDbLine
 10
1.985124465554311
 20
-2.333473778077087
 30
0.0
 11
1.985124465554311
 21
-2.204473778077075
 31
0.0
  0
LINE
  5
814
330
17
100
AcDbEntity
  8
0
100
AcDbLine
 10
2.172124465553285
 20
-2.333473778077087
 30
0.0
 11
2.172124465553285
 21
-1.965673778077084
 31
0.0
  0
ARC
  5
815
330
17
100
AcDbEntity
  8
DASHED
100
AcDbCircle
 10
1.141124465553805
 20
-3.614673778077085
 30
0.0
 40
0.21875
100
AcDbArc
 50
270.0
 51
90.0
  0
ARC
  5
816
330
17
100
AcDbEntity
  8
DASHED
100
AcDbCircle
 10
1.141124465553805
 20
-2.864673778077085
 30
0.0
 40
0.21875
100
AcDbArc
 50
270.0
 51
90.0
  0
ARC
  5
817
330
17
100
AcDbEntity
  8
0
100
AcDbCircle
 10
2.078624465553798
 20
-2.333473778077087
 30
0.0
 40
0.0935
100
AcDbArc
 50
179.9999001805695
 51
0.0000998194305166
  0
LINE
  5
818
330
17
100
AcDbEntity
  8
0
100
AcDbLine
 10
2.30432446555329
 20
-1.833473778077087
 30
0.0
 11
2.172124465553285
 21
-1.965673778077084
 31
0.0
  0
ARC
  5
81A
330
17
100
AcDbEntity
  8
0
100
AcDbCircle
 10
2.578624465553798
 20
-1.833473778077087
 30
0.0
 40
0.0935
100
AcDbArc
 50
180.0
 51
270.0
  0
LINE
  5
81B
330
17
100
AcDbEntity
  8
0
100
AcDbLine
 10
2.30432446555329
 20
-1.833473778077087
 30
0.0
 11
2.485124465554076
 21
-1.833473778077087
 31
0.0
  0
LINE
  5
81C
330
17
100
AcDbEntity
  8
0
100
AcDbLine
 10
2.578624465553805
 20
-1.926973778077088
 30
0.0
 11
2.707624465553796
 21
-1.926973778077088
 31
0.0
  0
LINE
  5
81D
330
17
100
AcDbEntity
  8
0
100
AcDbLine
 10
2.578624465553791
 20
-1.833473778077087
 30
0.0
 11
2.707624465553788
 21
-1.833473778077087
 31
0.0
  0
LINE
  5
829
330
17
100
AcDbEntity
  8
0
100
AcDbLine
 10
-3.007830404145761
 20
6.616025249152276
 30
0.0
 11
-3.007830404145761
 21
0.5642792415624882
 31
0.0
  0
LINE
  5
82A
330
17
100
AcDbEntity
  8
0
100
AcDbLine
 10
2.679669595854243
 20
0.5642792415624882
 30
0.0
 11
2.679669595854243
 21
6.616025249152276
 31
0.0
  0
LINE
  5
82B
330
17
100
AcDbEntity
  8
0
100
AcDbLine
 10
2.585919595854245
 20
0.6620292415624896
 30
0.0
 11
2.585919595854243
 21
6.616025249152276
 31
0.0
  0
LINE
  5
82C
330
17
100
AcDbEntity
  8
0
100
AcDbLine
 10
-2.914080404145761
 20
6.616025249152276
 30
0.0
 11
-2.914080404145761
 21
0.6267792415624882
 31
0.0
  0
LINE
  5
82D
330
17
100
AcDbEntity
  8
HIDDEN
100
AcDbLine
 10
-1.630440423674813
 20
0.6620292415624896
 30
0.0
 11
1.296172815939997
 21
0.6620292415624896
 31
0.0
  0
LINE
  5
82E
330
17
100
AcDbEntity
  8
HIDDEN
100
AcDbLine
 10
-2.195675534446703
 20
0.9278712265012601
 30
0.0
 11
1.85292446555431
 21
0.9278712265012601
 31
0.0
  0
LINE
  5
82F
330
17
100
AcDbEntity
  8
DASHED
100
AcDbLine
 10
-2.327875534446706
 20
0.53302924156249
 30
0.0
 11
1.985124465554314
 21
0.5330292415624882
 31
0.0
  0
LINE
  5
830
330
17
100
AcDbEntity
  8
0
100
AcDbLine
 10
-2.882830404145761
 20
0.4392792415624882
 30
0.0
 11
1.989012704854243
 21
0.4392792415624882
 31
0.0
  0
LINE
  5
833
330
17
100
AcDbEntity
  8
0
100
AcDbLine
 10
-2.514875534445682
 20
0.4392792415624918
 30
0.0
 11
-2.514875534445682
 21
0.5330292415624882
 31
0.0
  0
LINE
  5
834
330
17
100
AcDbEntity
  8
0
100
AcDbLine
 10
-2.327875534446708
 20
0.4392792415624882
 30
0.0
 11
-2.327875534446706
 21
0.5330292415624882
 31
0.0
  0
LINE
  5
835
330
17
100
AcDbEntity
  8
0
100
AcDbLine
 10
-2.827311054493787
 20
0.4392792415624918
 30
0.0
 11
-2.827311054493787
 21
0.5332894933505372
 31
0.0
  0
ARC
  5
836
330
17
100
AcDbEntity
  8
0
100
AcDbCircle
 10
-2.882830404145761
 20
0.5642792415624882
 30
0.0
 40
0.125
100
AcDbArc
 50
180.0
 51
270.0
  0
ARC
  5
837
330
17
100
AcDbEntity
  8
0
100
AcDbCircle
 10
-2.820330404145761
 20
0.6267792415624882
 30
0.0
 40
0.09375
100
AcDbArc
 50
180.0
 51
270.0
  0
LINE
  5
842
330
17
100
AcDbEntity
  8
0
100
AcDbLine
 10
-2.820330404145761
 20
0.5330292415624882
 30
0.0
 11
-2.327875534446706
 21
0.53302924156249
 31
0.0
  0
LINE
  5
843
330
17
100
AcDbEntity
  8
0
100
AcDbLine
 10
-2.91375431620116
 20
0.6189667415624811
 30
0.0
 11
-3.007830404145761
 21
0.6189667415624811
 31
0.0
  0
LINE
  5
844
330
17
100
AcDbEntity
  8
HIDDEN
100
AcDbLine
 10
-2.04617553444594
 20
0.9278712265012601
 30
0.0
 11
-2.195675534446703
 21
0.9278712265012601
 31
0.0
  0
LINE
  5
845
330
17
100
AcDbEntity
  8
HIDDEN
100
AcDbLine
 10
-2.327875534446701
 20
0.7956712265012627
 30
0.0
 11
-2.195675534446703
 21
0.9278712265012601
 31
0.0
  0
ARC
  5
846
330
17
100
AcDbEntity
  8
HIDDEN
100
AcDbCircle
 10
-1.630440423674813
 20
0.5995292415624896
 30
0.0
 40
0.0625
100
AcDbArc
 50
90.0
 51
179.9999999999996
  0
LINE
  5
847
330
17
100
AcDbEntity
  8
HIDDEN
100
AcDbLine
 10
-1.692940423674816
 20
0.5330292415624882
 30
0.0
 11
-1.692940423674813
 21
0.5995292415624896
 31
0.0
  0
LINE
  5
849
330
17
100
AcDbEntity
  8
0
100
AcDbLine
 10
2.172124465553285
 20
0.4392792415624882
 30
0.0
 11
2.172124465553289
 21
0.5330292415624882
 31
0.0
  0
LINE
  5
84A
330
17
100
AcDbEntity
  8
0
100
AcDbLine
 10
1.985124465554314
 20
0.4392792415624882
 30
0.0
 11
1.985124465554314
 21
0.5330292415624882
 31
0.0
  0
LINE
  5
84B
330
17
100
AcDbEntity
  8
0
100
AcDbLine
 10
2.500896684763347
 20
0.4392792415624882
 30
0.0
 11
2.500896684763344
 21
0.5334363231423289
 31
0.0
  0
ARC
  5
84C
330
17
100
AcDbEntity
  8
0
100
AcDbCircle
 10
2.554669595854243
 20
0.5642792415624882
 30
0.0
 40
0.125
100
AcDbArc
 50
270.0
 51
0.0
  0
LINE
  5
84D
330
17
100
AcDbEntity
  8
0
100
AcDbLine
 10
1.989012704854243
 20
0.4392792415624882
 30
0.0
 11
2.554669595854243
 21
0.4392792415624882
 31
0.0
  0
LINE
  5
84F
330
17
100
AcDbEntity
  8
0
100
AcDbLine
 10
1.985124465554314
 20
0.53302924156249
 30
0.0
 11
2.456919595854245
 21
0.53302924156249
 31
0.0
  0
ARC
  5
850
330
17
100
AcDbEntity
  8
HIDDEN
100
AcDbCircle
 10
1.296172815939997
 20
0.5995292415624896
 30
0.0
 40
0.0625
100
AcDbArc
 50
0.0
 51
90.0
  0
LINE
  5
851
330
17
100
AcDbEntity
  8
HIDDEN
100
AcDbLine
 10
1.358672815939993
 20
0.5330292415624882
 30
0.0
 11
1.358672815939997
 21
0.5995292415624896
 31
0.0
  0
LINE
  5
852
330
17
100
AcDbEntity
  8
HIDDEN
100
AcDbLine
 10
1.85292446555431
 20
0.9278712265012601
 30
0.0
 11
1.985124465554314
 21
0.7956712265012627
 31
0.0
  0
LINE
  5
854
330
17
100
AcDbEntity
  8
0
100
AcDbLine
 10
2.678801410936394
 20
0.6189667415624811
 30
0.0
 11
2.584725322991794
 21
0.6189667415624811
 31
0.0
  0
LINE
  5
85B
330
17
100
AcDbEntity
  8
0
100
AcDbLine
 10
-2.914080404145761
 20
6.616025249152276
 30
0.0
 11
-3.007830404145761
 21
6.616025249152276
 31
0.0
  0
LINE
  5
85F
330
17
100
AcDbEntity
  8
0
100
AcDbLine
 10
2.679669595854243
 20
6.616025249152276
 30
0.0
 11
2.585919595854243
 21
6.616025249152276
 31
0.0
  0
LINE
  5
863
330
17
100
AcDbEntity
  8
0
100
AcDbLine
 10
6.954956410191354
 20
0.6243683774096773
 30
0.0
 11
6.954956410191354
 21
6.343368377409963
 31
0.0
  0
LINE
  5
864
330
17
100
AcDbEntity
  8
0
100
AcDbLine
 10
11.95495641019135
 20
6.343368377409963
 30
0.0
 11
11.95495641019135
 21
0.6243683774105868
 31
0.0
  0
LINE
  5
865
330
17
100
AcDbEntity
  8
HIDDEN
100
AcDbLine
 10
7.843450454487378
 20
0.6598683774099605
 30
0.0
 11
8.15595045448709
 21
0.659868377409957
 31
0.0
  0
LINE
  5
866
330
17
100
AcDbEntity
  8
0
100
AcDbLine
 10
6.954956410191354
 20
0.4018683774099578
 30
0.0
 11
11.95495641019135
 21
0.401868377409965
 31
0.0
  0
LINE
  5
867
330
17
100
AcDbEntity
  8
0
100
AcDbLine
 10
6.954956410191354
 20
0.5308683774099556
 30
0.0
 11
7.048456410191353
 21
0.5308683774099556
 31
0.0
  0
LINE
  5
86A
330
17
100
AcDbEntity
  8
0
100
AcDbLine
 10
6.954956410191354
 20
0.5308683774099556
 30
0.0
 11
6.954956410191354
 21
0.4018683774099578
 31
0.0
  0
LINE
  5
86E
330
17
100
AcDbEntity
  8
HIDDEN
100
AcDbLine
 10
7.339500454487265
 20
0.7956712265012627
 30
0.0
 11
7.468500454487266
 21
0.7956712265012627
 31
0.0
  0
LINE
  5
86F
330
17
100
AcDbEntity
  8
HIDDEN
100
AcDbLine
 10
7.339500454487268
 20
0.9278712265012601
 30
0.0
 11
7.468500454487266
 21
0.9278712265012601
 31
0.0
  0
ARC
  5
870
330
17
100
AcDbEntity
  8
0
100
AcDbCircle
 10
6.954956410191354
 20
0.5308683774099556
 30
0.0
 40
0.0935
100
AcDbArc
 50
0.0
 51
90.0
  0
LINE
  5
871
330
17
100
AcDbEntity
  8
HIDDEN
100
AcDbLine
 10
7.339500454487268
 20
0.9278712265012636
 30
0.0
 11
7.339500454487261
 21
0.5308683774099556
 31
0.0
  0
LINE
  5
872
330
17
100
AcDbEntity
  8
HIDDEN
100
AcDbLine
 10
7.468500454487266
 20
0.9278712265012636
 30
0.0
 11
7.468500454487259
 21
0.5308683774099556
 31
0.0
  0
ARC
  5
873
330
17
100
AcDbEntity
  8
HIDDEN
100
AcDbCircle
 10
7.843450454487378
 20
0.5973683774099605
 30
0.0
 40
0.0625
100
AcDbArc
 50
90.0
 51
180.0
  0
LINE
  5
874
330
17
100
AcDbEntity
  8
HIDDEN
100
AcDbLine
 10
7.780950454487378
 20
0.5973683774099605
 30
0.0
 11
7.780950454487378
 21
0.5308683774099592
 31
0.0
  0
CIRCLE
  5
876
330
17
100
AcDbEntity
  8
0
100
AcDbCircle
 10
11.58106108435167
 20
3.468368377409963
 30
0.0
 40
0.0855
  0
LINE
  5
87E
330
17
100
AcDbEntity
  8
0
100
AcDbLine
 10
11.95495641019135
 20
0.5308683774099627
 30
0.0
 11
11.95495641019135
 21
0.401868377409965
 31
0.0
  0
ARC
  5
881
330
17
100
AcDbEntity
  8
HIDDEN
100
AcDbCircle
 10
9.312250454487359
 20
0.5973683774099641
 30
0.0
 40
0.0625
100
AcDbArc
 50
90.0
 51
180.0
  0
LINE
  5
882
330
17
100
AcDbEntity
  8
HIDDEN
100
AcDbLine
 10
8.593450454487243
 20
0.659868377409957
 30
0.0
 11
8.905950454487222
 21
0.6598683774099605
 31
0.0
  0
ARC
  5
883
330
17
100
AcDbEntity
  8
HIDDEN
100
AcDbCircle
 10
8.15595045448709
 20
0.597368377409957
 30
0.0
 40
0.0625
100
AcDbArc
 50
0.0
 51
89.99999999999972
  0
LINE
  5
884
330
17
100
AcDbEntity
  8
HIDDEN
100
AcDbLine
 10
8.21845045448709
 20
0.597368377409957
 30
0.0
 11
8.21845045448709
 21
0.5308683774099592
 31
0.0
  0
ARC
  5
885
330
17
100
AcDbEntity
  8
HIDDEN
100
AcDbCircle
 10
8.593450454487243
 20
0.597368377409957
 30
0.0
 40
0.0625
100
AcDbArc
 50
90.00000000000021
 51
180.0
  0
LINE
  5
886
330
17
100
AcDbEntity
  8
HIDDEN
100
AcDbLine
 10
8.530950454487243
 20
0.597368377409957
 30
0.0
 11
8.530950454487243
 21
0.5308683774099592
 31
0.0
  0
ARC
  5
887
330
17
100
AcDbEntity
  8
HIDDEN
100
AcDbCircle
 10
8.905950454487222
 20
0.5973683774099605
 30
0.0
 40
0.0625
100
AcDbArc
 50
0.0
 51
90.0000000000005
  0
LINE
  5
888
330
17
100
AcDbEntity
  8
HIDDEN
100
AcDbLine
 10
8.968450454487222
 20
0.5973683774099605
 30
0.0
 11
8.968450454487222
 21
0.5308683774099627
 31
0.0
  0
LINE
  5
889
330
17
100
AcDbEntity
  8
HIDDEN
100
AcDbLine
 10
9.249750454487359
 20
0.5973683774099641
 30
0.0
 11
9.249750454487362
 21
0.5308683774099627
 31
0.0
  0
LINE
  5
88A
330
17
100
AcDbEntity
  8
HIDDEN
100
AcDbLine
 10
9.312250454487359
 20
0.6598683774099641
 30
0.0
 11
9.62475045448711
 21
0.6598683774099641
 31
0.0
  0
ARC
  5
88B
330
17
100
AcDbEntity
  8
HIDDEN
100
AcDbCircle
 10
9.62475045448711
 20
0.5973683774099641
 30
0.0
 40
0.0625
100
AcDbArc
 50
0.0
 51
90.0
  0
LINE
  5
88C
330
17
100
AcDbEntity
  8
HIDDEN
100
AcDbLine
 10
9.68725045448711
 20
0.5973683774099641
 30
0.0
 11
9.68725045448711
 21
0.5308683774099627
 31
0.0
  0
LINE
  5
88D
330
17
100
AcDbEntity
  8
HIDDEN
100
AcDbLine
 10
10.03105045448725
 20
0.6598683774099641
 30
0.0
 11
10.34355045448723
 21
0.6598683774099641
 31
0.0
  0
ARC
  5
88E
330
17
100
AcDbEntity
  8
HIDDEN
100
AcDbCircle
 10
10.03105045448725
 20
0.5973683774099641
 30
0.0
 40
0.0625
100
AcDbArc
 50
90.0
 51
180.0
  0
LINE
  5
88F
330
17
100
AcDbEntity
  8
HIDDEN
100
AcDbLine
 10
9.96855045448725
 20
0.5973683774099641
 30
0.0
 11
9.96855045448725
 21
0.5308683774099663
 31
0.0
  0
ARC
  5
890
330
17
100
AcDbEntity
  8
HIDDEN
100
AcDbCircle
 10
10.34355045448723
 20
0.5973683774099641
 30
0.0
 40
0.0625
100
AcDbArc
 50
0.0
 51
90.0000000000003
  0
LINE
  5
891
330
17
100
AcDbEntity
  8
HIDDEN
100
AcDbLine
 10
10.40605045448723
 20
0.5973683774099641
 30
0.0
 11
10.40605045448723
 21
0.5308683774099663
 31
0.0
  0
CIRCLE
  5
892
330
17
100
AcDbEntity
  8
0
100
AcDbCircle
 10
9.454956410191354
 20
3.280868377409956
 30
0.0
 40
0.3435
  0
CIRCLE
  5
895
330
17
100
AcDbEntity
  8
0
100
AcDbCircle
 10
8.584214883920975
 20
2.718368377409966
 30
0.0
 40
0.0855
  0
ARC
  5
896
330
17
100
AcDbEntity
  8
HIDDEN
100
AcDbCircle
 10
11.0935504544871
 20
0.5973683774099676
 30
0.0
 40
0.0625
100
AcDbArc
 50
359.9999999999984
 51
90.0000000000003
  0
LINE
  5
897
330
17
100
AcDbEntity
  8
HIDDEN
100
AcDbLine
 10
10.78105045448739
 20
0.6598683774099641
 30
0.0
 11
11.0935504544871
 21
0.6598683774099676
 31
0.0
  0
ARC
  5
898
330
17
100
AcDbEntity
  8
HIDDEN
100
AcDbCircle
 10
10.78105045448739
 20
0.5973683774099641
 30
0.0
 40
0.0625
100
AcDbArc
 50
90.00000000000021
 51
180.0
  0
LINE
  5
899
330
17
100
AcDbEntity
  8
HIDDEN
100
AcDbLine
 10
10.71855045448739
 20
0.5973683774099641
 30
0.0
 11
10.71855045448739
 21
0.5308683774099663
 31
0.0
  0
LINE
  5
89A
330
17
100
AcDbEntity
  8
HIDDEN
100
AcDbLine
 10
11.1560504544871
 20
0.5973683774099676
 30
0.0
 11
11.15605045448709
 21
0.5308683774099663
 31
0.0
  0
LINE
  5
89B
330
17
100
AcDbEntity
  8
HIDDEN
100
AcDbLine
 10
11.46850045448723
 20
0.7956712265012627
 30
0.0
 11
11.59750045448723
 21
0.7956712265012627
 31
0.0
  0
LINE
  5
89C
330
17
100
AcDbEntity
  8
HIDDEN
100
AcDbLine
 10
11.46850045448723
 20
0.9278712265012601
 30
0.0
 11
11.59750045448723
 21
0.9278712265012601
 31
0.0
  0
LINE
  5
89D
330
17
100
AcDbEntity
  8
HIDDEN
100
AcDbLine
 10
11.59750045448723
 20
0.9278712265012601
 30
0.0
 11
11.59750045448723
 21
0.5308683774099698
 31
0.0
  0
LINE
  5
89E
330
17
100
AcDbEntity
  8
HIDDEN
100
AcDbLine
 10
11.46850045448723
 20
0.9278712265012601
 30
0.0
 11
11.46850045448723
 21
0.5308683774099698
 31
0.0
  0
ARC
  5
89F
330
17
100
AcDbEntity
  8
0
100
AcDbCircle
 10
11.95495641019135
 20
0.5308683774099627
 30
0.0
 40
0.0935
100
AcDbArc
 50
90.0
 51
179.9999999999957
  0
LINE
  5
8A6
330
17
100
AcDbEntity
  8
0
100
AcDbLine
 10
7.204956410191354
 20
6.593368377409963
 30
0.0
 11
11.70495641019135
 21
6.593368377409963
 31
0.0
  0
CIRCLE
  5
8C0
330
17
100
AcDbEntity
  8
0
100
AcDbCircle
 10
11.58106108435167
 20
6.218368377409963
 30
0.0
 40
0.0855
  0
LINE
  5
8C7
330
17
100
AcDbEntity
  8
0
100
AcDbLine
 10
7.204956410191354
 20
6.593368377409949
 30
0.0
 11
6.954956410191354
 21
6.343368377409949
 31
0.0
  0
CIRCLE
  5
8DF
330
17
100
AcDbEntity
  8
0
100
AcDbCircle
 10
8.579956410191343
 20
6.218368377409949
 30
0.0
 40
0.0855
  0
CIRCLE
  5
8E0
330
17
100
AcDbEntity
  8
0
100
AcDbCircle
 10
9.454956410191354
 20
5.280868377409963
 30
0.0
 40
0.3435
  0
CIRCLE
  5
8E2
330
17
100
AcDbEntity
  8
0
100
AcDbCircle
 10
7.327961117499193
 20
4.71836837740997
 30
0.0
 40
0.0855
  0
CIRCLE
  5
8E4
330
17
100
AcDbEntity
  8
0
100
AcDbCircle
 10
10.32995641019136
 20
4.718368377409949
 30
0.0
 40
0.0855
  0
LINE
  5
8E7
330
17
100
AcDbEntity
  8
0
100
AcDbLine
 10
11.95495641019135
 20
6.343368377409963
 30
0.0
 11
11.70495641019135
 21
6.593368377409963
 31
0.0
  0
LINE
  5
933
330
17
100
AcDbEntity
  8
0
100
AcDbLine
 10
1.141124465553805
 20
-2.77492377807722
 30
0.0
 11
-0.1713755344461916
 21
-2.77492377807722
 31
0.0
  0
LINE
  5
934
330
17
100
AcDbEntity
  8
0
100
AcDbLine
 10
1.141124465553805
 20
-2.954423778076944
 30
0.0
 11
-0.1713755344461916
 21
-2.954423778076944
 31
0.0
  0
ARC
  5
935
330
17
100
AcDbEntity
  8
0
100
AcDbCircle
 10
1.141124465553805
 20
-2.864673778077085
 30
0.0
 40
0.08975
100
AcDbArc
 50
270.0
 51
90.0
  0
LINE
  5
936
330
17
100
AcDbEntity
  8
0
100
AcDbLine
 10
-1.483875534446195
 20
-2.77492377807722
 30
0.0
 11
-0.1713755344461987
 21
-2.77492377807722
 31
0.0
  0
LINE
  5
937
330
17
100
AcDbEntity
  8
0
100
AcDbLine
 10
-1.483875534446195
 20
-2.954423778076944
 30
0.0
 11
-0.1713755344461987
 21
-2.954423778076944
 31
0.0
  0
ARC
  5
938
330
17
100
AcDbEntity
  8
0
100
AcDbCircle
 10
-1.483875534446195
 20
-2.864673778077085
 30
0.0
 40
0.08975
100
AcDbArc
 50
90.00000000000011
 51
270.0000000000002
  0
ARC
  5
939
330
17
100
AcDbEntity
  8
0
100
AcDbCircle
 10
-1.483875534446195
 20
-3.614673778077085
 30
0.0
 40
0.08975
100
AcDbArc
 50
90.00000000000011
 51
270.0000000000002
  0
LINE
  5
93A
330
17
100
AcDbEntity
  8
0
100
AcDbLine
 10
-1.483875534446195
 20
-3.524923778077092
 30
0.0
 11
-0.1713755344461987
 21
-3.524923778077092
 31
0.0
  0
LINE
  5
93B
330
17
100
AcDbEntity
  8
0
100
AcDbLine
 10
-1.483875534446195
 20
-3.704423778077072
 30
0.0
 11
-0.1713755344461916
 21
-3.704423778077072
 31
0.0
  0
LINE
  5
93C
330
17
100
AcDbEntity
  8
0
100
AcDbLine
 10
1.141124465553805
 20
-3.524923778077092
 30
0.0
 11
-0.1713755344461916
 21
-3.524923778077092
 31
0.0
  0
LINE
  5
93D
330
17
100
AcDbEntity
  8
0
100
AcDbLine
 10
1.141124465553805
 20
-3.704423778077072
 30
0.0
 11
-0.1713755344461916
 21
-3.704423778077072
 31
0.0
  0
ARC
  5
93E
330
17
100
AcDbEntity
  8
0
100
AcDbCircle
 10
1.141124465553805
 20
-3.614673778077085
 30
0.0
 40
0.08975
100
AcDbArc
 50
270.0
 51
90.0
  0
LINE
  5
93F
330
17
100
AcDbEntity
  8
0
100
AcDbLine
 10
1.141124465553805
 20
-4.243723778077214
 30
0.0
 11
0.1658082498898015
 21
-4.243723778077214
 31
0.0
  0
ARC
  5
940
330
17
100
AcDbEntity
  8
0
100
AcDbCircle
 10
1.141124465553805
 20
-4.333473778077087
 30
0.0
 40
0.08975
100
AcDbArc
 50
270.0
 51
90.0
  0
LINE
  5
941
330
17
100
AcDbEntity
  8
0
100
AcDbLine
 10
1.141124465553805
 20
-4.423223778076952
 30
0.0
 11
0.24868953036456
 21
-4.423223778076952
 31
0.0
  0
LINE
  5
942
330
17
100
AcDbEntity
  8
0
100
AcDbLine
 10
-1.483875534446195
 20
-4.423223778076952
 30
0.0
 11
-1.003202296477263
 21
-4.423223778076952
 31
0.0
  0
ARC
  5
943
330
17
100
AcDbEntity
  8
0
100
AcDbCircle
 10
-1.483875534446195
 20
-4.333473778077087
 30
0.0
 40
0.08975
100
AcDbArc
 50
90.00000000000011
 51
270.0000000000002
  0
LINE
  5
944
330
17
100
AcDbEntity
  8
0
100
AcDbLine
 10
-1.483875534446195
 20
-4.243723778077214
 30
0.0
 11
-1.003202296477261
 21
-4.243723778077214
 31
0.0
  0
LINE
  5
945
330
17
100
AcDbEntity
  8
0
100
AcDbLine
 10
-1.483875534446195
 20
-4.962523778077102
 30
0.0
 11
-0.2591979158255446
 21
-4.962523778077102
 31
0.0
  0
ARC
  5
946
330
17
100
AcDbEntity
  8
0
100
AcDbCircle
 10
-1.483875534446195
 20
-5.052273778077096
 30
0.0
 40
0.08975
100
AcDbArc
 50
89.99999999999986
 51
269.9999999999999
  0
LINE
  5
947
330
17
100
AcDbEntity
  8
0
100
AcDbLine
 10
-1.483875534446195
 20
-5.142023778077082
 30
0.0
 11
-0.1713755344461987
 21
-5.142023778077082
 31
0.0
  0
LINE
  5
948
330
17
100
AcDbEntity
  8
0
100
AcDbLine
 10
1.141124465553805
 20
-5.142023778077082
 30
0.0
 11
0.1149528538319355
 21
-5.142023778077082
 31
0.0
  0
ARC
  5
949
330
17
100
AcDbEntity
  8
0
100
AcDbCircle
 10
1.141124465553805
 20
-5.052273778077096
 30
0.0
 40
0.08975
100
AcDbArc
 50
270.0
 51
90.00000000000003
  0
LINE
  5
94A
330
17
100
AcDbEntity
  8
0
100
AcDbLine
 10
1.141124465553807
 20
-4.962523778077102
 30
0.0
 11
0.3890034199570254
 21
-4.962523778077109
 31
0.0
  0
LINE
  5
94B
330
17
100
AcDbEntity
  8
0
100
AcDbLine
 10
1.141124465553805
 20
-5.712523778077237
 30
0.0
 11
-0.1713755344461916
 21
-5.712523778077237
 31
0.0
  0
ARC
  5
94C
330
17
100
AcDbEntity
  8
0
100
AcDbCircle
 10
1.141124465553805
 20
-5.802273778077096
 30
0.0
 40
0.08975
100
AcDbArc
 50
270.0
 51
90.00000000000003
  0
LINE
  5
94D
330
17
100
AcDbEntity
  8
0
100
AcDbLine
 10
1.141124465553805
 20
-5.892023778076954
 30
0.0
 11
-0.1713755344461925
 21
-5.892023778076961
 31
0.0
  0
LINE
  5
94E
330
17
100
AcDbEntity
  8
0
100
AcDbLine
 10
-1.483875534446195
 20
-5.892023778076954
 30
0.0
 11
-0.1713755344461978
 21
-5.892023778076961
 31
0.0
  0
LINE
  5
94F
330
17
100
AcDbEntity
  8
0
100
AcDbLine
 10
-1.483875534446195
 20
-5.712523778077237
 30
0.0
 11
-0.1713755344461987
 21
-5.712523778077237
 31
0.0
  0
ARC
  5
950
330
17
100
AcDbEntity
  8
0
100
AcDbCircle
 10
-1.483875534446195
 20
-5.802273778077096
 30
0.0
 40
0.08975
100
AcDbArc
 50
89.99999999999986
 51
269.9999999999999
  0
LINE
  5
951
330
17
100
AcDbEntity
  8
DASHED
100
AcDbLine
 10
7.048456410191353
 20
0.5308683774099556
 30
0.0
 11
11.86145641019136
 21
0.5308683774099698
 31
0.0
  0
LINE
  5
952
330
17
100
AcDbEntity
  8
0
100
AcDbLine
 10
7.048456410191353
 20
0.5308683774099556
 30
0.0
 11
7.048456410191353
 21
0.4018683774099578
 31
0.0
  0
LINE
  5
953
330
17
100
AcDbEntity
  8
0
100
AcDbLine
 10
11.86145641019136
 20
0.5308683774099698
 30
0.0
 11
11.95495641019135
 21
0.5308683774099698
 31
0.0
  0
LINE
  5
954
330
17
100
AcDbEntity
  8
0
100
AcDbLine
 10
11.86145641019136
 20
0.5308683774099627
 30
0.0
 11
11.86145641019136
 21
0.401868377409965
 31
0.0
  0
LINE
  5
955
330
17
100
AcDbEntity
  8
0
100
AcDbLine
 10
11.95495641019135
 20
1.38611364575784
 30
0.0
 11
11.99076153549201
 21
1.386113645757838
 31
0.0
  0
LINE
  5
956
330
17
100
AcDbEntity
  8
HIDDEN
100
AcDbLine
 10
11.95495641019135
 20
1.437569879803711
 30
0.0
 11
11.89263593882998
 21
1.437569879803711
 31
0.0
  0
LINE
  5
957
330
17
100
AcDbEntity
  8
HIDDEN
100
AcDbLine
 10
11.95495641019135
 20
1.500069879803711
 30
0.0
 11
6.938635938830014
 21
1.500069879803707
 31
0.0
  0
LINE
  5
958
330
17
100
AcDbEntity
  8
HIDDEN
100
AcDbLine
 10
1.985124465554314
 20
0.5330292415624882
 30
0.0
 11
1.985124465554314
 21
0.7956712265012627
 31
0.0
  0
LINE
  5
959
330
17
100
AcDbEntity
  8
HIDDEN
100
AcDbLine
 10
-2.327875534446706
 20
0.5330292415624882
 30
0.0
 11
-2.327875534446701
 21
0.7956712265012627
 31
0.0
  0
ARC
  5
95A
330
17
100
AcDbEntity
  8
0
100
AcDbCircle
 10
2.456919595854245
 20
0.6620292415624896
 30
0.0
 40
0.129
100
AcDbArc
 50
269.9999999999998
 51
0.0
  0
LINE
  5
95B
330
17
100
AcDbEntity
  8
0
100
AcDbLine
 10
2.520364404856769
 20
0.5373203022234154
 30
0.0
 11
-2.729807146102981
 21
0.5373203022234154
 31
0.0
  0
LINE
  5
97F
330
17
100
AcDbEntity
  8
0
100
AcDbLine
 10
-0.0221039227243107
 20
-5.142023778077082
 30
0.0
 11
-0.1713755344461916
 21
-5.142023778077082
 31
0.0
  0
LINE
  5
980
330
17
100
AcDbEntity
  8
HIDDEN
100
AcDbLine
 10
-2.921375534446202
 20
-1.926973778077088
 30
0.0
 11
-2.921375534446195
 21
-6.739973778077079
 31
0.0
  0
LINE
  5
981
330
17
100
AcDbEntity
  8
0
100
AcDbLine
 10
-2.921375534446195
 20
-6.739973778077079
 30
0.0
 11
-2.921375534446195
 21
-6.833473778077092
 31
0.0
  0
LINE
  5
982
330
17
100
AcDbEntity
  8
HIDDEN
100
AcDbLine
 10
2.578624465553798
 20
-1.926973778077088
 30
0.0
 11
2.578624465553805
 21
-6.739973778077086
 31
0.0
  0
LINE
  5
983
330
17
100
AcDbEntity
  8
0
100
AcDbLine
 10
2.578624465553805
 20
-6.739973778077086
 30
0.0
 11
2.578624465553805
 21
-6.833473778077085
 31
0.0
  0
LINE
  5
BCE
330
17
100
AcDbEntity
  8
0
100
AcDbLine
 10
2.679669595854243
 20
6.218368377409963
 30
0.0
 11
2.585919595854243
 21
6.218368377409963
 31
0.0
  0
LINE
  5
BCF
330
17
100
AcDbEntity
  8
0
100
AcDbLine
 10
-2.914080404145761
 20
6.218368377409963
 30
0.0
 11
-3.007830404145761
 21
6.218368377409963
 31
0.0
  0
TEXT
  5
C4A
330
17
100
AcDbEntity
  8
REV
100
AcDbText
 10
27.2979796048138
 20
5.138102895157769
 30
0.0
 40
0.198
  1

 72
     4
 11
27.2979796048138
 21
5.138102895157769
 31
0.0
100
AcDbText
  0
LINE
  5
CD4
330
17
100
AcDbEntity
  8
HIDDEN
100
AcDbLine
 10
-12.20107868007623
 20
1.437569879803711
 30
0.0
 11
-7.266078680076227
 21
1.437569879803707
 31
0.0
  0
LINE
  5
CD5
330
17
100
AcDbEntity
  8
0
100
AcDbLine
 10
-12.29507868007623
 20
1.500069879803711
 30
0.0
 11
-12.26339915143756
 21
1.500069879803711
 31
0.0
  0
ARC
  5
CD6
330
17
100
AcDbEntity
  8
0
100
AcDbCircle
 10
-7.247078680076221
 20
1.330069879803709
 30
0.0
 40
0.17
100
AcDbArc
 50
0.000000000000007
 51
90.0
  0
ARC
  5
CD7
330
17
100
AcDbEntity
  8
0
100
AcDbCircle
 10
-7.266078680076223
 20
1.347569879803707
 30
0.0
 40
0.09
100
AcDbArc
 50
359.9999999999999
 51
89.99999999999999
  0
LINE
  5
CD8
330
17
100
AcDbEntity
  8
HIDDEN
100
AcDbLine
 10
-7.34107868007623
 20
0.5325698798037095
 30
0.0
 11
-7.34107868007623
 21
1.437569879803707
 31
0.0
  0
LINE
  5
CD9
330
17
100
AcDbEntity
  8
0
100
AcDbLine
 10
-7.077078680076227
 20
1.330069879803709
 30
0.0
 11
-7.077078680076227
 21
0.532569879803706
 31
0.0
  0
LINE
  5
CDA
330
17
100
AcDbEntity
  8
0
100
AcDbLine
 10
-7.176078680076223
 20
1.347569879803707
 30
0.0
 11
-7.176078680076223
 21
0.532569879803706
 31
0.0
  0
LINE
  5
CDB
330
17
100
AcDbEntity
  8
0
100
AcDbLine
 10
-7.243423831337744
 20
0.5325698798037095
 30
0.0
 11
-7.243423831337736
 21
1.386113645757838
 31
0.0
  0
LINE
  5
CDC
330
17
100
AcDbEntity
  8
0
100
AcDbLine
 10
-7.176078680076223
 20
0.5325698798037095
 30
0.0
 11
-7.077078680076234
 21
0.532569879803706
 31
0.0
  0
LINE
  5
CDD
330
17
100
AcDbEntity
  8
HIDDEN
100
AcDbLine
 10
-7.241367126359002
 20
1.386113645757838
 30
0.0
 11
-7.34107868007623
 21
1.386113645757842
 31
0.0
  0
ARC
  5
CDE
330
17
100
AcDbEntity
  8
HIDDEN
100
AcDbCircle
 10
-7.295285015078797
 20
1.444610155439285
 30
0.0
 40
0.0583872782687024
100
AcDbArc
 50
108.2205934087952
 51
186.9255155361468
  0
POINT
  5
CDF
330
17
100
AcDbEntity
  8
HIDDEN
100
AcDbPoint
 10
-9.653629335247921
 20
0.5043993178581161
 30
0.0
  0
ARC
  5
CE0
330
17
100
AcDbEntity
  8
0
100
AcDbCircle
 10
-12.29507868007623
 20
1.330069879803709
 30
0.0
 40
0.17
100
AcDbArc
 50
89.99999999999999
 51
180.0
  0
LINE
  5
CE1
330
17
100
AcDbEntity
  8
HIDDEN
100
AcDbLine
 10
-12.21324628475608
 20
1.386113645757842
 30
0.0
 11
-12.21324628475608
 21
1.437569879803707
 31
0.0
  0
ARC
  5
CE2
330
17
100
AcDbEntity
  8
0
100
AcDbCircle
 10
-12.27607868007623
 20
1.347569879803711
 30
0.0
 40
0.09
100
AcDbArc
 50
89.99999999999999
 51
180.0
  0
LINE
  5
CE3
330
17
100
AcDbEntity
  8
HIDDEN
100
AcDbLine
 10
-12.21324628475608
 20
1.386113645757842
 30
0.0
 11
-12.26339915143756
 21
1.38611364575784
 31
0.0
  0
LINE
  5
CE4
330
17
100
AcDbEntity
  8
HIDDEN
100
AcDbLine
 10
-12.21324628475608
 20
0.5325698798037095
 30
0.0
 11
-12.21324628475608
 21
1.386113645757842
 31
0.0
  0
LINE
  5
CE5
330
17
100
AcDbEntity
  8
0
100
AcDbLine
 10
-12.29920427673822
 20
0.5325698798037095
 30
0.0
 11
-12.29920427673822
 21
1.386113645757838
 31
0.0
  0
LINE
  5
CE6
330
17
100
AcDbEntity
  8
0
100
AcDbLine
 10
-12.36607868007623
 20
1.347569879803711
 30
0.0
 11
-12.36607868007623
 21
0.532569879803706
 31
0.0
  0
LINE
  5
CE7
330
17
100
AcDbEntity
  8
0
100
AcDbLine
 10
-12.46507868007623
 20
1.330069879803709
 30
0.0
 11
-12.46507868007623
 21
0.532569879803706
 31
0.0
  0
ARC
  5
CE8
330
17
100
AcDbEntity
  8
HIDDEN
100
AcDbCircle
 10
-12.27569028651084
 20
1.442897509875628
 30
0.0
 40
0.062670862426912
100
AcDbArc
 50
355.1234183900344
 51
72.30453645267933
  0
LINE
  5
CE9
330
17
100
AcDbEntity
  8
0
100
AcDbLine
 10
-12.27607868007623
 20
1.437569879803711
 30
0.0
 11
-12.26339915143756
 21
1.437569879803711
 31
0.0
  0
LINE
  5
CEA
330
17
100
AcDbEntity
  8
0
100
AcDbLine
 10
-12.46507868007623
 20
0.532569879803706
 30
0.0
 11
-12.36607868007624
 21
0.5325698798037024
 31
0.0
  0
LINE
  5
CEB
330
17
100
AcDbEntity
  8
0
100
AcDbLine
 10
-7.243423831337744
 20
0.5325698798037095
 30
0.0
 11
-7.266076659973447
 21
0.5325698798037095
 31
0.0
  0
LINE
  5
CEC
330
17
100
AcDbEntity
  8
0
100
AcDbLine
 10
-12.29920427673822
 20
0.5325698798037095
 30
0.0
 11
-12.16991463459353
 21
0.5325698798037095
 31
0.0
  0
LINE
  5
CED
330
17
100
AcDbEntity
  8
0
100
AcDbLine
 10
-7.263399151437561
 20
0.6243683774096773
 30
0.0
 11
-7.263399151437561
 21
6.343368377409963
 31
0.0
  0
LINE
  5
CEE
330
17
100
AcDbEntity
  8
0
100
AcDbLine
 10
-12.26339915143756
 20
6.343368377409963
 30
0.0
 11
-12.26339915143756
 21
0.6243683774105868
 31
0.0
  0
LINE
  5
CEF
330
17
100
AcDbEntity
  8
HIDDEN
100
AcDbLine
 10
-8.151893195733585
 20
0.6598683774099605
 30
0.0
 11
-8.464393195733297
 21
0.659868377409957
 31
0.0
  0
LINE
  5
CF0
330
17
100
AcDbEntity
  8
0
100
AcDbLine
 10
-7.263399151437561
 20
0.4018683774099578
 30
0.0
 11
-12.26339915143756
 21
0.401868377409965
 31
0.0
  0
LINE
  5
CF1
330
17
100
AcDbEntity
  8
0
100
AcDbLine
 10
-7.263399151437561
 20
0.5308683774099556
 30
0.0
 11
-7.35689915143756
 21
0.5308683774099556
 31
0.0
  0
LINE
  5
CF2
330
17
100
AcDbEntity
  8
0
100
AcDbLine
 10
-7.263399151437561
 20
0.5308683774099556
 30
0.0
 11
-7.263399151437561
 21
0.4018683774099578
 31
0.0
  0
LINE
  5
CF3
330
17
100
AcDbEntity
  8
HIDDEN
100
AcDbLine
 10
-7.647943195733472
 20
0.7956712265012627
 30
0.0
 11
-7.776943195733473
 21
0.7956712265012627
 31
0.0
  0
LINE
  5
CF4
330
17
100
AcDbEntity
  8
HIDDEN
100
AcDbLine
 10
-7.647943195733475
 20
0.9278712265012601
 30
0.0
 11
-7.776943195733473
 21
0.9278712265012601
 31
0.0
  0
ARC
  5
CF5
330
17
100
AcDbEntity
  8
0
100
AcDbCircle
 10
-7.263399151437561
 20
0.5308683774099556
 30
0.0
 40
0.0935
100
AcDbArc
 50
90.0
 51
180.0
  0
LINE
  5
CF6
330
17
100
AcDbEntity
  8
HIDDEN
100
AcDbLine
 10
-7.647943195733475
 20
0.9278712265012636
 30
0.0
 11
-7.647943195733468
 21
0.5308683774099556
 31
0.0
  0
LINE
  5
CF7
330
17
100
AcDbEntity
  8
HIDDEN
100
AcDbLine
 10
-7.776943195733473
 20
0.9278712265012636
 30
0.0
 11
-7.776943195733466
 21
0.5308683774099556
 31
0.0
  0
ARC
  5
CF8
330
17
100
AcDbEntity
  8
HIDDEN
100
AcDbCircle
 10
-8.151893195733585
 20
0.5973683774099605
 30
0.0
 40
0.0625
100
AcDbArc
 50
0.000000000000007
 51
90.0
  0
LINE
  5
CF9
330
17
100
AcDbEntity
  8
HIDDEN
100
AcDbLine
 10
-8.089393195733585
 20
0.5973683774099605
 30
0.0
 11
-8.089393195733585
 21
0.5308683774099592
 31
0.0
  0
CIRCLE
  5
CFB
330
17
100
AcDbEntity
  8
0
100
AcDbCircle
 10
-7.636720354901996
 20
3.468368377409963
 30
0.0
 40
0.0855
  0
LINE
  5
CFC
330
17
100
AcDbEntity
  8
0
100
AcDbLine
 10
-12.26339915143756
 20
0.5308683774099627
 30
0.0
 11
-12.26339915143756
 21
0.401868377409965
 31
0.0
  0
ARC
  5
CFD
330
17
100
AcDbEntity
  8
HIDDEN
100
AcDbCircle
 10
-9.620693195733566
 20
0.5973683774099641
 30
0.0
 40
0.0625
100
AcDbArc
 50
0.000000000000007
 51
90.0
  0
LINE
  5
CFE
330
17
100
AcDbEntity
  8
HIDDEN
100
AcDbLine
 10
-8.90189319573345
 20
0.659868377409957
 30
0.0
 11
-9.214393195733429
 21
0.6598683774099605
 31
0.0
  0
ARC
  5
CFF
330
17
100
AcDbEntity
  8
HIDDEN
100
AcDbCircle
 10
-8.464393195733297
 20
0.597368377409957
 30
0.0
 40
0.0625
100
AcDbArc
 50
90.00000000000028
 51
180.0
  0
LINE
  5
D00
330
17
100
AcDbEntity
  8
HIDDEN
100
AcDbLine
 10
-8.526893195733297
 20
0.597368377409957
 30
0.0
 11
-8.526893195733297
 21
0.5308683774099592
 31
0.0
  0
ARC
  5
D01
330
17
100
AcDbEntity
  8
HIDDEN
100
AcDbCircle
 10
-8.90189319573345
 20
0.597368377409957
 30
0.0
 40
0.0625
100
AcDbArc
 50
0.000000000000007
 51
89.9999999999998
  0
LINE
  5
D02
330
17
100
AcDbEntity
  8
HIDDEN
100
AcDbLine
 10
-8.83939319573345
 20
0.597368377409957
 30
0.0
 11
-8.83939319573345
 21
0.5308683774099592
 31
0.0
  0
ARC
  5
D03
330
17
100
AcDbEntity
  8
HIDDEN
100
AcDbCircle
 10
-9.214393195733429
 20
0.5973683774099605
 30
0.0
 40
0.0625
100
AcDbArc
 50
89.99999999999952
 51
180.0
  0
LINE
  5
D04
330
17
100
AcDbEntity
  8
HIDDEN
100
AcDbLine
 10
-9.276893195733429
 20
0.5973683774099605
 30
0.0
 11
-9.276893195733429
 21
0.5308683774099627
 31
0.0
  0
LINE
  5
D05
330
17
100
AcDbEntity
  8
HIDDEN
100
AcDbLine
 10
-9.558193195733566
 20
0.5973683774099641
 30
0.0
 11
-9.558193195733569
 21
0.5308683774099627
 31
0.0
  0
LINE
  5
D06
330
17
100
AcDbEntity
  8
HIDDEN
100
AcDbLine
 10
-9.620693195733566
 20
0.6598683774099641
 30
0.0
 11
-9.933193195733317
 21
0.6598683774099641
 31
0.0
  0
ARC
  5
D07
330
17
100
AcDbEntity
  8
HIDDEN
100
AcDbCircle
 10
-9.933193195733317
 20
0.5973683774099641
 30
0.0
 40
0.0625
100
AcDbArc
 50
90.0
 51
180.0
  0
LINE
  5
D08
330
17
100
AcDbEntity
  8
HIDDEN
100
AcDbLine
 10
-9.995693195733317
 20
0.5973683774099641
 30
0.0
 11
-9.995693195733317
 21
0.5308683774099627
 31
0.0
  0
LINE
  5
D09
330
17
100
AcDbEntity
  8
HIDDEN
100
AcDbLine
 10
-10.33949319573346
 20
0.6598683774099641
 30
0.0
 11
-10.65199319573344
 21
0.6598683774099641
 31
0.0
  0
ARC
  5
D0A
330
17
100
AcDbEntity
  8
HIDDEN
100
AcDbCircle
 10
-10.33949319573346
 20
0.5973683774099641
 30
0.0
 40
0.0625
100
AcDbArc
 50
0.000000000000007
 51
90.0
  0
LINE
  5
D0B
330
17
100
AcDbEntity
  8
HIDDEN
100
AcDbLine
 10
-10.27699319573346
 20
0.5973683774099641
 30
0.0
 11
-10.27699319573346
 21
0.5308683774099663
 31
0.0
  0
ARC
  5
D0C
330
17
100
AcDbEntity
  8
HIDDEN
100
AcDbCircle
 10
-10.65199319573344
 20
0.5973683774099641
 30
0.0
 40
0.0625
100
AcDbArc
 50
89.9999999999997
 51
180.0
  0
LINE
  5
D0D
330
17
100
AcDbEntity
  8
HIDDEN
100
AcDbLine
 10
-10.71449319573344
 20
0.5973683774099641
 30
0.0
 11
-10.71449319573344
 21
0.5308683774099663
 31
0.0
  0
CIRCLE
  5
D0E
330
17
100
AcDbEntity
  8
0
100
AcDbCircle
 10
-9.763399151437561
 20
3.280868377409956
 30
0.0
 40
0.3435
  0
CIRCLE
  5
D10
330
17
100
AcDbEntity
  8
0
100
AcDbCircle
 10
-10.6356354226957
 20
2.718368377409966
 30
0.0
 40
0.0855
  0
ARC
  5
D11
330
17
100
AcDbEntity
  8
HIDDEN
100
AcDbCircle
 10
-11.4019931957333
 20
0.5973683774099676
 30
0.0
 40
0.0625
100
AcDbArc
 50
89.9999999999997
 51
180.0000000000016
  0
LINE
  5
D12
330
17
100
AcDbEntity
  8
HIDDEN
100
AcDbLine
 10
-11.08949319573359
 20
0.6598683774099641
 30
0.0
 11
-11.4019931957333
 21
0.6598683774099676
 31
0.0
  0
ARC
  5
D13
330
17
100
AcDbEntity
  8
HIDDEN
100
AcDbCircle
 10
-11.08949319573359
 20
0.5973683774099641
 30
0.0
 40
0.0625
100
AcDbArc
 50
0.000000000000007
 51
89.9999999999998
  0
LINE
  5
D14
330
17
100
AcDbEntity
  8
HIDDEN
100
AcDbLine
 10
-11.02699319573359
 20
0.5973683774099641
 30
0.0
 11
-11.02699319573359
 21
0.5308683774099663
 31
0.0
  0
LINE
  5
D15
330
17
100
AcDbEntity
  8
HIDDEN
100
AcDbLine
 10
-11.4644931957333
 20
0.5973683774099676
 30
0.0
 11
-11.4644931957333
 21
0.5308683774099663
 31
0.0
  0
LINE
  5
D16
330
17
100
AcDbEntity
  8
HIDDEN
100
AcDbLine
 10
-11.77694319573343
 20
0.7956712265012627
 30
0.0
 11
-11.90594319573344
 21
0.7956712265012627
 31
0.0
  0
LINE
  5
D17
330
17
100
AcDbEntity
  8
HIDDEN
100
AcDbLine
 10
-11.77694319573343
 20
0.9278712265012601
 30
0.0
 11
-11.90594319573344
 21
0.9278712265012601
 31
0.0
  0
LINE
  5
D18
330
17
100
AcDbEntity
  8
HIDDEN
100
AcDbLine
 10
-11.90594319573344
 20
0.9278712265012601
 30
0.0
 11
-11.90594319573344
 21
0.5308683774099698
 31
0.0
  0
LINE
  5
D19
330
17
100
AcDbEntity
  8
HIDDEN
100
AcDbLine
 10
-11.77694319573343
 20
0.9278712265012601
 30
0.0
 11
-11.77694319573343
 21
0.5308683774099698
 31
0.0
  0
ARC
  5
D1A
330
17
100
AcDbEntity
  8
0
100
AcDbCircle
 10
-12.26339915143756
 20
0.5308683774099627
 30
0.0
 40
0.0935
100
AcDbArc
 50
0.000000000004358
 51
90.0
  0
LINE
  5
D1B
330
17
100
AcDbEntity
  8
0
100
AcDbLine
 10
-7.513399151437561
 20
6.593368377409963
 30
0.0
 11
-12.01339915143756
 21
6.593368377409963
 31
0.0
  0
CIRCLE
  5
D1D
330
17
100
AcDbEntity
  8
0
100
AcDbCircle
 10
-10.61791844339206
 20
6.218368377409963
 30
0.0
 40
0.0855
  0
LINE
  5
D1E
330
17
100
AcDbEntity
  8
0
100
AcDbLine
 10
-7.513399151437561
 20
6.593368377409949
 30
0.0
 11
-7.263399151437561
 21
6.343368377409949
 31
0.0
  0
CIRCLE
  5
D20
330
17
100
AcDbEntity
  8
0
100
AcDbCircle
 10
-7.616813769231733
 20
6.218368377409949
 30
0.0
 40
0.0855
  0
CIRCLE
  5
D21
330
17
100
AcDbEntity
  8
0
100
AcDbCircle
 10
-9.763399151437561
 20
5.280868377409963
 30
0.0
 40
0.3435
  0
CIRCLE
  5
D23
330
17
100
AcDbEntity
  8
0
100
AcDbCircle
 10
-8.88493081945343
 20
4.71836837740997
 30
0.0
 40
0.0855
  0
CIRCLE
  5
D24
330
17
100
AcDbEntity
  8
0
100
AcDbCircle
 10
-11.8869261121456
 20
4.718368377409949
 30
0.0
 40
0.0855
  0
LINE
  5
D26
330
17
100
AcDbEntity
  8
0
100
AcDbLine
 10
-12.26339915143756
 20
6.343368377409963
 30
0.0
 11
-12.01339915143756
 21
6.593368377409963
 31
0.0
  0
LINE
  5
D27
330
17
100
AcDbEntity
  8
DASHED
100
AcDbLine
 10
-7.35689915143756
 20
0.5308683774099556
 30
0.0
 11
-12.16989915143756
 21
0.5308683774099698
 31
0.0
  0
LINE
  5
D28
330
17
100
AcDbEntity
  8
0
100
AcDbLine
 10
-7.35689915143756
 20
0.5308683774099556
 30
0.0
 11
-7.35689915143756
 21
0.4018683774099578
 31
0.0
  0
LINE
  5
D29
330
17
100
AcDbEntity
  8
0
100
AcDbLine
 10
-12.16989915143756
 20
0.5308683774099698
 30
0.0
 11
-12.26339915143756
 21
0.5308683774099698
 31
0.0
  0
LINE
  5
D2A
330
17
100
AcDbEntity
  8
0
100
AcDbLine
 10
-12.16989915143756
 20
0.5308683774099627
 30
0.0
 11
-12.16989915143756
 21
0.401868377409965
 31
0.0
  0
LINE
  5
D2B
330
17
100
AcDbEntity
  8
0
100
AcDbLine
 10
-12.26339915143756
 20
1.38611364575784
 30
0.0
 11
-12.29920427673822
 21
1.386113645757838
 31
0.0
  0
LINE
  5
D2C
330
17
100
AcDbEntity
  8
HIDDEN
100
AcDbLine
 10
-12.26339915143756
 20
1.437569879803711
 30
0.0
 11
-12.20107868007619
 21
1.437569879803711
 31
0.0
  0
LINE
  5
D2D
330
17
100
AcDbEntity
  8
HIDDEN
100
AcDbLine
 10
-12.26339915143756
 20
1.500069879803711
 30
0.0
 11
-7.247078680076221
 21
1.500069879803707
 31
0.0
  0
ENDSEC
  0
SECTION
  2
OBJECTS
  0
DICTIONARY
  5
C
330
0
100
AcDbDictionary
281
     1
  3
ACAD_COLOR
350
BEA
  3
ACAD_GROUP
350
D
  3
ACAD_LAYOUT
350
9DD
  3
ACAD_MATERIAL
350
BE9
  3
ACAD_MLINESTYLE
350
1A
  3
ACAD_PLOTSETTINGS
350
9DE
  3
ACAD_PLOTSTYLENAME
350
9DB
  3
ACAD_TABLESTYLE
350
BEB
  3
ACDBHEADERROUNDTRIPXREC
350
D3F
  3
ACDBVARIABLEDICTIONARY
350
4C
  0
DICTIONARY
  5
BFA
330
2
100
AcDbDictionary
280
     1
281
     1
  3
ACAD_LAYERFILTERS
360
CD3
  3
ACAD_LAYERSTATES
360
BFB
  3
ACLYDICTIONARY
360
CD2
  0
DICTIONARY
  5
BEA
102
{ACAD_REACTORS
330
C
102
}
330
C
100
AcDbDictionary
281
     1
  0
DICTIONARY
  5
D
102
{ACAD_REACTORS
330
C
102
}
330
C
100
AcDbDictionary
281
     1
  0
DICTIONARY
  5
9DD
102
{ACAD_REACTORS
330
C
102
}
330
C
100
AcDbDictionary
281
     1
  3
Layout1
350
9E0
  3
Model
350
9DF
  0
DICTIONARY
  5
BE9
102
{ACAD_REACTORS
330
C
102
}
330
C
100
AcDbDictionary
281
     1
  0
DICTIONARY
  5
1A
102
{ACAD_REACTORS
330
C
102
}
330
C
100
AcDbDictionary
281
     1
  3
STANDARD
350
1B
  0
DICTIONARY
  5
9DE
102
{ACAD_REACTORS
330
C
102
}
330
C
100
AcDbDictionary
281
     1
  0
ACDBDICTIONARYWDFLT
  5
9DB
102
{ACAD_REACTORS
330
C
102
}
330
C
100
AcDbDictionary
281
     1
  3
Normal
350
9DC
100
AcDbDictionaryWithDefault
340
9DC
  0
DICTIONARY
  5
BEB
102
{ACAD_REACTORS
330
C
102
}
330
C
100
AcDbDictionary
281
     1
  3
Standard
350
BEC
  0
DICTIONARY
  5
D3F
102
{ACAD_REACTORS
330
C
102
}
330
C
100
AcDbDictionary
281
     1
  3
COLORDICT
350
D40
  3
MATERIALDICT
350
D41
  0
DICTIONARY
  5
4C
102
{ACAD_REACTORS
330
C
102
}
330
C
100
AcDbDictionary
281
     1
  3
CTABLESTYLE
350
C3B
  3
DIMADEC
350
4D
  0
DICTIONARY
  5
CD3
102
{ACAD_REACTORS
330
BFA
102
}
330
BFA
100
AcDbDictionary
281
     1
  0
DICTIONARY
  5
BFB
102
{ACAD_REACTORS
330
BFA
102
}
330
BFA
100
AcDbDictionary
281
     1
  0
DICTIONARY
  5
CD2
102
{ACAD_REACTORS
330
BFA
102
}
330
BFA
100
AcDbDictionary
281
     1
1001
ACAD
1000
<All
  0
LAYOUT
  5
9E0
102
{ACAD_REACTORS
330
9DD
102
}
102
{ACAD_XDICTIONARY
360
D42
102
}
330
9DD
100
AcDbPlotSettings
  1

  2
HP LaserJet 2100 Series PS
  4

  6

 40
0.0
 41
0.0
 42
0.0
 43
0.0
 44
0.0
 45
0.0
 46
0.0
 47
0.0
 48
0.0
 49
0.0
140
0.0
141
0.0
142
1.0
143
1.0
 70
   688
 72
     0
 73
     0
 74
     5
  7
monochrome.ctb
 75
    16
147
1.0
148
0.0
149
0.0
100
AcDbLayout
  1
Layout1
 70
     0
 71
     1
 10
0.0
 20
0.0
 11
12.0
 21
9.0
 12
0.0
 22
0.0
 32
0.0
 14
1.000000000000000E+20
 24
1.000000000000000E+20
 34
1.000000000000000E+20
 15
-1.000000000000000E+20
 25
-1.000000000000000E+20
 35
-1.000000000000000E+20
146
0.0
 13
0.0
 23
0.0
 33
0.0
 16
1.0
 26
0.0
 36
0.0
 17
0.0
 27
1.0
 37
0.0
 76
     0
330
14
  0
LAYOUT
  5
9DF
102
{ACAD_REACTORS
330
9DD
102
}
102
{ACAD_XDICTIONARY
360
D44
102
}
330
9DD
100
AcDbPlotSettings
  1

  2
HP LaserJet 2100 Series PS
  4
Letter
  6

 40
5.365749835968018
 41
5.408073902130127
 42
5.132904052734375
 43
5.090576171875
 44
215.8999938964844
 45
279.3999938964844
 46
0.0
 47
0.0
 48
0.0
 49
0.0
140
0.0
141
0.0
142
1.0
143
2.975440689981091
 70
 11952
 72
     0
 73
     3
 74
     2
  7
monochrome.ctb
 75
     0
147
0.3360846691944497
148
0.0
149
0.0
100
AcDbLayout
  1
Model
 70
     1
 71
     0
 10
0.0
 20
0.0
 11
12.0
 21
9.0
 12
0.0
 22
0.0
 32
0.0
 14
0.0
 24
0.0
 34
0.0
 15
0.0
 25
0.0
 35
0.0
146
0.0
 13
0.0
 23
0.0
 33
0.0
 16
1.0
 26
0.0
 36
0.0
 17
0.0
 27
1.0
 37
0.0
 76
     0
330
17
1001
ACAD_PSEXT
1000
HP LaserJet 2100 Series PS
1000
HP LaserJet 2100 Series PS
1000
LPT1:
1000

1070
     0
  0
MLINESTYLE
  5
1B
102
{ACAD_REACTORS
330
1A
102
}
330
1A
100
AcDbMlineStyle
  2
STANDARD
 70
     0
  3

 62
   256
 51
90.0
 52
90.0
 71
     2
 49
0.5
 62
   256
  6
BYLAYER
 49
-0.5
 62
   256
  6
BYLAYER
  0
ACDBPLACEHOLDER
  5
9DC
102
{ACAD_REACTORS
330
9DB
102
}
330
9DB
  0
ACAD_PROXY_OBJECT
  5
BEC
102
{ACAD_REACTORS
330
BEB
102
}
330
BEB
100
AcDbProxyObject
 90
      499
 91
      522
 95
   983063
 70
     0
 93
     1841
310
4214DD185B99185C9928B81E85EB51B8AE3F2E07A17AD46E2B8FC02B5E8DC0F42B1CFD028000000C1008070000C3001FDFF8000000C1003FBFF000000182007F7FE00000030400FEFFC00000060801FDFF8000000C1003FBFF00000018200000000000000681FA0B0000001820100E000186003FBFF000000182007F7FE000
310
00030400FEFFC00000060801FDFF8000000C1003FBFF000000182007F7FE000000304000AD7A3703D0AC73F4160000003040201C00030C007F7FE00000030400FEFFC00000060801FDFF8000000C1003FBFF000000182007F7FE00000030400FEFFC000000608000
340
F
340
F
340
F
 94
        0
  0
XRECORD
  5
D40
102
{ACAD_REACTORS
330
D3F
102
}
330
D3F
100
AcDbXrecord
340
BEA
  0
XRECORD
  5
D41
102
{ACAD_REACTORS
330
D3F
102
}
330
D3F
100
AcDbXrecord
340
BE9
  0
DICTIONARYVAR
  5
C3B
102
{ACAD_REACTORS
330
4C
102
}
330
4C
100
DictionaryVariables
280
     0
  1
STANDARD
  0
DICTIONARYVAR
  5
4D
102
{ACAD_REACTORS
330
4C
102
}
330
4C
100
DictionaryVariables
280
     0
  1
0
  0
DICTIONARY
  5
D42
330
9E0
100
AcDbDictionary
280
     1
281
     1
  3
ACAD_XREC_ROUNDTRIP
360
D43
  0
DICTIONARY
  5
D44
330
9DF
100
AcDbDictionary
280
     1
281
     1
  3
ACAD_XREC_ROUNDTRIP
360
D45
  0
XRECORD
  5
D43
102
{ACAD_REACTORS
330
D42
102
}
330
D42
100
AcDbXrecord
102
SHADEPLOT
 70
     0
102
SHADEPLOTRESLEVEL
 70
     2
102
SHADEPLOTCUSTOMDPI
 70
   300
  0
XRECORD
  5
D45
102
{ACAD_REACTORS
330
D44
102
}
330
D44
100
AcDbXrecord
102
SHADEPLOT
 70
     0
102
SHADEPLOTRESLEVEL
 70
     2
102
SHADEPLOTCUSTOMDPI
 70
   300
  0
ENDSEC
  0
EOF
