  0
SECTION
  2
HEADER
  9
$ACADVER
  1
AC1015
  9
$ACADMAINTVER
 70
     6
  9
$DWGCODEPAGE
  3
ANSI_1252
  9
$INSBASE
 10
0.0
 20
0.0
 30
0.0
  9
$EXTMIN
 10
-17.02062680514872
 20
-9.638476746715664
 30
0.0
  9
$EXTMAX
 10
17.61866335299473
 20
18.37747605124512
 30
0.0
  9
$LIMMIN
 10
0.0
 20
0.0
  9
$LIMMAX
 10
42.0
 20
32.0
  9
$ORTHOMODE
 70
     1
  9
$REGENMODE
 70
     1
  9
$FILLMODE
 70
     1
  9
$QTEXTMODE
 70
     0
  9
$MIRRTEXT
 70
     1
  9
$LTSCALE
 40
1.0
  9
$ATTMODE
 70
     1
  9
$TEXTSIZE
 40
0.3600000000000039
  9
$TRACEWID
 40
0.05
  9
$TEXTSTYLE
  7
STANDARD
  9
$CLAYER
  8
OBJECT
  9
$CELTYPE
  6
BYLAYER
  9
$CECOLOR
 62
   256
  9
$CELTSCALE
 40
1.0
  9
$DISPSILH
 70
     0
  9
$DIMSCALE
 40
4.000000000000049
  9
$DIMASZ
 40
0.125
  9
$DIMEXO
 40
0.062
  9
$DIMDLI
 40
0.375
  9
$DIMRND
 40
0.0
  9
$DIMDLE
 40
0.0
  9
$DIMEXE
 40
0.08
  9
$DIMTP
 40
0.0
  9
$DIMTM
 40
0.0
  9
$DIMTXT
 40
0.09
  9
$DIMCEN
 40
-0.06
  9
$DIMTSZ
 40
0.0
  9
$DIMTOL
 70
     0
  9
$DIMLIM
 70
     0
  9
$DIMTIH
 70
     1
  9
$DIMTOH
 70
     1
  9
$DIMSE1
 70
     0
  9
$DIMSE2
 70
     0
  9
$DIMTAD
 70
     0
  9
$DIMZIN
 70
     0
  9
$DIMBLK
  1

  9
$DIMASO
 70
     0
  9
$DIMSHO
 70
     0
  9
$DIMPOST
  1

  9
$DIMAPOST
  1

  9
$DIMALT
 70
     0
  9
$DIMALTD
 70
     2
  9
$DIMALTF
 40
25.4
  9
$DIMLFAC
 40
1.0
  9
$DIMTOFL
 70
     0
  9
$DIMTVP
 40
0.0
  9
$DIMTIX
 70
     0
  9
$DIMSOXD
 70
     0
  9
$DIMSAH
 70
     0
  9
$DIMBLK1
  1

  9
$DIMBLK2
  1

  9
$DIMSTYLE
  2
STANDARD
  9
$DIMCLRD
 70
     0
  9
$DIMCLRE
 70
     0
  9
$DIMCLRT
 70
     0
  9
$DIMTFAC
 40
1.0
  9
$DIMGAP
 40
0.09375
  9
$DIMJUST
 70
     0
  9
$DIMSD1
 70
     0
  9
$DIMSD2
 70
     0
  9
$DIMTOLJ
 70
     1
  9
$DIMTZIN
 70
     0
  9
$DIMALTZ
 70
     0
  9
$DIMALTTZ
 70
     0
  9
$DIMUPT
 70
     0
  9
$DIMDEC
 70
     5
  9
$DIMTDEC
 70
     5
  9
$DIMALTU
 70
     5
  9
$DIMALTTD
 70
     2
  9
$DIMTXSTY
  7
STANDARD
  9
$DIMAUNIT
 70
     0
  9
$DIMADEC
 70
     0
  9
$DIMALTRND
 40
0.0
  9
$DIMAZIN
 70
     0
  9
$DIMDSEP
 70
    46
  9
$DIMATFIT
 70
     3
  9
$DIMFRAC
 70
     2
  9
$DIMLDRBLK
  1

  9
$DIMLUNIT
 70
     5
  9
$DIMLWD
 70
    -2
  9
$DIMLWE
 70
    -2
  9
$DIMTMOVE
 70
     2
  9
$LUNITS
 70
     5
  9
$LUPREC
 70
     5
  9
$SKETCHINC
 40
0.1
  9
$FILLETRAD
 40
0.0
  9
$AUNITS
 70
     0
  9
$AUPREC
 70
     0
  9
$MENU
  1
acad
  9
$ELEVATION
 40
0.0
  9
$PELEVATION
 40
0.0
  9
$THICKNESS
 40
0.0
  9
$LIMCHECK
 70
     0
  9
$CHAMFERA
 40
0.0
  9
$CHAMFERB
 40
0.0
  9
$CHAMFERC
 40
0.0
  9
$CHAMFERD
 40
0.0
  9
$SKPOLY
 70
     0
  9
$TDCREATE
 40
2450826.961684144
  9
$TDUCREATE
 40
2450827.295017477
  9
$TDUPDATE
 40
2454949.663757894
  9
$TDUUPDATE
 40
2454949.997091227
  9
$TDINDWG
 40
0.1998046412
  9
$TDUSRTIMER
 40
0.1998046412
  9
$USRTIMER
 70
     1
  9
$ANGBASE
 50
0.0
  9
$ANGDIR
 70
     0
  9
$PDMODE
 70
     0
  9
$PDSIZE
 40
0.0
  9
$PLINEWID
 40
0.0
  9
$SPLFRAME
 70
     0
  9
$SPLINETYPE
 70
     6
  9
$SPLINESEGS
 70
     8
  9
$HANDSEED
  5
16C2
  9
$SURFTAB1
 70
     6
  9
$SURFTAB2
 70
     6
  9
$SURFTYPE
 70
     6
  9
$SURFU
 70
     6
  9
$SURFV
 70
     6
  9
$UCSBASE
  2

  9
$UCSNAME
  2

  9
$UCSORG
 10
0.0
 20
0.0
 30
0.0
  9
$UCSXDIR
 10
1.0
 20
0.0
 30
0.0
  9
$UCSYDIR
 10
0.0
 20
1.0
 30
0.0
  9
$UCSORTHOREF
  2

  9
$UCSORTHOVIEW
 70
     0
  9
$UCSORGTOP
 10
0.0
 20
0.0
 30
0.0
  9
$UCSORGBOTTOM
 10
0.0
 20
0.0
 30
0.0
  9
$UCSORGLEFT
 10
0.0
 20
0.0
 30
0.0
  9
$UCSORGRIGHT
 10
0.0
 20
0.0
 30
0.0
  9
$UCSORGFRONT
 10
0.0
 20
0.0
 30
0.0
  9
$UCSORGBACK
 10
0.0
 20
0.0
 30
0.0
  9
$PUCSBASE
  2

  9
$PUCSNAME
  2

  9
$PUCSORG
 10
0.0
 20
0.0
 30
0.0
  9
$PUCSXDIR
 10
1.0
 20
0.0
 30
0.0
  9
$PUCSYDIR
 10
0.0
 20
1.0
 30
0.0
  9
$PUCSORTHOREF
  2

  9
$PUCSORTHOVIEW
 70
     0
  9
$PUCSORGTOP
 10
0.0
 20
0.0
 30
0.0
  9
$PUCSORGBOTTOM
 10
0.0
 20
0.0
 30
0.0
  9
$PUCSORGLEFT
 10
0.0
 20
0.0
 30
0.0
  9
$PUCSORGRIGHT
 10
0.0
 20
0.0
 30
0.0
  9
$PUCSORGFRONT
 10
0.0
 20
0.0
 30
0.0
  9
$PUCSORGBACK
 10
0.0
 20
0.0
 30
0.0
  9
$USERI1
 70
     0
  9
$USERI2
 70
     0
  9
$USERI3
 70
     0
  9
$USERI4
 70
     0
  9
$USERI5
 70
     0
  9
$USERR1
 40
0.0
  9
$USERR2
 40
0.0
  9
$USERR3
 40
0.0
  9
$USERR4
 40
0.0
  9
$USERR5
 40
0.0
  9
$WORLDVIEW
 70
     1
  9
$SHADEDGE
 70
     3
  9
$SHADEDIF
 70
    70
  9
$TILEMODE
 70
     1
  9
$MAXACTVP
 70
    16
  9
$PINSBASE
 10
0.0
 20
0.0
 30
0.0
  9
$PLIMCHECK
 70
     0
  9
$PEXTMIN
 10
1.000000000000000E+20
 20
1.000000000000000E+20
 30
1.000000000000000E+20
  9
$PEXTMAX
 10
-1.000000000000000E+20
 20
-1.000000000000000E+20
 30
-1.000000000000000E+20
  9
$PLIMMIN
 10
0.0
 20
0.0
  9
$PLIMMAX
 10
12.0
 20
9.0
  9
$UNITMODE
 70
     0
  9
$VISRETAIN
 70
     0
  9
$PLINEGEN
 70
     0
  9
$PSLTSCALE
 70
     0
  9
$TREEDEPTH
 70
  3020
  9
$CMLSTYLE
  2
STANDARD
  9
$CMLJUST
 70
     0
  9
$CMLSCALE
 40
1.0
  9
$PROXYGRAPHICS
 70
     1
  9
$MEASUREMENT
 70
     0
  9
$CELWEIGHT
370
    -1
  9
$ENDCAPS
280
     0
  9
$JOINSTYLE
280
     0
  9
$LWDISPLAY
290
     0
  9
$INSUNITS
 70
     0
  9
$HYPERLINKBASE
  1

  9
$STYLESHEET
  1
monochrome.ctb
  9
$XEDIT
290
     1
  9
$CEPSNTYPE
380
     0
  9
$PSTYLEMODE
290
     1
  9
$FINGERPRINTGUID
  2
{2CA71EE1-36F2-4614-91C8-BF01B02B4C89}
  9
$VERSIONGUID
  2
{6E9531F6-69E1-4ADA-A5BB-0B21E8CB331E}
  9
$EXTNAMES
290
     1
  9
$PSVPSCALE
 40
0.0
  9
$OLESTARTUP
290
     0
  0
ENDSEC
  0
SECTION
  2
CLASSES
  0
CLASS
  1
DICTIONARYVAR
  2
AcDbDictionaryVar
  3
AutoCAD 2000
 90
        0
280
     0
281
     0
  0
CLASS
  1
LWPOLYLINE
  2
AcDbPolyline
  3
AutoCAD 2000
 90
        0
280
     0
281
     1
  0
CLASS
  1
ACDBDICTIONARYWDFLT
  2
AcDbDictionaryWithDefault
  3
AutoCAD 2000
 90
        0
280
     0
281
     0
  0
CLASS
  1
ACDBPLACEHOLDER
  2
AcDbPlaceHolder
  3
ObjectDBX Classes
 90
        0
280
     0
281
     0
  0
CLASS
  1
LAYOUT
  2
AcDbLayout
  3
ObjectDBX Classes
 90
        0
280
     0
281
     0
  0
CLASS
  1
LONG_TRANSACTION
  2
AcDbLongTransaction
  3
ObjectDBX Classes
 90
   -65536
280
     1
281
     0
  0
CLASS
  1
LWPOLYLINE
  2
AcDbPolyline
  3
AutoCAD 2000
 90
        0
280
     0
281
     1
  0
CLASS
  1
HATCH
  2
AcDbHatch
  3
AutoCAD 2000
 90
        0
280
     0
281
     1
  0
CLASS
  1
XRECORD
  2
AcDbXrecord
  3
AutoCAD 2000
 90
        0
280
     0
281
     0
  0
CLASS
  1
LONG_TRANSACTION
  2
AcDbLongTransaction
  3
ObjectDBX Classes
 90
   -65536
280
     1
281
     0
  0
CLASS
  1
LWPOLYLINE
  2
AcDbPolyline
  3
AutoCAD 2000
 90
        0
280
     0
281
     1
  0
CLASS
  1
HATCH
  2
AcDbHatch
  3
AutoCAD 2000
 90
        0
280
     0
281
     1
  0
CLASS
  1
XRECORD
  2
AcDbXrecord
  3
AutoCAD 2000
 90
        0
280
     0
281
     0
  0
CLASS
  1
LONG_TRANSACTION
  2
AcDbLongTransaction
  3
ObjectDBX Classes
 90
   -65536
280
     1
281
     0
  0
CLASS
  1
LWPOLYLINE
  2
AcDbPolyline
  3
AutoCAD 2000
 90
        0
280
     0
281
     1
  0
CLASS
  1
HATCH
  2
AcDbHatch
  3
AutoCAD 2000
 90
        0
280
     0
281
     1
  0
CLASS
  1
XRECORD
  2
AcDbXrecord
  3
AutoCAD 2000
 90
        0
280
     0
281
     0
  0
CLASS
  1
LONG_TRANSACTION
  2
AcDbLongTransaction
  3
ObjectDBX Classes
 90
   -65536
280
     1
281
     0
  0
CLASS
  1
LWPOLYLINE
  2
AcDbPolyline
  3
AutoCAD 2000
 90
        0
280
     0
281
     1
  0
CLASS
  1
HATCH
  2
AcDbHatch
  3
AutoCAD 2000
 90
        0
280
     0
281
     1
  0
CLASS
  1
XRECORD
  2
AcDbXrecord
  3
AutoCAD 2000
 90
        0
280
     0
281
     0
  0
CLASS
  1
TABLESTYLE
  2
AcDbTableStyle
  3
ObjectDBX Classes
 90
     2047
280
     1
281
     0
  0
CLASS
  1
SORTENTSTABLE
  2
AcDbSortentsTable
  3
AutoCAD 2000
 90
        0
280
     0
281
     0
  0
ENDSEC
  0
SECTION
  2
TABLES
  0
TABLE
  2
VPORT
  5
8
330
0
100
AcDbSymbolTable
 70
     3
  0
VPORT
  5
16B4
330
8
100
AcDbSymbolTableRecord
100
AcDbViewportTableRecord
  2
*Active
 70
     0
 10
0.0
 20
0.0
 11
1.0
 21
1.0
 12
5.064809143722542
 22
3.3156853922689
 13
0.0
 23
0.0
 14
0.03125
 24
0.03125
 15
0.03125
 25
0.03125
 16
0.0
 26
0.0
 36
1.0
 17
0.0
 27
0.0
 37
0.0
 40
42.14484949780159
 41
1.77079107505071
 42
50.0
 43
0.0
 44
0.0
 50
0.0
 51
0.0
 71
     0
 72
   100
 73
     1
 74
     0
 75
     0
 76
     0
 77
     0
 78
     0
281
     0
 65
     1
110
0.0
120
0.0
130
0.0
111
1.0
121
0.0
131
0.0
112
0.0
122
1.0
132
0.0
 79
     0
146
0.0
  0
ENDTAB
  0
TABLE
  2
LTYPE
  5
5
330
0
100
AcDbSymbolTable
 70
     2
  0
LTYPE
  5
11
330
5
100
AcDbSymbolTableRecord
100
AcDbLinetypeTableRecord
  2
BYBLOCK
 70
     0
  3

 72
    65
 73
     0
 40
0.0
  0
LTYPE
  5
12
330
5
100
AcDbSymbolTableRecord
100
AcDbLinetypeTableRecord
  2
BYLAYER
 70
     0
  3

 72
    65
 73
     0
 40
0.0
  0
LTYPE
  5
13
330
5
100
AcDbSymbolTableRecord
100
AcDbLinetypeTableRecord
  2
CONTINUOUS
 70
     0
  3
Solid line
 72
    65
 73
     0
 40
0.0
  0
LTYPE
  5
37
330
5
100
AcDbSymbolTableRecord
100
AcDbLinetypeTableRecord
  2
HIDDEN
 70
     0
  3
_ _ _ _ _ _ _ _ _ _ _ _ _ _ _ _ _ _ _ _ _ _ _
 72
    65
 73
     2
 40
0.375
 49
0.25
 74
     0
 49
-0.125
 74
     0
  0
ENDTAB
  0
TABLE
  2
LAYER
  5
2
102
{ACAD_XDICTIONARY
360
1574
102
}
330
0
100
AcDbSymbolTable
 70
     3
  0
LAYER
  5
E
330
2
100
AcDbSymbolTableRecord
100
AcDbLayerTableRecord
  2
0
 70
     0
 62
     7
  6
CONTINUOUS
370
    -3
390
FC3
  0
LAYER
  5
44
330
2
100
AcDbSymbolTableRecord
100
AcDbLayerTableRecord
  2
OBJECT
 70
     0
 62
     7
  6
CONTINUOUS
370
    -3
390
FC3
  0
LAYER
  5
46
330
2
100
AcDbSymbolTableRecord
100
AcDbLayerTableRecord
  2
HIDDEN
 70
     0
 62
     8
  6
HIDDEN
370
    -3
390
FC3
  0
ENDTAB
  0
TABLE
  2
STYLE
  5
3
330
0
100
AcDbSymbolTable
 70
     1
  0
STYLE
  5
F
330
3
100
AcDbSymbolTableRecord
100
AcDbTextStyleTableRecord
  2
STANDARD
 70
     0
 40
0.0
 41
1.0
 50
0.0
 71
     0
 42
0.3600000000000039
  3
TXT
  4

  0
ENDTAB
  0
TABLE
  2
VIEW
  5
6
330
0
100
AcDbSymbolTable
 70
     0
  0
ENDTAB
  0
TABLE
  2
UCS
  5
7
330
0
100
AcDbSymbolTable
 70
     0
  0
ENDTAB
  0
TABLE
  2
APPID
  5
9
330
0
100
AcDbSymbolTable
 70
     2
  0
APPID
  5
10
330
9
100
AcDbSymbolTableRecord
100
AcDbRegAppTableRecord
  2
ACAD
 70
     0
  0
APPID
  5
119A
330
9
100
AcDbSymbolTableRecord
100
AcDbRegAppTableRecord
  2
ACAD_PSEXT
 70
     0
  0
ENDTAB
  0
TABLE
  2
DIMSTYLE
  5
A
330
0
100
AcDbSymbolTable
 70
     1
100
AcDbDimStyleTable
  0
DIMSTYLE
105
987
330
A
100
AcDbSymbolTableRecord
100
AcDbDimStyleTableRecord
  2
STANDARD
 70
     0
  3

  4

340
F
  0
ENDTAB
  0
TABLE
  2
BLOCK_RECORD
  5
1
330
0
100
AcDbSymbolTable
 70
     0
  0
BLOCK_RECORD
  5
17
330
1
100
AcDbSymbolTableRecord
100
AcDbBlockTableRecord
  2
*MODEL_SPACE
340
FC6
  0
BLOCK_RECORD
  5
14
330
1
100
AcDbSymbolTableRecord
100
AcDbBlockTableRecord
  2
*PAPER_SPACE
340
FC7
  0
ENDTAB
  0
ENDSEC
  0
SECTION
  2
BLOCKS
  0
BLOCK
  5
53
330
17
100
AcDbEntity
  8
0
100
AcDbBlockBegin
  2
*MODEL_SPACE
 70
     0
 10
0.0
 20
0.0
 30
0.0
  3
*MODEL_SPACE
  1

  4

  0
ENDBLK
  5
54
330
17
100
AcDbEntity
  8
0
100
AcDbBlockEnd
  0
BLOCK
  5
51
330
14
100
AcDbEntity
 67
     1
  8
0
100
AcDbBlockBegin
  2
*PAPER_SPACE
 70
     0
 10
0.0
 20
0.0
 30
0.0
  3
*PAPER_SPACE
  1

  4

  0
ENDBLK
  5
52
330
14
100
AcDbEntity
 67
     1
  8
0
100
AcDbBlockEnd
  0
ENDSEC
  0
SECTION
  2
ENTITIES
  0
TEXT
  5
96A
330
17
100
AcDbEntity
  8
0
 62
     4
100
AcDbText
 10
18.81414654005476
 20
12.57487102028665
 30
0.0
 40
0.36
  1

 72
     4
 11
18.81414654005476
 21
12.57487102028665
 31
0.0
100
AcDbText
  0
TEXT
  5
96B
330
17
100
AcDbEntity
  8
0
 62
     4
100
AcDbText
 10
18.81414654005476
 20
12.06052504721037
 30
0.0
 40
0.36
  1

 72
     4
 11
18.81414654005476
 21
12.06052504721037
 31
0.0
100
AcDbText
  0
LINE
  5
15C2
330
17
100
AcDbEntity
  8
HIDDEN
100
AcDbLine
 10
-9.9009884575004
 20
1.529187469085708
 30
0.0
 11
-16.9009884575004
 21
1.529187469085729
 31
0.0
  0
LINE
  5
15C3
330
17
100
AcDbEntity
  8
0
100
AcDbLine
 10
-9.9009884575004
 20
1.437598333238247
 30
0.0
 11
-16.9009884575004
 21
1.437598333238256
 31
0.0
  0
LINE
  5
15C4
330
17
100
AcDbEntity
  8
0
100
AcDbLine
 10
-10.07776515279704
 20
8.531348333238245
 30
0.0
 11
-16.72421176220377
 21
8.531348333238245
 31
0.0
  0
LINE
  5
15C5
330
17
100
AcDbEntity
  8
HIDDEN
100
AcDbLine
 10
-11.4009884575004
 20
7.666850296075957
 30
0.0
 11
-11.4009884575004
 21
7.493179703733865
 31
0.0
  0
CIRCLE
  5
15C6
330
17
100
AcDbEntity
  8
0
100
AcDbCircle
 10
-11.4009884575004
 20
7.580014999904911
 30
0.0
 40
0.0855
  0
LINE
  5
15C7
330
17
100
AcDbEntity
  8
0
100
AcDbLine
 10
-9.9009884575004
 20
1.437598333238247
 30
0.0
 11
-9.9009884575004
 21
8.354571637941611
 31
0.0
  0
LINE
  5
15C8
330
17
100
AcDbEntity
  8
HIDDEN
100
AcDbLine
 10
-11.06146915580824
 20
6.768014999904914
 30
0.0
 11
-11.24050775919257
 21
6.768014999904914
 31
0.0
  0
CIRCLE
  5
15C9
330
17
100
AcDbEntity
  8
0
100
AcDbCircle
 10
-11.39674381242666
 20
5.955014999904913
 30
0.0
 40
0.0855
  0
LINE
  5
15CA
330
17
100
AcDbEntity
  8
HIDDEN
100
AcDbLine
 10
-11.1509884575004
 20
6.854850296075959
 30
0.0
 11
-11.1509884575004
 21
6.681179703733868
 31
0.0
  0
LINE
  5
15CB
330
17
100
AcDbEntity
  8
HIDDEN
100
AcDbLine
 10
-11.3072245107345
 20
5.955014999904913
 30
0.0
 11
-11.48626311411882
 21
5.955014999904913
 31
0.0
  0
LINE
  5
15CC
330
17
100
AcDbEntity
  8
HIDDEN
100
AcDbLine
 10
-11.39674381242666
 20
6.041850296075957
 30
0.0
 11
-11.39674381242666
 21
5.868179703733867
 31
0.0
  0
LINE
  5
15CD
330
17
100
AcDbEntity
  8
HIDDEN
100
AcDbLine
 10
-12.2759884575004
 20
6.041850296075957
 30
0.0
 11
-12.2759884575004
 21
5.868179703733867
 31
0.0
  0
LINE
  5
15CE
330
17
100
AcDbEntity
  8
HIDDEN
100
AcDbLine
 10
-12.18646915580824
 20
5.955014999904913
 30
0.0
 11
-12.36550775919257
 21
5.955014999904913
 31
0.0
  0
CIRCLE
  5
15CF
330
17
100
AcDbEntity
  8
0
100
AcDbCircle
 10
-13.6509884575004
 20
6.218348333238247
 30
0.0
 40
0.0855
  0
CIRCLE
  5
15D0
330
17
100
AcDbEntity
  8
0
100
AcDbCircle
 10
-11.1509884575004
 20
6.768014999904914
 30
0.0
 40
0.0855
  0
LINE
  5
15D1
330
17
100
AcDbEntity
  8
HIDDEN
100
AcDbLine
 10
-13.1509884575004
 20
7.118183629409295
 30
0.0
 11
-13.1509884575004
 21
6.944513037067203
 31
0.0
  0
LINE
  5
15D2
330
17
100
AcDbEntity
  8
HIDDEN
100
AcDbLine
 10
-13.06146915580824
 20
7.031348333238249
 30
0.0
 11
-13.24050775919257
 21
7.031348333238249
 31
0.0
  0
LINE
  5
15D3
330
17
100
AcDbEntity
  8
0
100
AcDbLine
 10
-9.9009884575004
 20
8.354571637941611
 30
0.0
 11
-10.07776515279704
 21
8.531348333238245
 31
0.0
  0
LINE
  5
15D4
330
17
100
AcDbEntity
  8
HIDDEN
100
AcDbLine
 10
-11.31146915580824
 20
7.580014999904911
 30
0.0
 11
-11.49050775919257
 21
7.580014999904911
 31
0.0
  0
LINE
  5
15D5
330
17
100
AcDbEntity
  8
HIDDEN
100
AcDbLine
 10
-11.81146915580824
 20
7.830014999904911
 30
0.0
 11
-11.99050775919257
 21
7.830014999904911
 31
0.0
  0
LINE
  5
15D6
330
17
100
AcDbEntity
  8
HIDDEN
100
AcDbLine
 10
-11.9009884575004
 20
7.916850296075957
 30
0.0
 11
-11.9009884575004
 21
7.743179703733865
 31
0.0
  0
CIRCLE
  5
15D7
330
17
100
AcDbEntity
  8
0
100
AcDbCircle
 10
-13.6509884575004
 20
7.830014999904911
 30
0.0
 40
0.0855
  0
LINE
  5
15D8
330
17
100
AcDbEntity
  8
HIDDEN
100
AcDbLine
 10
-15.4009884575004
 20
7.666850296075957
 30
0.0
 11
-15.4009884575004
 21
7.493179703733865
 31
0.0
  0
CIRCLE
  5
15D9
330
17
100
AcDbEntity
  8
0
100
AcDbCircle
 10
-15.4009884575004
 20
7.580014999904911
 30
0.0
 40
0.0855
  0
LINE
  5
15DA
330
17
100
AcDbEntity
  8
0
100
AcDbLine
 10
-16.9009884575004
 20
8.354571637941611
 30
0.0
 11
-16.9009884575004
 21
1.437598333238247
 31
0.0
  0
LINE
  5
15DB
330
17
100
AcDbEntity
  8
HIDDEN
100
AcDbLine
 10
-13.56146915580824
 20
6.218348333238247
 30
0.0
 11
-13.74050775919257
 21
6.218348333238247
 31
0.0
  0
LINE
  5
15DC
330
17
100
AcDbEntity
  8
HIDDEN
100
AcDbLine
 10
-13.6509884575004
 20
6.305183629409292
 30
0.0
 11
-13.6509884575004
 21
6.131513037067201
 31
0.0
  0
LINE
  5
15DD
330
17
100
AcDbEntity
  8
HIDDEN
100
AcDbLine
 10
-14.61550775919257
 20
5.955014999904913
 30
0.0
 11
-14.43646915580824
 21
5.955014999904913
 31
0.0
  0
LINE
  5
15DE
330
17
100
AcDbEntity
  8
HIDDEN
100
AcDbLine
 10
-14.5259884575004
 20
6.041850296075957
 30
0.0
 11
-14.5259884575004
 21
5.868179703733867
 31
0.0
  0
LINE
  5
15DF
330
17
100
AcDbEntity
  8
HIDDEN
100
AcDbLine
 10
-15.40523310257415
 20
6.041850296075957
 30
0.0
 11
-15.40523310257415
 21
5.868179703733867
 31
0.0
  0
LINE
  5
15E0
330
17
100
AcDbEntity
  8
HIDDEN
100
AcDbLine
 10
-15.49475240426631
 20
5.955014999904913
 30
0.0
 11
-15.31571380088198
 21
5.955014999904913
 31
0.0
  0
CIRCLE
  5
15E1
330
17
100
AcDbEntity
  8
0
100
AcDbCircle
 10
-15.40523310257415
 20
5.955014999904913
 30
0.0
 40
0.0855
  0
CIRCLE
  5
15E2
330
17
100
AcDbEntity
  8
0
100
AcDbCircle
 10
-13.1509884575004
 20
7.031348333238249
 30
0.0
 40
0.0855
  0
LINE
  5
15E3
330
17
100
AcDbEntity
  8
HIDDEN
100
AcDbLine
 10
-15.6509884575004
 20
6.854850296075959
 30
0.0
 11
-15.6509884575004
 21
6.681179703733868
 31
0.0
  0
LINE
  5
15E4
330
17
100
AcDbEntity
  8
HIDDEN
100
AcDbLine
 10
-15.74050775919257
 20
6.768014999904914
 30
0.0
 11
-15.56146915580824
 21
6.768014999904914
 31
0.0
  0
CIRCLE
  5
15E5
330
17
100
AcDbEntity
  8
0
100
AcDbCircle
 10
-15.6509884575004
 20
6.768014999904914
 30
0.0
 40
0.0855
  0
LINE
  5
15E6
330
17
100
AcDbEntity
  8
HIDDEN
100
AcDbLine
 10
-13.6509884575004
 20
7.916850296075957
 30
0.0
 11
-13.6509884575004
 21
7.743179703733865
 31
0.0
  0
LINE
  5
15E7
330
17
100
AcDbEntity
  8
HIDDEN
100
AcDbLine
 10
-13.56146915580824
 20
7.830014999904911
 30
0.0
 11
-13.74050775919257
 21
7.830014999904911
 31
0.0
  0
LINE
  5
15E8
330
17
100
AcDbEntity
  8
HIDDEN
100
AcDbLine
 10
-14.9009884575004
 20
7.916850296075957
 30
0.0
 11
-14.9009884575004
 21
7.743179703733865
 31
0.0
  0
LINE
  5
15E9
330
17
100
AcDbEntity
  8
HIDDEN
100
AcDbLine
 10
-14.99050775919257
 20
7.830014999904911
 30
0.0
 11
-14.81146915580824
 21
7.830014999904911
 31
0.0
  0
LINE
  5
15EA
330
17
100
AcDbEntity
  8
HIDDEN
100
AcDbLine
 10
-15.49050775919257
 20
7.580014999904911
 30
0.0
 11
-15.31146915580824
 21
7.580014999904911
 31
0.0
  0
LINE
  5
15EB
330
17
100
AcDbEntity
  8
0
100
AcDbLine
 10
-16.9009884575004
 20
8.354571637941611
 30
0.0
 11
-16.72421176220377
 21
8.531348333238245
 31
0.0
  0
ARC
  5
15EC
330
17
100
AcDbEntity
  8
0
100
AcDbCircle
 10
-16.8697384575004
 20
1.562598333238247
 30
0.0
 40
0.125
100
AcDbArc
 50
180.0
 51
270.0
  0
LINE
  5
15ED
330
17
100
AcDbEntity
  8
0
100
AcDbLine
 10
-16.9947384575004
 20
1.562598333238247
 30
0.0
 11
-16.9947384575004
 21
2.475512214734746
 31
0.0
  0
LINE
  5
15EE
330
17
100
AcDbEntity
  8
0
100
AcDbLine
 10
-16.9947384575004
 20
2.475512214734746
 30
0.0
 11
-16.9009884575004
 21
2.475512214734746
 31
0.0
  0
LINE
  5
15EF
330
17
100
AcDbEntity
  8
0
100
AcDbLine
 10
-9.807238457500397
 20
1.562598333238247
 30
0.0
 11
-9.807238457500397
 21
2.475512214734746
 31
0.0
  0
ARC
  5
15F0
330
17
100
AcDbEntity
  8
0
100
AcDbCircle
 10
-9.932238457500397
 20
1.562598333238247
 30
0.0
 40
0.125
100
AcDbArc
 50
270.0
 51
0.000000000000007
  0
LINE
  5
15F1
330
17
100
AcDbEntity
  8
0
100
AcDbLine
 10
-9.807238457500397
 20
2.475512214734746
 30
0.0
 11
-9.900988457500397
 21
2.475512214734746
 31
0.0
  0
LINE
  5
15F2
330
17
100
AcDbEntity
  8
HIDDEN
100
AcDbLine
 10
-16.67550325736012
 20
2.531270794006497
 30
0.0
 11
-10.12050325736011
 21
2.531301381564274
 31
0.0
  0
LINE
  5
15F3
330
17
100
AcDbEntity
  8
HIDDEN
100
AcDbLine
 10
-11.96500306891054
 20
2.468198580712199
 30
0.0
 11
-14.71574896509278
 21
2.467329072514028
 31
0.0
  0
LINE
  5
15F4
330
17
100
AcDbEntity
  8
HIDDEN
100
AcDbLine
 10
-16.6112177195704
 20
2.46873128162372
 30
0.0
 11
-14.83170811209379
 21
2.468169657648007
 31
0.0
  0
LINE
  5
15F5
330
17
100
AcDbEntity
  8
HIDDEN
100
AcDbLine
 10
-16.74550325736012
 20
2.461270794006497
 30
0.0
 11
-16.74550325736012
 21
1.529187469085718
 31
0.0
  0
LINE
  5
15F6
330
17
100
AcDbEntity
  8
HIDDEN
100
AcDbLine
 10
-16.68147365764068
 20
2.33036421654541
 30
0.0
 11
-16.68147365764068
 21
1.531251037815109
 31
0.0
  0
ARC
  5
15F7
330
17
100
AcDbEntity
  8
HIDDEN
100
AcDbCircle
 10
-16.6112177195704
 20
2.39873128162372
 30
0.0
 40
0.07
100
AcDbArc
 50
89.99999999999999
 51
180.0000000000005
  0
ARC
  5
15F8
330
17
100
AcDbEntity
  8
HIDDEN
100
AcDbCircle
 10
-16.66979013391416
 20
2.494291268896189
 30
0.0
 40
0.1328000000000006
100
AcDbArc
 50
235.2407822666783
 51
346.4754578114319
  0
LINE
  5
15F9
330
17
100
AcDbEntity
  8
HIDDEN
100
AcDbLine
 10
-16.6812177195704
 20
2.39873128162372
 30
0.0
 11
-16.68135524200965
 21
2.361995810641796
 31
0.0
  0
LINE
  5
15FA
330
17
100
AcDbEntity
  8
HIDDEN
100
AcDbLine
 10
-16.61897365764068
 20
2.46873128162372
 30
0.0
 11
-16.61897365764068
 21
2.53123128162372
 31
0.0
  0
ARC
  5
15FB
330
17
100
AcDbEntity
  8
HIDDEN
100
AcDbCircle
 10
-16.67550325736012
 20
2.461270794006497
 30
0.0
 40
0.07
100
AcDbArc
 50
89.99999999999999
 51
180.0000000000005
  0
LINE
  5
15FC
330
17
100
AcDbEntity
  8
HIDDEN
100
AcDbLine
 10
-14.92980440989995
 20
1.530700665795747
 30
0.0
 11
-14.92980440989995
 21
2.334422649506132
 31
0.0
  0
LINE
  5
15FD
330
17
100
AcDbEntity
  8
HIDDEN
100
AcDbLine
 10
-15.77750200298426
 20
1.530968622209963
 30
0.0
 11
-15.77750200298426
 21
2.46846862220996
 31
0.0
  0
LINE
  5
15FE
330
17
100
AcDbEntity
  8
HIDDEN
100
AcDbLine
 10
-15.72884476993857
 20
1.53095324170423
 30
0.0
 11
-15.72884476993857
 21
2.468453241704223
 31
0.0
  0
ARC
  5
15FF
330
17
100
AcDbEntity
  8
HIDDEN
100
AcDbCircle
 10
-14.96439290288562
 20
2.46263917009915
 30
0.0
 40
0.1328000000000014
100
AcDbArc
 50
180.8472237445261
 51
30.81862973179236
  0
ARC
  5
1600
330
17
100
AcDbEntity
  8
HIDDEN
100
AcDbCircle
 10
-14.89439290288562
 20
2.46263917009915
 30
0.0
 40
0.1328000000000014
100
AcDbArc
 50
180.8472237445261
 51
254.7189381834384
  0
LINE
  5
1601
330
17
100
AcDbEntity
  8
HIDDEN
100
AcDbLine
 10
-10.1907591954304
 20
2.468761869181497
 30
0.0
 11
-11.96500306891054
 21
2.468198580712199
 31
0.0
  0
LINE
  5
1602
330
17
100
AcDbEntity
  8
HIDDEN
100
AcDbLine
 10
-11.86690677110438
 20
1.53072958885994
 30
0.0
 11
-11.86690677110438
 21
2.334451572570325
 31
0.0
  0
ARC
  5
1603
330
17
100
AcDbEntity
  8
HIDDEN
100
AcDbCircle
 10
-11.8323182781187
 20
2.462668093163343
 30
0.0
 40
0.1328000000000014
100
AcDbArc
 50
149.1813702682076
 51
359.1527762554739
  0
ARC
  5
1604
330
17
100
AcDbEntity
  8
HIDDEN
100
AcDbCircle
 10
-11.9023182781187
 20
2.462668093163343
 30
0.0
 40
0.1328000000000014
100
AcDbArc
 50
285.2810618165616
 51
359.1527762554739
  0
LINE
  5
1605
330
17
100
AcDbEntity
  8
HIDDEN
100
AcDbLine
 10
-10.05647365764068
 20
2.461301381564274
 30
0.0
 11
-10.05647365764067
 21
1.529187469085718
 31
0.0
  0
LINE
  5
1606
330
17
100
AcDbEntity
  8
HIDDEN
100
AcDbLine
 10
-10.12050325736011
 20
2.330394804103184
 30
0.0
 11
-10.12050325736011
 21
1.531281625372882
 31
0.0
  0
LINE
  5
1607
330
17
100
AcDbEntity
  8
HIDDEN
100
AcDbLine
 10
-11.06786641106577
 20
1.530982164768423
 30
0.0
 11
-11.06786641106577
 21
2.468482164768416
 31
0.0
  0
LINE
  5
1608
330
17
100
AcDbEntity
  8
HIDDEN
100
AcDbLine
 10
-11.01920917802007
 20
1.530997545274159
 30
0.0
 11
-11.01920917802007
 21
2.468497545274152
 31
0.0
  0
ARC
  5
1609
330
17
100
AcDbEntity
  8
HIDDEN
100
AcDbCircle
 10
-10.13218678108663
 20
2.494321856453963
 30
0.0
 40
0.1328000000000006
100
AcDbArc
 50
193.5245421885682
 51
304.7592177333218
  0
ARC
  5
160A
330
17
100
AcDbEntity
  8
HIDDEN
100
AcDbCircle
 10
-10.1907591954304
 20
2.398761869181493
 30
0.0
 40
0.07
100
AcDbArc
 50
359.9999999999995
 51
89.99999999999999
  0
LINE
  5
160B
330
17
100
AcDbEntity
  8
HIDDEN
100
AcDbLine
 10
-10.1207591954304
 20
2.398761869181497
 30
0.0
 11
-10.12062167299114
 21
2.362026398199573
 31
0.0
  0
LINE
  5
160C
330
17
100
AcDbEntity
  8
HIDDEN
100
AcDbLine
 10
-10.18300325736011
 20
2.468761869181497
 30
0.0
 11
-10.18300325736011
 21
2.531261869181497
 31
0.0
  0
ARC
  5
160D
330
17
100
AcDbEntity
  8
HIDDEN
100
AcDbCircle
 10
-10.12647365764068
 20
2.461301381564271
 30
0.0
 40
0.07
100
AcDbArc
 50
359.9999999999995
 51
89.99999999999999
  0
LINE
  5
160E
330
17
100
AcDbEntity
  8
HIDDEN
100
AcDbLine
 10
-12.33318508639525
 20
1.779187469085715
 30
0.0
 11
-14.33318508639525
 21
1.779187469085715
 31
0.0
  0
LINE
  5
160F
330
17
100
AcDbEntity
  8
HIDDEN
100
AcDbLine
 10
-12.33318508639525
 20
1.779187469085715
 30
0.0
 11
-12.33318508639525
 21
1.529187469085715
 31
0.0
  0
LINE
  5
1610
330
17
100
AcDbEntity
  8
HIDDEN
100
AcDbLine
 10
-14.33318508639525
 20
1.779187469085715
 30
0.0
 11
-14.33318508639525
 21
1.529187469085715
 31
0.0
  0
CIRCLE
  5
1611
330
17
100
AcDbEntity
  8
0
100
AcDbCircle
 10
-14.9009884575004
 20
7.830014999904911
 30
0.0
 40
0.1405
  0
CIRCLE
  5
1612
330
17
100
AcDbEntity
  8
0
100
AcDbCircle
 10
-14.5259884575004
 20
5.955014999904913
 30
0.0
 40
0.1405
  0
CIRCLE
  5
1613
330
17
100
AcDbEntity
  8
0
100
AcDbCircle
 10
-11.9009884575004
 20
7.830014999904911
 30
0.0
 40
0.1405
  0
CIRCLE
  5
1614
330
17
100
AcDbEntity
  8
0
100
AcDbCircle
 10
-12.2759884575004
 20
5.955014999904911
 30
0.0
 40
0.1405
  0
ENDSEC
  0
SECTION
  2
OBJECTS
  0
DICTIONARY
  5
C
330
0
100
AcDbDictionary
281
     1
  3
ACAD_COLOR
350
118A
  3
ACAD_GROUP
350
D
  3
ACAD_LAYOUT
350
FC4
  3
ACAD_MATERIAL
350
1189
  3
ACAD_MLINESTYLE
350
1A
  3
ACAD_PLOTSETTINGS
350
FC5
  3
ACAD_PLOTSTYLENAME
350
FC2
  3
ACAD_TABLESTYLE
350
118B
  3
ACDBHEADERROUNDTRIPXREC
350
16BB
  3
ACDBVARIABLEDICTIONARY
350
55
  0
DICTIONARY
  5
1574
330
2
100
AcDbDictionary
280
     1
281
     1
  3
ACAD_LAYERSTATES
360
1575
  0
DICTIONARY
  5
118A
102
{ACAD_REACTORS
330
C
102
}
330
C
100
AcDbDictionary
281
     1
  0
DICTIONARY
  5
D
102
{ACAD_REACTORS
330
C
102
}
330
C
100
AcDbDictionary
281
     1
  0
DICTIONARY
  5
FC4
102
{ACAD_REACTORS
330
C
102
}
330
C
100
AcDbDictionary
281
     1
  3
Layout1
350
FC7
  3
Model
350
FC6
  0
DICTIONARY
  5
1189
102
{ACAD_REACTORS
330
C
102
}
330
C
100
AcDbDictionary
281
     1
  0
DICTIONARY
  5
1A
102
{ACAD_REACTORS
330
C
102
}
330
C
100
AcDbDictionary
281
     1
  3
STANDARD
350
1B
  0
DICTIONARY
  5
FC5
102
{ACAD_REACTORS
330
C
102
}
330
C
100
AcDbDictionary
281
     1
  0
ACDBDICTIONARYWDFLT
  5
FC2
102
{ACAD_REACTORS
330
C
102
}
330
C
100
AcDbDictionary
281
     1
  3
Normal
350
FC3
100
AcDbDictionaryWithDefault
340
FC3
  0
DICTIONARY
  5
118B
102
{ACAD_REACTORS
330
C
102
}
330
C
100
AcDbDictionary
281
     1
  3
Standard
350
118C
  0
DICTIONARY
  5
16BB
102
{ACAD_REACTORS
330
C
102
}
330
C
100
AcDbDictionary
281
     1
  3
COLORDICT
350
16BC
  3
MATERIALDICT
350
16BD
  0
DICTIONARY
  5
55
102
{ACAD_REACTORS
330
C
102
}
330
C
100
AcDbDictionary
281
     1
  3
CTABLESTYLE
350
154F
  3
DIMADEC
350
56
  0
DICTIONARY
  5
1575
102
{ACAD_REACTORS
330
1574
102
}
330
1574
100
AcDbDictionary
281
     1
  0
LAYOUT
  5
FC7
102
{ACAD_REACTORS
330
FC4
102
}
102
{ACAD_XDICTIONARY
360
16BE
102
}
330
FC4
100
AcDbPlotSettings
  1

  2
Client\ssd-helder#\hp psc 2100 series [UPD:PCL4]
  4

  6

 40
0.0
 41
0.0
 42
0.0
 43
0.0
 44
0.0
 45
0.0
 46
0.0
 47
0.0
 48
0.0
 49
0.0
140
0.0
141
0.0
142
1.0
143
1.0
 70
   688
 72
     0
 73
     0
 74
     5
  7
monochrome.ctb
 75
    16
147
1.0
148
0.0
149
0.0
100
AcDbLayout
  1
Layout1
 70
     0
 71
     1
 10
0.0
 20
0.0
 11
12.0
 21
9.0
 12
0.0
 22
0.0
 32
0.0
 14
1.000000000000000E+20
 24
1.000000000000000E+20
 34
1.000000000000000E+20
 15
-1.000000000000000E+20
 25
-1.000000000000000E+20
 35
-1.000000000000000E+20
146
0.0
 13
0.0
 23
0.0
 33
0.0
 16
1.0
 26
0.0
 36
0.0
 17
0.0
 27
1.0
 37
0.0
 76
     0
330
14
  0
LAYOUT
  5
FC6
102
{ACAD_REACTORS
330
FC4
102
}
102
{ACAD_XDICTIONARY
360
16C0
102
}
330
FC4
100
AcDbPlotSettings
  1

  2
HP LaserJet 2100 Series PS
  4
Letter
  6

 40
5.365749835968018
 41
5.408073902130127
 42
5.132904052734375
 43
5.090576171875
 44
215.8999938964844
 45
279.3999938964844
 46
0.0
 47
0.0
 48
0.0
 49
0.0
140
0.0
141
0.0
142
1.0
143
3.967254253308121
 70
 11952
 72
     0
 73
     3
 74
     2
  7
monochrome.ctb
 75
     0
147
0.2520635018958373
148
0.0
149
0.0
100
AcDbLayout
  1
Model
 70
     1
 71
     0
 10
0.0
 20
0.0
 11
12.0
 21
9.0
 12
0.0
 22
0.0
 32
0.0
 14
0.0
 24
0.0
 34
0.0
 15
0.0
 25
0.0
 35
0.0
146
0.0
 13
0.0
 23
0.0
 33
0.0
 16
1.0
 26
0.0
 36
0.0
 17
0.0
 27
1.0
 37
0.0
 76
     0
330
17
1001
ACAD_PSEXT
1000
HP LaserJet 2100 Series PS
1000
HP LaserJet 2100 Series PS
1000
LPT1:
1000

1070
     0
  0
MLINESTYLE
  5
1B
102
{ACAD_REACTORS
330
1A
102
}
330
1A
100
AcDbMlineStyle
  2
STANDARD
 70
     0
  3

 62
   256
 51
90.0
 52
90.0
 71
     2
 49
0.5
 62
   256
  6
BYLAYER
 49
-0.5
 62
   256
  6
BYLAYER
  0
ACDBPLACEHOLDER
  5
FC3
102
{ACAD_REACTORS
330
FC2
102
}
330
FC2
  0
ACAD_PROXY_OBJECT
  5
118C
102
{ACAD_REACTORS
330
118B
102
}
330
118B
100
AcDbProxyObject
 90
      499
 91
      521
 95
   983063
 70
     0
 93
     1841
310
4214DD185B99185C9928B81E85EB51B8AE3F2E07A17AD46E2B8FC02B5E8DC0F42B1CFD028000000C1008070000C3001FDFF8000000C1003FBFF000000182007F7FE00000030400FEFFC00000060801FDFF8000000C1003FBFF00000018200000000000000681FA0B0000001820100E000186003FBFF000000182007F7FE000
310
00030400FEFFC00000060801FDFF8000000C1003FBFF000000182007F7FE000000304000AD7A3703D0AC73F4160000003040201C00030C007F7FE00000030400FEFFC00000060801FDFF8000000C1003FBFF000000182007F7FE00000030400FEFFC000000608000
340
F
340
F
340
F
 94
        0
  0
XRECORD
  5
16BC
102
{ACAD_REACTORS
330
16BB
102
}
330
16BB
100
AcDbXrecord
340
118A
  0
XRECORD
  5
16BD
102
{ACAD_REACTORS
330
16BB
102
}
330
16BB
100
AcDbXrecord
340
1189
  0
DICTIONARYVAR
  5
154F
102
{ACAD_REACTORS
330
55
102
}
330
55
100
DictionaryVariables
280
     0
  1
STANDARD
  0
DICTIONARYVAR
  5
56
102
{ACAD_REACTORS
330
55
102
}
330
55
100
DictionaryVariables
280
     0
  1
0
  0
DICTIONARY
  5
16BE
330
FC7
100
AcDbDictionary
280
     1
281
     1
  3
ACAD_XREC_ROUNDTRIP
360
16BF
  0
DICTIONARY
  5
16C0
330
FC6
100
AcDbDictionary
280
     1
281
     1
  3
ACAD_XREC_ROUNDTRIP
360
16C1
  0
XRECORD
  5
16BF
102
{ACAD_REACTORS
330
16BE
102
}
330
16BE
100
AcDbXrecord
102
SHADEPLOT
 70
     0
102
SHADEPLOTRESLEVEL
 70
     2
102
SHADEPLOTCUSTOMDPI
 70
   300
  0
XRECORD
  5
16C1
102
{ACAD_REACTORS
330
16C0
102
}
330
16C0
100
AcDbXrecord
102
SHADEPLOT
 70
     0
102
SHADEPLOTRESLEVEL
 70
     2
102
SHADEPLOTCUSTOMDPI
 70
   300
  0
ENDSEC
  0
EOF
