  0
SECTION
  2
HEADER
  9
$ACADVER
  1
AC1015
  9
$ACADMAINTVER
 70
     6
  9
$DWGCODEPAGE
  3
ANSI_1252
  9
$INSBASE
 10
0.0
 20
0.0
 30
0.0
  9
$EXTMIN
 10
-17.02062680514872
 20
-9.638476746715664
 30
0.0
  9
$EXTMAX
 10
17.61866335299473
 20
18.37747605124512
 30
0.0
  9
$LIMMIN
 10
0.0
 20
0.0
  9
$LIMMAX
 10
42.0
 20
32.0
  9
$ORTHOMODE
 70
     1
  9
$REGENMODE
 70
     1
  9
$FILLMODE
 70
     1
  9
$QTEXTMODE
 70
     0
  9
$MIRRTEXT
 70
     1
  9
$LTSCALE
 40
1.0
  9
$ATTMODE
 70
     1
  9
$TEXTSIZE
 40
0.3600000000000039
  9
$TRACEWID
 40
0.05
  9
$TEXTSTYLE
  7
STANDARD
  9
$CLAYER
  8
OBJECT
  9
$CELTYPE
  6
BYLAYER
  9
$CECOLOR
 62
   256
  9
$CELTSCALE
 40
1.0
  9
$DISPSILH
 70
     0
  9
$DIMSCALE
 40
4.000000000000049
  9
$DIMASZ
 40
0.125
  9
$DIMEXO
 40
0.062
  9
$DIMDLI
 40
0.375
  9
$DIMRND
 40
0.0
  9
$DIMDLE
 40
0.0
  9
$DIMEXE
 40
0.08
  9
$DIMTP
 40
0.0
  9
$DIMTM
 40
0.0
  9
$DIMTXT
 40
0.09
  9
$DIMCEN
 40
-0.06
  9
$DIMTSZ
 40
0.0
  9
$DIMTOL
 70
     0
  9
$DIMLIM
 70
     0
  9
$DIMTIH
 70
     1
  9
$DIMTOH
 70
     1
  9
$DIMSE1
 70
     0
  9
$DIMSE2
 70
     0
  9
$DIMTAD
 70
     0
  9
$DIMZIN
 70
     0
  9
$DIMBLK
  1

  9
$DIMASO
 70
     0
  9
$DIMSHO
 70
     0
  9
$DIMPOST
  1

  9
$DIMAPOST
  1

  9
$DIMALT
 70
     0
  9
$DIMALTD
 70
     2
  9
$DIMALTF
 40
25.4
  9
$DIMLFAC
 40
1.0
  9
$DIMTOFL
 70
     0
  9
$DIMTVP
 40
0.0
  9
$DIMTIX
 70
     0
  9
$DIMSOXD
 70
     0
  9
$DIMSAH
 70
     0
  9
$DIMBLK1
  1

  9
$DIMBLK2
  1

  9
$DIMSTYLE
  2
STANDARD
  9
$DIMCLRD
 70
     0
  9
$DIMCLRE
 70
     0
  9
$DIMCLRT
 70
     0
  9
$DIMTFAC
 40
1.0
  9
$DIMGAP
 40
0.09375
  9
$DIMJUST
 70
     0
  9
$DIMSD1
 70
     0
  9
$DIMSD2
 70
     0
  9
$DIMTOLJ
 70
     1
  9
$DIMTZIN
 70
     0
  9
$DIMALTZ
 70
     0
  9
$DIMALTTZ
 70
     0
  9
$DIMUPT
 70
     0
  9
$DIMDEC
 70
     5
  9
$DIMTDEC
 70
     5
  9
$DIMALTU
 70
     5
  9
$DIMALTTD
 70
     2
  9
$DIMTXSTY
  7
STANDARD
  9
$DIMAUNIT
 70
     0
  9
$DIMADEC
 70
     0
  9
$DIMALTRND
 40
0.0
  9
$DIMAZIN
 70
     0
  9
$DIMDSEP
 70
    46
  9
$DIMATFIT
 70
     3
  9
$DIMFRAC
 70
     2
  9
$DIMLDRBLK
  1

  9
$DIMLUNIT
 70
     5
  9
$DIMLWD
 70
    -2
  9
$DIMLWE
 70
    -2
  9
$DIMTMOVE
 70
     2
  9
$LUNITS
 70
     5
  9
$LUPREC
 70
     5
  9
$SKETCHINC
 40
0.1
  9
$FILLETRAD
 40
0.0
  9
$AUNITS
 70
     0
  9
$AUPREC
 70
     0
  9
$MENU
  1
acad
  9
$ELEVATION
 40
0.0
  9
$PELEVATION
 40
0.0
  9
$THICKNESS
 40
0.0
  9
$LIMCHECK
 70
     0
  9
$CHAMFERA
 40
0.0
  9
$CHAMFERB
 40
0.0
  9
$CHAMFERC
 40
0.0
  9
$CHAMFERD
 40
0.0
  9
$SKPOLY
 70
     0
  9
$TDCREATE
 40
2450826.961684144
  9
$TDUCREATE
 40
2450827.295017477
  9
$TDUPDATE
 40
2454949.663899132
  9
$TDUUPDATE
 40
2454949.997232465
  9
$TDINDWG
 40
0.1997856481
  9
$TDUSRTIMER
 40
0.1997856481
  9
$USRTIMER
 70
     1
  9
$ANGBASE
 50
0.0
  9
$ANGDIR
 70
     0
  9
$PDMODE
 70
     0
  9
$PDSIZE
 40
0.0
  9
$PLINEWID
 40
0.0
  9
$SPLFRAME
 70
     0
  9
$SPLINETYPE
 70
     6
  9
$SPLINESEGS
 70
     8
  9
$HANDSEED
  5
16C2
  9
$SURFTAB1
 70
     6
  9
$SURFTAB2
 70
     6
  9
$SURFTYPE
 70
     6
  9
$SURFU
 70
     6
  9
$SURFV
 70
     6
  9
$UCSBASE
  2

  9
$UCSNAME
  2

  9
$UCSORG
 10
0.0
 20
0.0
 30
0.0
  9
$UCSXDIR
 10
1.0
 20
0.0
 30
0.0
  9
$UCSYDIR
 10
0.0
 20
1.0
 30
0.0
  9
$UCSORTHOREF
  2

  9
$UCSORTHOVIEW
 70
     0
  9
$UCSORGTOP
 10
0.0
 20
0.0
 30
0.0
  9
$UCSORGBOTTOM
 10
0.0
 20
0.0
 30
0.0
  9
$UCSORGLEFT
 10
0.0
 20
0.0
 30
0.0
  9
$UCSORGRIGHT
 10
0.0
 20
0.0
 30
0.0
  9
$UCSORGFRONT
 10
0.0
 20
0.0
 30
0.0
  9
$UCSORGBACK
 10
0.0
 20
0.0
 30
0.0
  9
$PUCSBASE
  2

  9
$PUCSNAME
  2

  9
$PUCSORG
 10
0.0
 20
0.0
 30
0.0
  9
$PUCSXDIR
 10
1.0
 20
0.0
 30
0.0
  9
$PUCSYDIR
 10
0.0
 20
1.0
 30
0.0
  9
$PUCSORTHOREF
  2

  9
$PUCSORTHOVIEW
 70
     0
  9
$PUCSORGTOP
 10
0.0
 20
0.0
 30
0.0
  9
$PUCSORGBOTTOM
 10
0.0
 20
0.0
 30
0.0
  9
$PUCSORGLEFT
 10
0.0
 20
0.0
 30
0.0
  9
$PUCSORGRIGHT
 10
0.0
 20
0.0
 30
0.0
  9
$PUCSORGFRONT
 10
0.0
 20
0.0
 30
0.0
  9
$PUCSORGBACK
 10
0.0
 20
0.0
 30
0.0
  9
$USERI1
 70
     0
  9
$USERI2
 70
     0
  9
$USERI3
 70
     0
  9
$USERI4
 70
     0
  9
$USERI5
 70
     0
  9
$USERR1
 40
0.0
  9
$USERR2
 40
0.0
  9
$USERR3
 40
0.0
  9
$USERR4
 40
0.0
  9
$USERR5
 40
0.0
  9
$WORLDVIEW
 70
     1
  9
$SHADEDGE
 70
     3
  9
$SHADEDIF
 70
    70
  9
$TILEMODE
 70
     1
  9
$MAXACTVP
 70
    16
  9
$PINSBASE
 10
0.0
 20
0.0
 30
0.0
  9
$PLIMCHECK
 70
     0
  9
$PEXTMIN
 10
1.000000000000000E+20
 20
1.000000000000000E+20
 30
1.000000000000000E+20
  9
$PEXTMAX
 10
-1.000000000000000E+20
 20
-1.000000000000000E+20
 30
-1.000000000000000E+20
  9
$PLIMMIN
 10
0.0
 20
0.0
  9
$PLIMMAX
 10
12.0
 20
9.0
  9
$UNITMODE
 70
     0
  9
$VISRETAIN
 70
     0
  9
$PLINEGEN
 70
     0
  9
$PSLTSCALE
 70
     0
  9
$TREEDEPTH
 70
  3020
  9
$CMLSTYLE
  2
STANDARD
  9
$CMLJUST
 70
     0
  9
$CMLSCALE
 40
1.0
  9
$PROXYGRAPHICS
 70
     1
  9
$MEASUREMENT
 70
     0
  9
$CELWEIGHT
370
    -1
  9
$ENDCAPS
280
     0
  9
$JOINSTYLE
280
     0
  9
$LWDISPLAY
290
     0
  9
$INSUNITS
 70
     0
  9
$HYPERLINKBASE
  1

  9
$STYLESHEET
  1
monochrome.ctb
  9
$XEDIT
290
     1
  9
$CEPSNTYPE
380
     0
  9
$PSTYLEMODE
290
     1
  9
$FINGERPRINTGUID
  2
{2CA71EE1-36F2-4614-91C8-BF01B02B4C89}
  9
$VERSIONGUID
  2
{2A8B6BAC-9C1B-47A3-AEF2-5AAE7F4EE1FD}
  9
$EXTNAMES
290
     1
  9
$PSVPSCALE
 40
0.0
  9
$OLESTARTUP
290
     0
  0
ENDSEC
  0
SECTION
  2
CLASSES
  0
CLASS
  1
DICTIONARYVAR
  2
AcDbDictionaryVar
  3
AutoCAD 2000
 90
        0
280
     0
281
     0
  0
CLASS
  1
LWPOLYLINE
  2
AcDbPolyline
  3
AutoCAD 2000
 90
        0
280
     0
281
     1
  0
CLASS
  1
ACDBDICTIONARYWDFLT
  2
AcDbDictionaryWithDefault
  3
AutoCAD 2000
 90
        0
280
     0
281
     0
  0
CLASS
  1
ACDBPLACEHOLDER
  2
AcDbPlaceHolder
  3
ObjectDBX Classes
 90
        0
280
     0
281
     0
  0
CLASS
  1
LAYOUT
  2
AcDbLayout
  3
ObjectDBX Classes
 90
        0
280
     0
281
     0
  0
CLASS
  1
LONG_TRANSACTION
  2
AcDbLongTransaction
  3
ObjectDBX Classes
 90
   -65536
280
     1
281
     0
  0
CLASS
  1
LWPOLYLINE
  2
AcDbPolyline
  3
AutoCAD 2000
 90
        0
280
     0
281
     1
  0
CLASS
  1
HATCH
  2
AcDbHatch
  3
AutoCAD 2000
 90
        0
280
     0
281
     1
  0
CLASS
  1
XRECORD
  2
AcDbXrecord
  3
AutoCAD 2000
 90
        0
280
     0
281
     0
  0
CLASS
  1
LONG_TRANSACTION
  2
AcDbLongTransaction
  3
ObjectDBX Classes
 90
   -65536
280
     1
281
     0
  0
CLASS
  1
LWPOLYLINE
  2
AcDbPolyline
  3
AutoCAD 2000
 90
        0
280
     0
281
     1
  0
CLASS
  1
HATCH
  2
AcDbHatch
  3
AutoCAD 2000
 90
        0
280
     0
281
     1
  0
CLASS
  1
XRECORD
  2
AcDbXrecord
  3
AutoCAD 2000
 90
        0
280
     0
281
     0
  0
CLASS
  1
LONG_TRANSACTION
  2
AcDbLongTransaction
  3
ObjectDBX Classes
 90
   -65536
280
     1
281
     0
  0
CLASS
  1
LWPOLYLINE
  2
AcDbPolyline
  3
AutoCAD 2000
 90
        0
280
     0
281
     1
  0
CLASS
  1
HATCH
  2
AcDbHatch
  3
AutoCAD 2000
 90
        0
280
     0
281
     1
  0
CLASS
  1
XRECORD
  2
AcDbXrecord
  3
AutoCAD 2000
 90
        0
280
     0
281
     0
  0
CLASS
  1
LONG_TRANSACTION
  2
AcDbLongTransaction
  3
ObjectDBX Classes
 90
   -65536
280
     1
281
     0
  0
CLASS
  1
LWPOLYLINE
  2
AcDbPolyline
  3
AutoCAD 2000
 90
        0
280
     0
281
     1
  0
CLASS
  1
HATCH
  2
AcDbHatch
  3
AutoCAD 2000
 90
        0
280
     0
281
     1
  0
CLASS
  1
XRECORD
  2
AcDbXrecord
  3
AutoCAD 2000
 90
        0
280
     0
281
     0
  0
CLASS
  1
TABLESTYLE
  2
AcDbTableStyle
  3
ObjectDBX Classes
 90
     2047
280
     1
281
     0
  0
CLASS
  1
SORTENTSTABLE
  2
AcDbSortentsTable
  3
AutoCAD 2000
 90
        0
280
     0
281
     0
  0
ENDSEC
  0
SECTION
  2
TABLES
  0
TABLE
  2
VPORT
  5
8
330
0
100
AcDbSymbolTable
 70
     3
  0
VPORT
  5
16B4
330
8
100
AcDbSymbolTableRecord
100
AcDbViewportTableRecord
  2
*Active
 70
     0
 10
0.0
 20
0.0
 11
1.0
 21
1.0
 12
5.064809143722542
 22
3.3156853922689
 13
0.0
 23
0.0
 14
0.03125
 24
0.03125
 15
0.03125
 25
0.03125
 16
0.0
 26
0.0
 36
1.0
 17
0.0
 27
0.0
 37
0.0
 40
42.14484949780159
 41
1.77079107505071
 42
50.0
 43
0.0
 44
0.0
 50
0.0
 51
0.0
 71
     0
 72
   100
 73
     1
 74
     0
 75
     0
 76
     0
 77
     0
 78
     0
281
     0
 65
     1
110
0.0
120
0.0
130
0.0
111
1.0
121
0.0
131
0.0
112
0.0
122
1.0
132
0.0
 79
     0
146
0.0
  0
ENDTAB
  0
TABLE
  2
LTYPE
  5
5
330
0
100
AcDbSymbolTable
 70
     2
  0
LTYPE
  5
11
330
5
100
AcDbSymbolTableRecord
100
AcDbLinetypeTableRecord
  2
BYBLOCK
 70
     0
  3

 72
    65
 73
     0
 40
0.0
  0
LTYPE
  5
12
330
5
100
AcDbSymbolTableRecord
100
AcDbLinetypeTableRecord
  2
BYLAYER
 70
     0
  3

 72
    65
 73
     0
 40
0.0
  0
LTYPE
  5
13
330
5
100
AcDbSymbolTableRecord
100
AcDbLinetypeTableRecord
  2
CONTINUOUS
 70
     0
  3
Solid line
 72
    65
 73
     0
 40
0.0
  0
LTYPE
  5
37
330
5
100
AcDbSymbolTableRecord
100
AcDbLinetypeTableRecord
  2
HIDDEN
 70
     0
  3
_ _ _ _ _ _ _ _ _ _ _ _ _ _ _ _ _ _ _ _ _ _ _
 72
    65
 73
     2
 40
0.375
 49
0.25
 74
     0
 49
-0.125
 74
     0
  0
ENDTAB
  0
TABLE
  2
LAYER
  5
2
102
{ACAD_XDICTIONARY
360
1574
102
}
330
0
100
AcDbSymbolTable
 70
     3
  0
LAYER
  5
E
330
2
100
AcDbSymbolTableRecord
100
AcDbLayerTableRecord
  2
0
 70
     0
 62
     7
  6
CONTINUOUS
370
    -3
390
FC3
  0
LAYER
  5
44
330
2
100
AcDbSymbolTableRecord
100
AcDbLayerTableRecord
  2
OBJECT
 70
     0
 62
     7
  6
CONTINUOUS
370
    -3
390
FC3
  0
LAYER
  5
46
330
2
100
AcDbSymbolTableRecord
100
AcDbLayerTableRecord
  2
HIDDEN
 70
     0
 62
     8
  6
HIDDEN
370
    -3
390
FC3
  0
ENDTAB
  0
TABLE
  2
STYLE
  5
3
330
0
100
AcDbSymbolTable
 70
     1
  0
STYLE
  5
F
330
3
100
AcDbSymbolTableRecord
100
AcDbTextStyleTableRecord
  2
STANDARD
 70
     0
 40
0.0
 41
1.0
 50
0.0
 71
     0
 42
0.3600000000000039
  3
TXT
  4

  0
ENDTAB
  0
TABLE
  2
VIEW
  5
6
330
0
100
AcDbSymbolTable
 70
     0
  0
ENDTAB
  0
TABLE
  2
UCS
  5
7
330
0
100
AcDbSymbolTable
 70
     0
  0
ENDTAB
  0
TABLE
  2
APPID
  5
9
330
0
100
AcDbSymbolTable
 70
     2
  0
APPID
  5
10
330
9
100
AcDbSymbolTableRecord
100
AcDbRegAppTableRecord
  2
ACAD
 70
     0
  0
APPID
  5
119A
330
9
100
AcDbSymbolTableRecord
100
AcDbRegAppTableRecord
  2
ACAD_PSEXT
 70
     0
  0
ENDTAB
  0
TABLE
  2
DIMSTYLE
  5
A
330
0
100
AcDbSymbolTable
 70
     1
100
AcDbDimStyleTable
  0
DIMSTYLE
105
987
330
A
100
AcDbSymbolTableRecord
100
AcDbDimStyleTableRecord
  2
STANDARD
 70
     0
  3

  4

340
F
  0
ENDTAB
  0
TABLE
  2
BLOCK_RECORD
  5
1
330
0
100
AcDbSymbolTable
 70
     0
  0
BLOCK_RECORD
  5
17
330
1
100
AcDbSymbolTableRecord
100
AcDbBlockTableRecord
  2
*MODEL_SPACE
340
FC6
  0
BLOCK_RECORD
  5
14
330
1
100
AcDbSymbolTableRecord
100
AcDbBlockTableRecord
  2
*PAPER_SPACE
340
FC7
  0
ENDTAB
  0
ENDSEC
  0
SECTION
  2
BLOCKS
  0
BLOCK
  5
53
330
17
100
AcDbEntity
  8
0
100
AcDbBlockBegin
  2
*MODEL_SPACE
 70
     0
 10
0.0
 20
0.0
 30
0.0
  3
*MODEL_SPACE
  1

  4

  0
ENDBLK
  5
54
330
17
100
AcDbEntity
  8
0
100
AcDbBlockEnd
  0
BLOCK
  5
51
330
14
100
AcDbEntity
 67
     1
  8
0
100
AcDbBlockBegin
  2
*PAPER_SPACE
 70
     0
 10
0.0
 20
0.0
 30
0.0
  3
*PAPER_SPACE
  1

  4

  0
ENDBLK
  5
52
330
14
100
AcDbEntity
 67
     1
  8
0
100
AcDbBlockEnd
  0
ENDSEC
  0
SECTION
  2
ENTITIES
  0
TEXT
  5
96A
330
17
100
AcDbEntity
  8
0
 62
     4
100
AcDbText
 10
18.81414654005476
 20
12.57487102028665
 30
0.0
 40
0.36
  1

 72
     4
 11
18.81414654005476
 21
12.57487102028665
 31
0.0
100
AcDbText
  0
TEXT
  5
96B
330
17
100
AcDbEntity
  8
0
 62
     4
100
AcDbText
 10
18.81414654005476
 20
12.06052504721037
 30
0.0
 40
0.36
  1

 72
     4
 11
18.81414654005476
 21
12.06052504721037
 31
0.0
100
AcDbText
  0
ARC
  5
CE9
330
17
100
AcDbEntity
  8
HIDDEN
100
AcDbCircle
 10
1.5596638466718
 20
14.74847605124511
 30
0.0
 40
0.5315
100
AcDbArc
 50
90.0
 51
270.0
  0
LINE
  5
CEB
330
17
100
AcDbEntity
  8
0
100
AcDbLine
 10
-3.502336153328191
 20
11.2484758883515
 30
0.0
 11
3.997663846671809
 21
11.2484758883515
 31
0.0
  0
LINE
  5
CEC
330
17
100
AcDbEntity
  8
0
100
AcDbLine
 10
-3.127336153328194
 20
11.11947588835148
 30
0.0
 11
3.622663846671804
 21
11.1194758883515
 31
0.0
  0
LINE
  5
CED
330
17
100
AcDbEntity
  8
0
100
AcDbLine
 10
-3.127336153328194
 20
18.3774760512451
 30
0.0
 11
3.622663846671806
 21
18.37747605124512
 31
0.0
  0
LINE
  5
CEE
330
17
100
AcDbEntity
  8
0
100
AcDbLine
 10
-3.631336153328185
 20
18.2484758883515
 30
0.0
 11
4.126663846671795
 21
18.2484758883515
 31
0.0
  0
LINE
  5
CF2
330
17
100
AcDbEntity
  8
0
100
AcDbLine
 10
-3.631336153328185
 20
18.2484758883515
 30
0.0
 11
-3.631336153328189
 21
11.2484758883515
 31
0.0
  0
LINE
  5
CF3
330
17
100
AcDbEntity
  8
0
100
AcDbLine
 10
-3.502336153328191
 20
18.24847621413873
 30
0.0
 11
-3.502336153328187
 21
11.2484758883515
 31
0.0
  0
LINE
  5
D02
330
17
100
AcDbEntity
  8
0
100
AcDbLine
 10
-3.502336153328205
 20
11.2484758883515
 30
0.0
 11
-3.631336153328196
 21
11.2484758883515
 31
0.0
  0
LINE
  5
D03
330
17
100
AcDbEntity
  8
0
100
AcDbLine
 10
-3.502336153328205
 20
11.4984758883515
 30
0.0
 11
-3.631336153328196
 21
11.4984758883515
 31
0.0
  0
LINE
  5
D05
330
17
100
AcDbEntity
  8
0
100
AcDbLine
 10
-3.127336153328194
 20
11.11947588835148
 30
0.0
 11
-3.127336153328194
 21
11.24847605124512
 31
0.0
  0
ARC
  5
D06
330
17
100
AcDbEntity
  8
HIDDEN
100
AcDbCircle
 10
-1.064336153328188
 20
14.74847605124511
 30
0.0
 40
0.5315
100
AcDbArc
 50
270.0
 51
90.0
  0
ARC
  5
D07
330
17
100
AcDbEntity
  8
HIDDEN
100
AcDbCircle
 10
-1.814336153328188
 20
14.74847605124511
 30
0.0
 40
0.5315
100
AcDbArc
 50
90.0
 51
270.0
  0
LINE
  5
D08
330
17
100
AcDbEntity
  8
HIDDEN
100
AcDbLine
 10
-1.064336153328188
 20
14.21697605124511
 30
0.0
 11
-1.814336153328188
 21
14.21697605124511
 31
0.0
  0
LINE
  5
D09
330
17
100
AcDbEntity
  8
HIDDEN
100
AcDbLine
 10
-1.814336153328188
 20
15.27997605124511
 30
0.0
 11
-1.064336153328188
 21
15.27997605124511
 31
0.0
  0
LINE
  5
D10
330
17
100
AcDbEntity
  8
0
100
AcDbLine
 10
-3.502336153328201
 20
17.9984758883515
 30
0.0
 11
-3.631336153328192
 21
17.9984758883515
 31
0.0
  0
LINE
  5
D15
330
17
100
AcDbEntity
  8
0
100
AcDbLine
 10
-3.127336153328194
 20
18.24847605124511
 30
0.0
 11
-3.127336153328194
 21
18.3774760512451
 31
0.0
  0
LINE
  5
D1C
330
17
100
AcDbEntity
  8
0
100
AcDbLine
 10
4.126663846671795
 20
18.2484758883515
 30
0.0
 11
4.126663846671807
 21
11.2484758883515
 31
0.0
  0
LINE
  5
D1D
330
17
100
AcDbEntity
  8
0
100
AcDbLine
 10
3.997663846671795
 20
18.2484758883515
 30
0.0
 11
3.997663846671809
 21
11.2484758883515
 31
0.0
  0
LINE
  5
D2D
330
17
100
AcDbEntity
  8
0
100
AcDbLine
 10
3.622663846671804
 20
11.1194758883515
 30
0.0
 11
3.622663846671806
 21
11.24847605124512
 31
0.0
  0
LINE
  5
D2E
330
17
100
AcDbEntity
  8
0
100
AcDbLine
 10
3.997663846671809
 20
11.2484758883515
 30
0.0
 11
4.1266638466718
 21
11.2484758883515
 31
0.0
  0
LINE
  5
D2F
330
17
100
AcDbEntity
  8
0
100
AcDbLine
 10
3.997663846671809
 20
11.4984758883515
 30
0.0
 11
4.1266638466718
 21
11.4984758883515
 31
0.0
  0
ARC
  5
D30
330
17
100
AcDbEntity
  8
HIDDEN
100
AcDbCircle
 10
2.3096638466718
 20
14.74847605124511
 30
0.0
 40
0.5315
100
AcDbArc
 50
270.0
 51
90.0
  0
LINE
  5
D31
330
17
100
AcDbEntity
  8
HIDDEN
100
AcDbLine
 10
1.5596638466718
 20
14.21697605124511
 30
0.0
 11
2.3096638466718
 21
14.21697605124511
 31
0.0
  0
LINE
  5
D32
330
17
100
AcDbEntity
  8
HIDDEN
100
AcDbLine
 10
2.3096638466718
 20
15.27997605124511
 30
0.0
 11
1.5596638466718
 21
15.27997605124511
 31
0.0
  0
LINE
  5
D70
330
17
100
AcDbEntity
  8
0
100
AcDbLine
 10
3.997663846671811
 20
17.9984758883515
 30
0.0
 11
4.126663846671802
 21
17.9984758883515
 31
0.0
  0
LINE
  5
D73
330
17
100
AcDbEntity
  8
0
100
AcDbLine
 10
3.622663846671808
 20
18.24847605124511
 30
0.0
 11
3.622663846671806
 21
18.37747605124512
 31
0.0
  0
LINE
  5
EA3
330
17
100
AcDbEntity
  8
0
100
AcDbLine
 10
-3.283586153328194
 20
16.1240491493805
 30
0.0
 11
-3.283586153328187
 21
13.17989776856125
 31
0.0
  0
LINE
  5
EA4
330
17
100
AcDbEntity
  8
0
100
AcDbLine
 10
-3.221317357547939
 20
16.0776240526112
 30
0.0
 11
-3.221317357547932
 21
13.22632286533055
 31
0.0
  0
LINE
  5
EA5
330
17
100
AcDbEntity
  8
0
100
AcDbLine
 10
3.778913846671799
 20
16.1240491493805
 30
0.0
 11
3.778913846671804
 21
13.17989776856125
 31
0.0
  0
LINE
  5
EA6
330
17
100
AcDbEntity
  8
0
100
AcDbLine
 10
3.716645050891543
 20
16.0776240526112
 30
0.0
 11
3.716645050891549
 21
13.22632286533055
 31
0.0
  0
LINE
  5
EA7
330
17
100
AcDbEntity
  8
0
100
AcDbLine
 10
-1.213661938465499
 20
11.35509631280604
 30
0.0
 11
1.70898963180912
 21
11.35509631280604
 31
0.0
  0
LINE
  5
EA8
330
17
100
AcDbEntity
  8
0
100
AcDbLine
 10
1.733263621998077
 20
11.29259631280604
 30
0.0
 11
-1.237935928654459
 21
11.29259631280604
 31
0.0
  0
LINE
  5
EA9
330
17
100
AcDbEntity
  8
HIDDEN
100
AcDbLine
 10
-3.165149344172981
 20
13.15122343063302
 30
0.0
 11
-0.3968821975326673
 21
12.30464186153289
 31
0.0
  0
LINE
  5
EAA
330
17
100
AcDbEntity
  8
HIDDEN
100
AcDbLine
 10
-3.227518986771266
 20
13.10470053361244
 30
0.0
 11
-0.4147000752312309
 21
12.24473549096749
 31
0.0
  0
LINE
  5
EAB
330
17
100
AcDbEntity
  8
0
100
AcDbLine
 10
-1.360026024870887
 20
11.41759631280604
 30
0.0
 11
-2.805060952527068
 21
11.41759631280604
 31
0.0
  0
LINE
  5
EAC
330
17
100
AcDbEntity
  8
0
100
AcDbLine
 10
-3.158614343120334
 20
11.77114970339931
 30
0.0
 11
-3.158614343120334
 21
13.03535656356693
 31
0.0
  0
ARC
  5
EAD
330
17
100
AcDbEntity
  8
0
100
AcDbCircle
 10
-3.206956895260333
 20
13.17865578561562
 30
0.0
 40
0.076639322241697
100
AcDbArc
 50
179.0714493031827
 51
254.5153011669098
  0
ARC
  5
EAE
330
17
100
AcDbEntity
  8
0
100
AcDbCircle
 10
-3.221114343120338
 20
13.12185060513571
 30
0.0
 40
0.109000000000004
100
AcDbArc
 50
304.9872750882498
 51
7.065254714538659
  0
ARC
  5
EAF
330
17
100
AcDbEntity
  8
0
100
AcDbCircle
 10
-3.221114343120334
 20
13.12185060513571
 30
0.0
 40
0.109
100
AcDbArc
 50
7.065254714556792
 51
90.10671446428285
  0
ARC
  5
EB0
330
17
100
AcDbEntity
  8
0
100
AcDbCircle
 10
-3.144688099480078
 20
13.22508088238492
 30
0.0
 40
0.076639322241697
100
AcDbArc
 50
179.0714493031827
 51
254.5153011669098
  0
LINE
  5
EB1
330
17
100
AcDbEntity
  8
HIDDEN
100
AcDbLine
 10
-2.422968239994788
 20
12.30245946651169
 30
0.0
 11
-1.318686852793221
 21
11.38318286148596
 31
0.0
  0
LINE
  5
EB2
330
17
100
AcDbEntity
  8
HIDDEN
100
AcDbLine
 10
-2.463870859490129
 20
12.25380223346599
 30
0.0
 11
-1.34296084298218
 21
11.32068286148596
 31
0.0
  0
ARC
  5
EB3
330
17
100
AcDbEntity
  8
0
100
AcDbCircle
 10
-1.249614461607166
 20
11.45933116348792
 30
0.0
 40
0.1671433473514128
100
AcDbArc
 50
236.0491872576975
 51
274.0065985836332
  0
ARC
  5
EB4
330
17
100
AcDbEntity
  8
0
100
AcDbCircle
 10
-1.298614343120335
 20
11.35509631280604
 30
0.0
 40
0.109
100
AcDbArc
 50
0.0
 51
135.6227184505549
  0
ARC
  5
EB5
330
17
100
AcDbEntity
  8
0
100
AcDbCircle
 10
-1.225340471418207
 20
11.52183116348792
 30
0.0
 40
0.1671433473514128
100
AcDbArc
 50
236.0491872576975
 51
274.0065985836332
  0
LINE
  5
EB6
330
17
100
AcDbEntity
  8
HIDDEN
100
AcDbLine
 10
-2.463870859490129
 20
12.25380223346599
 30
0.0
 11
-2.422968239994788
 21
12.30245946651169
 31
0.0
  0
LINE
  5
EB7
330
17
100
AcDbEntity
  8
0
100
AcDbLine
 10
1.855353718214499
 20
11.41759631280604
 30
0.0
 11
3.30038864587068
 21
11.41759631280604
 31
0.0
  0
LINE
  5
EB8
330
17
100
AcDbEntity
  8
HIDDEN
100
AcDbLine
 10
2.918295933338408
 20
12.30245946651169
 30
0.0
 11
1.814014546136841
 21
11.38318286148596
 31
0.0
  0
LINE
  5
EB9
330
17
100
AcDbEntity
  8
HIDDEN
100
AcDbLine
 10
2.959198552833747
 20
12.25380223346599
 30
0.0
 11
1.838288536325797
 21
11.32068286148596
 31
0.0
  0
LINE
  5
EBA
330
17
100
AcDbEntity
  8
HIDDEN
100
AcDbLine
 10
3.722846680114884
 20
13.10470053361244
 30
0.0
 11
0.9100277685748495
 21
12.24473549096749
 31
0.0
  0
LINE
  5
EBB
330
17
100
AcDbEntity
  8
HIDDEN
100
AcDbLine
 10
3.6604770375166
 20
13.15122343063302
 30
0.0
 11
0.8922098908762859
 21
12.30464186153289
 31
0.0
  0
LINE
  5
EBC
330
17
100
AcDbEntity
  8
HIDDEN
100
AcDbLine
 10
-0.4147000752271488
 20
12.24473549096967
 30
0.0
 11
-0.3968821975326673
 21
12.30464186153289
 31
0.0
  0
ARC
  5
EBD
330
17
100
AcDbEntity
  8
0
100
AcDbCircle
 10
1.744942154950785
 20
11.45933116348792
 30
0.0
 40
0.1671433473514128
100
AcDbArc
 50
265.9934014163668
 51
303.9508127423025
  0
ARC
  5
EBE
330
17
100
AcDbEntity
  8
0
100
AcDbCircle
 10
1.7875492954108
 20
11.35939297642422
 30
0.0
 40
0.1026971806177457
100
AcDbArc
 50
40.53024638579289
 51
182.3978513037659
  0
ARC
  5
EBF
330
17
100
AcDbEntity
  8
0
100
AcDbCircle
 10
1.720668164761827
 20
11.52183116348792
 30
0.0
 40
0.1671433473514128
100
AcDbArc
 50
265.9934014163668
 51
303.9508127423025
  0
LINE
  5
EC0
330
17
100
AcDbEntity
  8
HIDDEN
100
AcDbLine
 10
0.9100277685707674
 20
12.24473549096967
 30
0.0
 11
0.8922098908762859
 21
12.30464186153289
 31
0.0
  0
LINE
  5
EC1
330
17
100
AcDbEntity
  8
0
100
AcDbLine
 10
3.653942036463953
 20
11.77114970339932
 30
0.0
 11
3.653942036463953
 21
13.03254914938049
 31
0.0
  0
LINE
  5
EC2
330
17
100
AcDbEntity
  8
HIDDEN
100
AcDbLine
 10
2.959198552833747
 20
12.25380223346599
 30
0.0
 11
2.918295933338408
 21
12.30245946651169
 31
0.0
  0
ARC
  5
EC3
330
17
100
AcDbEntity
  8
0
100
AcDbCircle
 10
3.702284588603952
 20
13.17865578561562
 30
0.0
 40
0.076639322241697
100
AcDbArc
 50
285.4846988330903
 51
0.9285506968172846
  0
ARC
  5
EC4
330
17
100
AcDbEntity
  8
0
100
AcDbCircle
 10
3.640015792823697
 20
13.22508088238492
 30
0.0
 40
0.076639322241697
100
AcDbArc
 50
285.4846988330903
 51
0.9285506968172846
  0
ARC
  5
EC5
330
17
100
AcDbEntity
  8
0
100
AcDbCircle
 10
3.716442036463953
 20
13.12185060513571
 30
0.0
 40
0.109
100
AcDbArc
 50
89.89328553571902
 51
206.6508833465777
  0
ARC
  5
EC6
330
17
100
AcDbEntity
  8
0
100
AcDbCircle
 10
3.716442036463945
 20
13.12185060513571
 30
0.0
 40
0.1089999999999945
100
AcDbArc
 50
206.6508833465848
 51
235.0127249117538
  0
LINE
  5
EC8
330
17
100
AcDbEntity
  8
0
100
AcDbLine
 10
-1.213661938465506
 20
17.91759631280604
 30
0.0
 11
1.708989631809113
 21
17.91759631280604
 31
0.0
  0
LINE
  5
EC9
330
17
100
AcDbEntity
  8
0
100
AcDbLine
 10
1.73326362199807
 20
17.98009631280604
 30
0.0
 11
-1.237935928654466
 21
17.98009631280604
 31
0.0
  0
LINE
  5
ECC
330
17
100
AcDbEntity
  8
HIDDEN
100
AcDbLine
 10
-3.227518986771273
 20
16.19924638432931
 30
0.0
 11
-0.414700075231238
 21
17.05921142697426
 31
0.0
  0
LINE
  5
ECD
330
17
100
AcDbEntity
  8
HIDDEN
100
AcDbLine
 10
-3.165149344172988
 20
16.15272348730873
 30
0.0
 11
-0.3968821975326744
 21
16.99930505640885
 31
0.0
  0
LINE
  5
ECF
330
17
100
AcDbEntity
  8
0
100
AcDbLine
 10
-3.158614343120341
 20
16.27139776856125
 30
0.0
 11
-3.158614343120341
 21
17.50154292221277
 31
0.0
  0
ARC
  5
ED0
330
17
100
AcDbEntity
  8
0
100
AcDbCircle
 10
-3.20695689526034
 20
16.12529113232613
 30
0.0
 40
0.076639322241697
100
AcDbArc
 50
105.4846988330902
 51
180.9285506968173
  0
ARC
  5
ED1
330
17
100
AcDbEntity
  8
0
100
AcDbCircle
 10
-3.221114343120341
 20
16.18209631280604
 30
0.0
 40
0.109
100
AcDbArc
 50
269.8932855357176
 51
352.9347452854432
  0
ARC
  5
ED2
330
17
100
AcDbEntity
  8
0
100
AcDbCircle
 10
-3.144688099480085
 20
16.07886603555683
 30
0.0
 40
0.076639322241697
100
AcDbArc
 50
105.4846988330902
 51
180.9285506968173
  0
ARC
  5
ED3
330
17
100
AcDbEntity
  8
0
100
AcDbCircle
 10
-3.221114343120355
 20
16.18209631280604
 30
0.0
 40
0.1090000000000145
100
AcDbArc
 50
352.9347452854623
 51
55.01272491174647
  0
LINE
  5
ED4
330
17
100
AcDbEntity
  8
0
100
AcDbLine
 10
-1.360026024870887
 20
17.85509631280605
 30
0.0
 11
-2.805060952527068
 21
17.85509631280604
 31
0.0
  0
LINE
  5
ED5
330
17
100
AcDbEntity
  8
HIDDEN
100
AcDbLine
 10
-2.463870859490136
 20
17.01889039214609
 30
0.0
 11
-1.342960842982187
 21
17.95200976412612
 31
0.0
  0
LINE
  5
ED6
330
17
100
AcDbEntity
  8
HIDDEN
100
AcDbLine
 10
-2.422968239994795
 20
16.9702331591004
 30
0.0
 11
-1.318686852793228
 21
17.88950976412612
 31
0.0
  0
LINE
  5
ED7
330
17
100
AcDbEntity
  8
HIDDEN
100
AcDbLine
 10
-2.463870859490136
 20
17.01889039214609
 30
0.0
 11
-2.422968239994795
 21
16.9702331591004
 31
0.0
  0
ARC
  5
ED8
330
17
100
AcDbEntity
  8
0
100
AcDbCircle
 10
-1.298614343120342
 20
17.91759631280604
 30
0.0
 40
0.109
100
AcDbArc
 50
224.3772815494438
 51
0.0
  0
ARC
  5
ED9
330
17
100
AcDbEntity
  8
0
100
AcDbCircle
 10
-1.249614461607173
 20
17.81336146212417
 30
0.0
 40
0.1671433473514128
100
AcDbArc
 50
85.99340141636679
 51
123.9508127423025
  0
ARC
  5
EDA
330
17
100
AcDbEntity
  8
0
100
AcDbCircle
 10
-1.225340471418214
 20
17.75086146212417
 30
0.0
 40
0.1671433473514128
100
AcDbArc
 50
85.99340141636679
 51
123.9508127423025
  0
LINE
  5
EE7
330
17
100
AcDbEntity
  8
0
100
AcDbLine
 10
1.855353718214497
 20
17.85509631280605
 30
0.0
 11
3.30038864587068
 21
17.85509631280604
 31
0.0
  0
LINE
  5
EE8
330
17
100
AcDbEntity
  8
HIDDEN
100
AcDbLine
 10
2.918295933338401
 20
16.9702331591004
 30
0.0
 11
1.814014546136834
 21
17.88950976412612
 31
0.0
  0
LINE
  5
EE9
330
17
100
AcDbEntity
  8
HIDDEN
100
AcDbLine
 10
2.95919855283374
 20
17.01889039214609
 30
0.0
 11
1.83828853632579
 21
17.95200976412612
 31
0.0
  0
LINE
  5
EEA
330
17
100
AcDbEntity
  8
HIDDEN
100
AcDbLine
 10
3.660477037516593
 20
16.15272348730873
 30
0.0
 11
0.8922098908762788
 21
16.99930505640885
 31
0.0
  0
LINE
  5
EEB
330
17
100
AcDbEntity
  8
HIDDEN
100
AcDbLine
 10
3.722846680114877
 20
16.19924638432931
 30
0.0
 11
0.9100277685748424
 21
17.05921142697426
 31
0.0
  0
LINE
  5
EED
330
17
100
AcDbEntity
  8
HIDDEN
100
AcDbLine
 10
-0.4147000752271559
 20
17.05921142697208
 30
0.0
 11
-0.3968821975326744
 21
16.99930505640885
 31
0.0
  0
LINE
  5
EEE
330
17
100
AcDbEntity
  8
HIDDEN
100
AcDbLine
 10
0.9100277685707603
 20
17.05921142697208
 30
0.0
 11
0.8922098908762788
 21
16.99930505640885
 31
0.0
  0
ARC
  5
EEF
330
17
100
AcDbEntity
  8
0
100
AcDbCircle
 10
1.744942154950778
 20
17.81336146212417
 30
0.0
 40
0.1671433473514128
100
AcDbArc
 50
56.04918725769747
 51
94.00659858363322
  0
ARC
  5
EF0
330
17
100
AcDbEntity
  8
0
100
AcDbCircle
 10
1.787801456432046
 20
17.91346913064768
 30
0.0
 40
0.1029421872156514
100
AcDbArc
 50
177.7022684182436
 51
319.3092400211499
  0
ARC
  5
EF1
330
17
100
AcDbEntity
  8
0
100
AcDbCircle
 10
1.72066816476182
 20
17.75086146212417
 30
0.0
 40
0.1671433473514128
100
AcDbArc
 50
56.04918725769747
 51
94.00659858363322
  0
LINE
  5
EF2
330
17
100
AcDbEntity
  8
0
100
AcDbLine
 10
3.653942036463945
 20
16.27139776856125
 30
0.0
 11
3.653942036463945
 21
17.50154292221277
 31
0.0
  0
ARC
  5
EF4
330
17
100
AcDbEntity
  8
0
100
AcDbCircle
 10
3.640015792823689
 20
16.07886603555683
 30
0.0
 40
0.076639322241697
100
AcDbArc
 50
359.0714493031828
 51
74.51530116690979
  0
ARC
  5
EF5
330
17
100
AcDbEntity
  8
0
100
AcDbCircle
 10
3.702284588603945
 20
16.12529113232613
 30
0.0
 40
0.076639322241697
100
AcDbArc
 50
359.0714493031828
 51
74.51530116690979
  0
ARC
  5
EF6
330
17
100
AcDbEntity
  8
0
100
AcDbCircle
 10
3.716442036463945
 20
16.18209631280604
 30
0.0
 40
0.109
100
AcDbArc
 50
153.3491166533996
 51
270.1067144642829
  0
ARC
  5
EF7
330
17
100
AcDbEntity
  8
0
100
AcDbCircle
 10
3.716442036463949
 20
16.18209631280604
 30
0.0
 40
0.1090000000000025
100
AcDbArc
 50
124.9872750882503
 51
153.3491166534177
  0
LINE
  5
EF8
330
17
100
AcDbEntity
  8
HIDDEN
100
AcDbLine
 10
2.95919855283374
 20
17.01889039214609
 30
0.0
 11
2.918295933338401
 21
16.9702331591004
 31
0.0
  0
CIRCLE
  5
F70
330
17
100
AcDbEntity
  8
HIDDEN
100
AcDbCircle
 10
-1.440992921005872
 20
14.74847605124511
 30
0.0
 40
0.34375
  0
LINE
  5
F71
330
17
100
AcDbEntity
  8
HIDDEN
100
AcDbLine
 10
-2.440992921005872
 20
15.74847605124511
 30
0.0
 11
-0.4409929210058721
 21
15.74847605124511
 31
0.0
  0
LINE
  5
F72
330
17
100
AcDbEntity
  8
HIDDEN
100
AcDbLine
 10
-2.440992921005872
 20
13.74847605124511
 30
0.0
 11
-0.4409929210058721
 21
13.74847605124511
 31
0.0
  0
LINE
  5
F73
330
17
100
AcDbEntity
  8
HIDDEN
100
AcDbLine
 10
-2.440992921005872
 20
13.74847605124511
 30
0.0
 11
-2.440992921005872
 21
15.74847605124511
 31
0.0
  0
LINE
  5
F74
330
17
100
AcDbEntity
  8
HIDDEN
100
AcDbLine
 10
-0.4409929210058721
 20
13.74847605124511
 30
0.0
 11
-0.4409929210058721
 21
15.74847605124511
 31
0.0
  0
CIRCLE
  5
F75
330
17
100
AcDbEntity
  8
HIDDEN
100
AcDbCircle
 10
1.9346638466718
 20
14.74847605124511
 30
0.0
 40
0.34375
  0
LINE
  5
F76
330
17
100
AcDbEntity
  8
HIDDEN
100
AcDbLine
 10
0.9346638466717998
 20
15.74847605124511
 30
0.0
 11
2.9346638466718
 21
15.74847605124511
 31
0.0
  0
LINE
  5
F77
330
17
100
AcDbEntity
  8
HIDDEN
100
AcDbLine
 10
0.9346638466717998
 20
13.74847605124511
 30
0.0
 11
2.9346638466718
 21
13.74847605124511
 31
0.0
  0
LINE
  5
F78
330
17
100
AcDbEntity
  8
HIDDEN
100
AcDbLine
 10
0.9346638466717998
 20
13.74847605124511
 30
0.0
 11
0.9346638466717998
 21
15.74847605124511
 31
0.0
  0
LINE
  5
F79
330
17
100
AcDbEntity
  8
HIDDEN
100
AcDbLine
 10
2.9346638466718
 20
13.74847605124511
 30
0.0
 11
2.9346638466718
 21
15.74847605124511
 31
0.0
  0
LINE
  5
1685
330
17
100
AcDbEntity
  8
0
100
AcDbLine
 10
-3.158614343120341
 20
17.50154292221277
 30
0.0
 11
-2.805060952527068
 21
17.85509631280604
 31
0.0
  0
LINE
  5
1687
330
17
100
AcDbEntity
  8
0
100
AcDbLine
 10
3.653942036463953
 20
17.50154292221277
 30
0.0
 11
3.30038864587068
 21
17.85509631280604
 31
0.0
  0
LINE
  5
1688
330
17
100
AcDbEntity
  8
0
100
AcDbLine
 10
-3.158614343120341
 20
11.77114970339932
 30
0.0
 11
-2.805060952527068
 21
11.41759631280604
 31
0.0
  0
LINE
  5
1689
330
17
100
AcDbEntity
  8
0
100
AcDbLine
 10
3.653942036463953
 20
11.77114970339932
 30
0.0
 11
3.30038864587068
 21
11.41759631280604
 31
0.0
  0
ENDSEC
  0
SECTION
  2
OBJECTS
  0
DICTIONARY
  5
C
330
0
100
AcDbDictionary
281
     1
  3
ACAD_COLOR
350
118A
  3
ACAD_GROUP
350
D
  3
ACAD_LAYOUT
350
FC4
  3
ACAD_MATERIAL
350
1189
  3
ACAD_MLINESTYLE
350
1A
  3
ACAD_PLOTSETTINGS
350
FC5
  3
ACAD_PLOTSTYLENAME
350
FC2
  3
ACAD_TABLESTYLE
350
118B
  3
ACDBHEADERROUNDTRIPXREC
350
16BB
  3
ACDBVARIABLEDICTIONARY
350
55
  0
DICTIONARY
  5
1574
330
2
100
AcDbDictionary
280
     1
281
     1
  3
ACAD_LAYERSTATES
360
1575
  0
DICTIONARY
  5
118A
102
{ACAD_REACTORS
330
C
102
}
330
C
100
AcDbDictionary
281
     1
  0
DICTIONARY
  5
D
102
{ACAD_REACTORS
330
C
102
}
330
C
100
AcDbDictionary
281
     1
  0
DICTIONARY
  5
FC4
102
{ACAD_REACTORS
330
C
102
}
330
C
100
AcDbDictionary
281
     1
  3
Layout1
350
FC7
  3
Model
350
FC6
  0
DICTIONARY
  5
1189
102
{ACAD_REACTORS
330
C
102
}
330
C
100
AcDbDictionary
281
     1
  0
DICTIONARY
  5
1A
102
{ACAD_REACTORS
330
C
102
}
330
C
100
AcDbDictionary
281
     1
  3
STANDARD
350
1B
  0
DICTIONARY
  5
FC5
102
{ACAD_REACTORS
330
C
102
}
330
C
100
AcDbDictionary
281
     1
  0
ACDBDICTIONARYWDFLT
  5
FC2
102
{ACAD_REACTORS
330
C
102
}
330
C
100
AcDbDictionary
281
     1
  3
Normal
350
FC3
100
AcDbDictionaryWithDefault
340
FC3
  0
DICTIONARY
  5
118B
102
{ACAD_REACTORS
330
C
102
}
330
C
100
AcDbDictionary
281
     1
  3
Standard
350
118C
  0
DICTIONARY
  5
16BB
102
{ACAD_REACTORS
330
C
102
}
330
C
100
AcDbDictionary
281
     1
  3
COLORDICT
350
16BC
  3
MATERIALDICT
350
16BD
  0
DICTIONARY
  5
55
102
{ACAD_REACTORS
330
C
102
}
330
C
100
AcDbDictionary
281
     1
  3
CTABLESTYLE
350
154F
  3
DIMADEC
350
56
  0
DICTIONARY
  5
1575
102
{ACAD_REACTORS
330
1574
102
}
330
1574
100
AcDbDictionary
281
     1
  0
LAYOUT
  5
FC7
102
{ACAD_REACTORS
330
FC4
102
}
102
{ACAD_XDICTIONARY
360
16BE
102
}
330
FC4
100
AcDbPlotSettings
  1

  2
Client\ssd-helder#\hp psc 2100 series [UPD:PCL4]
  4

  6

 40
0.0
 41
0.0
 42
0.0
 43
0.0
 44
0.0
 45
0.0
 46
0.0
 47
0.0
 48
0.0
 49
0.0
140
0.0
141
0.0
142
1.0
143
1.0
 70
   688
 72
     0
 73
     0
 74
     5
  7
monochrome.ctb
 75
    16
147
1.0
148
0.0
149
0.0
100
AcDbLayout
  1
Layout1
 70
     0
 71
     1
 10
0.0
 20
0.0
 11
12.0
 21
9.0
 12
0.0
 22
0.0
 32
0.0
 14
1.000000000000000E+20
 24
1.000000000000000E+20
 34
1.000000000000000E+20
 15
-1.000000000000000E+20
 25
-1.000000000000000E+20
 35
-1.000000000000000E+20
146
0.0
 13
0.0
 23
0.0
 33
0.0
 16
1.0
 26
0.0
 36
0.0
 17
0.0
 27
1.0
 37
0.0
 76
     0
330
14
  0
LAYOUT
  5
FC6
102
{ACAD_REACTORS
330
FC4
102
}
102
{ACAD_XDICTIONARY
360
16C0
102
}
330
FC4
100
AcDbPlotSettings
  1

  2
HP LaserJet 2100 Series PS
  4
Letter
  6

 40
5.365749835968018
 41
5.408073902130127
 42
5.132904052734375
 43
5.090576171875
 44
215.8999938964844
 45
279.3999938964844
 46
0.0
 47
0.0
 48
0.0
 49
0.0
140
0.0
141
0.0
142
1.0
143
3.967254253308121
 70
 11952
 72
     0
 73
     3
 74
     2
  7
monochrome.ctb
 75
     0
147
0.2520635018958373
148
0.0
149
0.0
100
AcDbLayout
  1
Model
 70
     1
 71
     0
 10
0.0
 20
0.0
 11
12.0
 21
9.0
 12
0.0
 22
0.0
 32
0.0
 14
0.0
 24
0.0
 34
0.0
 15
0.0
 25
0.0
 35
0.0
146
0.0
 13
0.0
 23
0.0
 33
0.0
 16
1.0
 26
0.0
 36
0.0
 17
0.0
 27
1.0
 37
0.0
 76
     0
330
17
1001
ACAD_PSEXT
1000
HP LaserJet 2100 Series PS
1000
HP LaserJet 2100 Series PS
1000
LPT1:
1000

1070
     0
  0
MLINESTYLE
  5
1B
102
{ACAD_REACTORS
330
1A
102
}
330
1A
100
AcDbMlineStyle
  2
STANDARD
 70
     0
  3

 62
   256
 51
90.0
 52
90.0
 71
     2
 49
0.5
 62
   256
  6
BYLAYER
 49
-0.5
 62
   256
  6
BYLAYER
  0
ACDBPLACEHOLDER
  5
FC3
102
{ACAD_REACTORS
330
FC2
102
}
330
FC2
  0
ACAD_PROXY_OBJECT
  5
118C
102
{ACAD_REACTORS
330
118B
102
}
330
118B
100
AcDbProxyObject
 90
      499
 91
      521
 95
   983063
 70
     0
 93
     1841
310
4214DD185B99185C9928B81E85EB51B8AE3F2E07A17AD46E2B8FC02B5E8DC0F42B1CFD028000000C1008070000C3001FDFF8000000C1003FBFF000000182007F7FE00000030400FEFFC00000060801FDFF8000000C1003FBFF00000018200000000000000681FA0B0000001820100E000186003FBFF000000182007F7FE000
310
00030400FEFFC00000060801FDFF8000000C1003FBFF000000182007F7FE000000304000AD7A3703D0AC73F4160000003040201C00030C007F7FE00000030400FEFFC00000060801FDFF8000000C1003FBFF000000182007F7FE00000030400FEFFC000000608000
340
F
340
F
340
F
 94
        0
  0
XRECORD
  5
16BC
102
{ACAD_REACTORS
330
16BB
102
}
330
16BB
100
AcDbXrecord
340
118A
  0
XRECORD
  5
16BD
102
{ACAD_REACTORS
330
16BB
102
}
330
16BB
100
AcDbXrecord
340
1189
  0
DICTIONARYVAR
  5
154F
102
{ACAD_REACTORS
330
55
102
}
330
55
100
DictionaryVariables
280
     0
  1
STANDARD
  0
DICTIONARYVAR
  5
56
102
{ACAD_REACTORS
330
55
102
}
330
55
100
DictionaryVariables
280
     0
  1
0
  0
DICTIONARY
  5
16BE
330
FC7
100
AcDbDictionary
280
     1
281
     1
  3
ACAD_XREC_ROUNDTRIP
360
16BF
  0
DICTIONARY
  5
16C0
330
FC6
100
AcDbDictionary
280
     1
281
     1
  3
ACAD_XREC_ROUNDTRIP
360
16C1
  0
XRECORD
  5
16BF
102
{ACAD_REACTORS
330
16BE
102
}
330
16BE
100
AcDbXrecord
102
SHADEPLOT
 70
     0
102
SHADEPLOTRESLEVEL
 70
     2
102
SHADEPLOTCUSTOMDPI
 70
   300
  0
XRECORD
  5
16C1
102
{ACAD_REACTORS
330
16C0
102
}
330
16C0
100
AcDbXrecord
102
SHADEPLOT
 70
     0
102
SHADEPLOTRESLEVEL
 70
     2
102
SHADEPLOTCUSTOMDPI
 70
   300
  0
ENDSEC
  0
EOF
