  0
SECTION
  2
HEADER
  9
$ACADVER
  1
AC1015
  9
$ACADMAINTVER
 70
     6
  9
$DWGCODEPAGE
  3
ANSI_1252
  9
$INSBASE
 10
0.0
 20
0.0
 30
0.0
  9
$EXTMIN
 10
-17.3534167598186
 20
-0.0273430569616266
 30
-0.0000000000112498
  9
$EXTMAX
 10
22.65294886002653
 20
18.44978231716186
 30
0.0000000000002956
  9
$LIMMIN
 10
0.0
 20
0.0
  9
$LIMMAX
 10
42.0
 20
32.0
  9
$ORTHOMODE
 70
     1
  9
$REGENMODE
 70
     1
  9
$FILLMODE
 70
     1
  9
$QTEXTMODE
 70
     0
  9
$MIRRTEXT
 70
     1
  9
$LTSCALE
 40
1.0
  9
$ATTMODE
 70
     1
  9
$TEXTSIZE
 40
0.3600000000000039
  9
$TRACEWID
 40
0.05
  9
$TEXTSTYLE
  7
STANDARD
  9
$CLAYER
  8
0
  9
$CELTYPE
  6
BYLAYER
  9
$CECOLOR
 62
   256
  9
$CELTSCALE
 40
1.0
  9
$DISPSILH
 70
     0
  9
$DIMSCALE
 40
4.000000000000049
  9
$DIMASZ
 40
0.125
  9
$DIMEXO
 40
0.062
  9
$DIMDLI
 40
0.375
  9
$DIMRND
 40
0.0
  9
$DIMDLE
 40
0.0
  9
$DIMEXE
 40
0.08
  9
$DIMTP
 40
0.0
  9
$DIMTM
 40
0.0
  9
$DIMTXT
 40
0.09
  9
$DIMCEN
 40
-0.06
  9
$DIMTSZ
 40
0.0
  9
$DIMTOL
 70
     0
  9
$DIMLIM
 70
     0
  9
$DIMTIH
 70
     1
  9
$DIMTOH
 70
     1
  9
$DIMSE1
 70
     0
  9
$DIMSE2
 70
     0
  9
$DIMTAD
 70
     0
  9
$DIMZIN
 70
     0
  9
$DIMBLK
  1

  9
$DIMASO
 70
     0
  9
$DIMSHO
 70
     0
  9
$DIMPOST
  1

  9
$DIMAPOST
  1

  9
$DIMALT
 70
     0
  9
$DIMALTD
 70
     2
  9
$DIMALTF
 40
25.4
  9
$DIMLFAC
 40
1.0
  9
$DIMTOFL
 70
     0
  9
$DIMTVP
 40
0.0
  9
$DIMTIX
 70
     0
  9
$DIMSOXD
 70
     0
  9
$DIMSAH
 70
     0
  9
$DIMBLK1
  1

  9
$DIMBLK2
  1

  9
$DIMSTYLE
  2
STANDARD
  9
$DIMCLRD
 70
     0
  9
$DIMCLRE
 70
     0
  9
$DIMCLRT
 70
     0
  9
$DIMTFAC
 40
1.0
  9
$DIMGAP
 40
0.09375
  9
$DIMJUST
 70
     0
  9
$DIMSD1
 70
     0
  9
$DIMSD2
 70
     0
  9
$DIMTOLJ
 70
     1
  9
$DIMTZIN
 70
     0
  9
$DIMALTZ
 70
     0
  9
$DIMALTTZ
 70
     0
  9
$DIMUPT
 70
     0
  9
$DIMDEC
 70
     5
  9
$DIMTDEC
 70
     5
  9
$DIMALTU
 70
     5
  9
$DIMALTTD
 70
     2
  9
$DIMTXSTY
  7
STANDARD
  9
$DIMAUNIT
 70
     0
  9
$DIMADEC
 70
     0
  9
$DIMALTRND
 40
0.0
  9
$DIMAZIN
 70
     0
  9
$DIMDSEP
 70
    46
  9
$DIMATFIT
 70
     3
  9
$DIMFRAC
 70
     2
  9
$DIMLDRBLK
  1

  9
$DIMLUNIT
 70
     5
  9
$DIMLWD
 70
    -2
  9
$DIMLWE
 70
    -2
  9
$DIMTMOVE
 70
     2
  9
$LUNITS
 70
     5
  9
$LUPREC
 70
     5
  9
$SKETCHINC
 40
0.1
  9
$FILLETRAD
 40
0.03125
  9
$AUNITS
 70
     0
  9
$AUPREC
 70
     0
  9
$MENU
  1
acad
  9
$ELEVATION
 40
0.0
  9
$PELEVATION
 40
0.0
  9
$THICKNESS
 40
0.0
  9
$LIMCHECK
 70
     0
  9
$CHAMFERA
 40
0.0
  9
$CHAMFERB
 40
0.0
  9
$CHAMFERC
 40
0.0
  9
$CHAMFERD
 40
0.0
  9
$SKPOLY
 70
     0
  9
$TDCREATE
 40
2450826.87835081
  9
$TDUCREATE
 40
2450827.211684144
  9
$TDUPDATE
 40
2454160.712068033
  9
$TDUUPDATE
 40
2454161.045401366
  9
$TDINDWG
 40
0.1508148032
  9
$TDUSRTIMER
 40
0.1508148032
  9
$USRTIMER
 70
     1
  9
$ANGBASE
 50
0.0
  9
$ANGDIR
 70
     0
  9
$PDMODE
 70
     0
  9
$PDSIZE
 40
0.0
  9
$PLINEWID
 40
0.0
  9
$SPLFRAME
 70
     0
  9
$SPLINETYPE
 70
     6
  9
$SPLINESEGS
 70
     8
  9
$HANDSEED
  5
29E
  9
$SURFTAB1
 70
     6
  9
$SURFTAB2
 70
     6
  9
$SURFTYPE
 70
     6
  9
$SURFU
 70
     6
  9
$SURFV
 70
     6
  9
$UCSBASE
  2

  9
$UCSNAME
  2

  9
$UCSORG
 10
0.0
 20
0.0
 30
0.0
  9
$UCSXDIR
 10
1.0
 20
0.0
 30
0.0
  9
$UCSYDIR
 10
0.0
 20
1.0
 30
0.0
  9
$UCSORTHOREF
  2

  9
$UCSORTHOVIEW
 70
     0
  9
$UCSORGTOP
 10
0.0
 20
0.0
 30
0.0
  9
$UCSORGBOTTOM
 10
0.0
 20
0.0
 30
0.0
  9
$UCSORGLEFT
 10
0.0
 20
0.0
 30
0.0
  9
$UCSORGRIGHT
 10
0.0
 20
0.0
 30
0.0
  9
$UCSORGFRONT
 10
0.0
 20
0.0
 30
0.0
  9
$UCSORGBACK
 10
0.0
 20
0.0
 30
0.0
  9
$PUCSBASE
  2

  9
$PUCSNAME
  2

  9
$PUCSORG
 10
0.0
 20
0.0
 30
0.0
  9
$PUCSXDIR
 10
1.0
 20
0.0
 30
0.0
  9
$PUCSYDIR
 10
0.0
 20
1.0
 30
0.0
  9
$PUCSORTHOREF
  2

  9
$PUCSORTHOVIEW
 70
     0
  9
$PUCSORGTOP
 10
0.0
 20
0.0
 30
0.0
  9
$PUCSORGBOTTOM
 10
0.0
 20
0.0
 30
0.0
  9
$PUCSORGLEFT
 10
0.0
 20
0.0
 30
0.0
  9
$PUCSORGRIGHT
 10
0.0
 20
0.0
 30
0.0
  9
$PUCSORGFRONT
 10
0.0
 20
0.0
 30
0.0
  9
$PUCSORGBACK
 10
0.0
 20
0.0
 30
0.0
  9
$USERI1
 70
     0
  9
$USERI2
 70
     0
  9
$USERI3
 70
     0
  9
$USERI4
 70
     0
  9
$USERI5
 70
     0
  9
$USERR1
 40
0.0
  9
$USERR2
 40
0.0
  9
$USERR3
 40
0.0
  9
$USERR4
 40
0.0
  9
$USERR5
 40
0.0
  9
$WORLDVIEW
 70
     1
  9
$SHADEDGE
 70
     3
  9
$SHADEDIF
 70
    70
  9
$TILEMODE
 70
     1
  9
$MAXACTVP
 70
    16
  9
$PINSBASE
 10
0.0
 20
0.0
 30
0.0
  9
$PLIMCHECK
 70
     0
  9
$PEXTMIN
 10
1.000000000000000E+20
 20
1.000000000000000E+20
 30
1.000000000000000E+20
  9
$PEXTMAX
 10
-1.000000000000000E+20
 20
-1.000000000000000E+20
 30
-1.000000000000000E+20
  9
$PLIMMIN
 10
0.0
 20
0.0
  9
$PLIMMAX
 10
12.0
 20
9.0
  9
$UNITMODE
 70
     0
  9
$VISRETAIN
 70
     0
  9
$PLINEGEN
 70
     0
  9
$PSLTSCALE
 70
     0
  9
$TREEDEPTH
 70
  3020
  9
$CMLSTYLE
  2
STANDARD
  9
$CMLJUST
 70
     0
  9
$CMLSCALE
 40
1.0
  9
$PROXYGRAPHICS
 70
     1
  9
$MEASUREMENT
 70
     0
  9
$CELWEIGHT
370
    -1
  9
$ENDCAPS
280
     0
  9
$JOINSTYLE
280
     0
  9
$LWDISPLAY
290
     0
  9
$INSUNITS
 70
     0
  9
$HYPERLINKBASE
  1

  9
$STYLESHEET
  1

  9
$XEDIT
290
     1
  9
$CEPSNTYPE
380
     0
  9
$PSTYLEMODE
290
     1
  9
$FINGERPRINTGUID
  2
{B5C1ED93-ED1B-40FF-AAD3-30E7A0DB044E}
  9
$VERSIONGUID
  2
{13B9117A-E3AC-48F5-8491-1F4E64ECF095}
  9
$EXTNAMES
290
     1
  9
$PSVPSCALE
 40
0.0
  9
$OLESTARTUP
290
     0
  0
ENDSEC
  0
SECTION
  2
CLASSES
  0
CLASS
  1
DICTIONARYVAR
  2
AcDbDictionaryVar
  3
AutoCAD 2000
 90
        0
280
     0
281
     0
  0
CLASS
  1
LWPOLYLINE
  2
AcDbPolyline
  3
AutoCAD 2000
 90
        0
280
     0
281
     1
  0
CLASS
  1
ACDBDICTIONARYWDFLT
  2
AcDbDictionaryWithDefault
  3
AutoCAD 2000
 90
        0
280
     0
281
     0
  0
CLASS
  1
ACDBPLACEHOLDER
  2
AcDbPlaceHolder
  3
ObjectDBX Classes
 90
        0
280
     0
281
     0
  0
CLASS
  1
LAYOUT
  2
AcDbLayout
  3
ObjectDBX Classes
 90
        0
280
     0
281
     0
  0
CLASS
  1
LONG_TRANSACTION
  2
AcDbLongTransaction
  3
ObjectDBX Classes
 90
   -65536
280
     1
281
     0
  0
CLASS
  1
LWPOLYLINE
  2
AcDbPolyline
  3
AutoCAD 2000
 90
        0
280
     0
281
     1
  0
CLASS
  1
HATCH
  2
AcDbHatch
  3
AutoCAD 2000
 90
        0
280
     0
281
     1
  0
CLASS
  1
XRECORD
  2
AcDbXrecord
  3
AutoCAD 2000
 90
        0
280
     0
281
     0
  0
CLASS
  1
LONG_TRANSACTION
  2
AcDbLongTransaction
  3
ObjectDBX Classes
 90
   -65536
280
     1
281
     0
  0
CLASS
  1
LWPOLYLINE
  2
AcDbPolyline
  3
AutoCAD 2000
 90
        0
280
     0
281
     1
  0
CLASS
  1
HATCH
  2
AcDbHatch
  3
AutoCAD 2000
 90
        0
280
     0
281
     1
  0
CLASS
  1
XRECORD
  2
AcDbXrecord
  3
AutoCAD 2000
 90
        0
280
     0
281
     0
  0
CLASS
  1
LONG_TRANSACTION
  2
AcDbLongTransaction
  3
ObjectDBX Classes
 90
   -65536
280
     1
281
     0
  0
CLASS
  1
LWPOLYLINE
  2
AcDbPolyline
  3
AutoCAD 2000
 90
        0
280
     0
281
     1
  0
CLASS
  1
HATCH
  2
AcDbHatch
  3
AutoCAD 2000
 90
        0
280
     0
281
     1
  0
CLASS
  1
XRECORD
  2
AcDbXrecord
  3
AutoCAD 2000
 90
        0
280
     0
281
     0
  0
CLASS
  1
TABLESTYLE
  2
AcDbTableStyle
  3
ObjectDBX Classes
 90
     2047
280
     1
281
     0
  0
ENDSEC
  0
SECTION
  2
TABLES
  0
TABLE
  2
VPORT
  5
1D
330
0
100
AcDbSymbolTable
 70
     2
  0
VPORT
  5
28E
330
1D
100
AcDbSymbolTableRecord
100
AcDbViewportTableRecord
  2
*Active
 70
     0
 10
0.0
 20
0.0
 11
1.0
 21
1.0
 12
12.3232916200907
 22
15.98632847151919
 13
0.0
 23
0.0
 14
0.03125
 24
0.03125
 15
0.03125
 25
0.03125
 16
0.0
 26
0.0
 36
1.0
 17
0.0
 27
0.0
 37
0.0
 40
32.93396868754515
 41
1.814583333333333
 42
50.0
 43
0.0
 44
0.0
 50
0.0
 51
0.0
 71
     0
 72
   100
 73
     1
 74
     0
 75
     0
 76
     0
 77
     0
 78
     0
281
     0
 65
     1
110
0.0
120
0.0
130
0.0
111
1.0
121
0.0
131
0.0
112
0.0
122
1.0
132
0.0
 79
     0
146
0.0
  0
ENDTAB
  0
TABLE
  2
LTYPE
  5
18
330
0
100
AcDbSymbolTable
 70
     1
  0
LTYPE
  5
19
330
18
100
AcDbSymbolTableRecord
100
AcDbLinetypeTableRecord
  2
BYBLOCK
 70
     0
  3

 72
    65
 73
     0
 40
0.0
  0
LTYPE
  5
1A
330
18
100
AcDbSymbolTableRecord
100
AcDbLinetypeTableRecord
  2
BYLAYER
 70
     0
  3

 72
    65
 73
     0
 40
0.0
  0
LTYPE
  5
A
330
18
100
AcDbSymbolTableRecord
100
AcDbLinetypeTableRecord
  2
CONTINUOUS
 70
     0
  3
Solid line
 72
    65
 73
     0
 40
0.0
  0
ENDTAB
  0
TABLE
  2
LAYER
  5
14
330
0
100
AcDbSymbolTable
 70
     2
  0
LAYER
  5
6
330
14
100
AcDbSymbolTableRecord
100
AcDbLayerTableRecord
  2
0
 70
     0
 62
     7
  6
CONTINUOUS
370
    -3
390
7
  0
ENDTAB
  0
TABLE
  2
STYLE
  5
15
330
0
100
AcDbSymbolTable
 70
     1
  0
STYLE
  5
16
330
15
100
AcDbSymbolTableRecord
100
AcDbTextStyleTableRecord
  2
STANDARD
 70
     0
 40
0.0
 41
1.0
 50
0.0
 71
     0
 42
0.3600000000000039
  3
TXT
  4

  0
ENDTAB
  0
TABLE
  2
VIEW
  5
1B
330
0
100
AcDbSymbolTable
 70
     0
  0
ENDTAB
  0
TABLE
  2
UCS
  5
1C
330
0
100
AcDbSymbolTable
 70
     0
  0
ENDTAB
  0
TABLE
  2
APPID
  5
1F
330
0
100
AcDbSymbolTable
 70
     1
  0
APPID
  5
20
330
1F
100
AcDbSymbolTableRecord
100
AcDbRegAppTableRecord
  2
ACAD
 70
     0
  0
ENDTAB
  0
TABLE
  2
DIMSTYLE
  5
21
330
0
100
AcDbSymbolTable
 70
     1
100
AcDbDimStyleTable
  0
DIMSTYLE
105
28
330
21
100
AcDbSymbolTableRecord
100
AcDbDimStyleTableRecord
  2
STANDARD
 70
     0
  3

  4

340
16
  0
ENDTAB
  0
TABLE
  2
BLOCK_RECORD
  5
1
330
0
100
AcDbSymbolTable
 70
     0
  0
BLOCK_RECORD
  5
2
330
1
100
AcDbSymbolTableRecord
100
AcDbBlockTableRecord
  2
*MODEL_SPACE
340
C
  0
BLOCK_RECORD
  5
E
330
1
100
AcDbSymbolTableRecord
100
AcDbBlockTableRecord
  2
*PAPER_SPACE
340
13
  0
ENDTAB
  0
ENDSEC
  0
SECTION
  2
BLOCKS
  0
BLOCK
  5
5
330
2
100
AcDbEntity
  8
0
100
AcDbBlockBegin
  2
*MODEL_SPACE
 70
     0
 10
0.0
 20
0.0
 30
0.0
  3
*MODEL_SPACE
  1

  4

  0
ENDBLK
  5
B
330
2
100
AcDbEntity
  8
0
100
AcDbBlockEnd
  0
BLOCK
  5
11
330
E
100
AcDbEntity
 67
     1
  8
0
100
AcDbBlockBegin
  2
*PAPER_SPACE
 70
     0
 10
0.0
 20
0.0
 30
0.0
  3
*PAPER_SPACE
  1

  4

  0
ENDBLK
  5
12
330
E
100
AcDbEntity
 67
     1
  8
0
100
AcDbBlockEnd
  0
ENDSEC
  0
SECTION
  2
ENTITIES
  0
LINE
  5
142
330
2
100
AcDbEntity
  8
0
100
AcDbLine
 10
-1.298501796856444
 20
7.093749999999998
 30
0.0
 11
-1.298501796856444
 21
0.1875
 31
0.0
  0
LINE
  5
143
330
2
100
AcDbEntity
  8
0
100
AcDbLine
 10
6.70149820314356
 20
0.1875
 30
0.0
 11
6.70149820314356
 21
7.093749999999998
 31
0.0
  0
LINE
  5
144
330
2
100
AcDbEntity
  8
0
100
AcDbLine
 10
6.79524820314356
 20
0.125
 30
0.0
 11
6.795248203143558
 21
7.093749999999998
 31
0.0
  0
LINE
  5
145
330
2
100
AcDbEntity
  8
0
100
AcDbLine
 10
-1.392251796856444
 20
7.093749999999998
 30
0.0
 11
-1.392251796856444
 21
0.125
 31
0.0
  0
LINE
  5
146
330
2
100
AcDbEntity
  8
0
100
AcDbLine
 10
3.337143775892349
 20
0.34375
 30
0.0
 11
5.337143775892349
 21
0.34375
 31
0.0
  0
LINE
  5
147
330
2
100
AcDbEntity
  8
0
100
AcDbLine
 10
6.144747353110398
 20
1.094821287607008
 30
0.0
 11
-0.7777526748668127
 21
1.092677345708683
 31
0.0
  0
LINE
  5
148
330
2
100
AcDbEntity
  8
0
100
AcDbLine
 10
1.135415071154396
 20
1.030824747289898
 30
0.0
 11
4.089560748719757
 21
1.031694255488073
 31
0.0
  0
LINE
  5
149
330
2
100
AcDbEntity
  8
0
100
AcDbLine
 10
-1.267251796856444
 20
0.0
 30
0.0
 11
6.67024820314356
 21
0.0
 31
0.0
  0
LINE
  5
14A
330
2
100
AcDbEntity
  8
0
100
AcDbLine
 10
-0.9307969271568979
 20
0.0937499999999982
 30
0.0
 11
6.319138456660154
 21
0.09375
 31
0.0
  0
LINE
  5
14B
330
2
100
AcDbEntity
  8
0
100
AcDbLine
 10
-0.9307969271568819
 20
1.030749999999998
 30
0.0
 11
6.319138456660161
 21
1.030750000000001
 31
0.0
  0
LINE
  5
14C
330
2
100
AcDbEntity
  8
0
100
AcDbLine
 10
-0.7835960612055022
 20
0.8917670339207255
 30
0.0
 11
-0.7830908634031797
 21
0.0926540148829744
 31
0.0
  0
LINE
  5
14D
330
2
100
AcDbEntity
  8
0
100
AcDbLine
 10
-0.8477084070139203
 20
1.022633105833002
 30
0.0
 11
-0.8471204631226161
 21
0.0926337751865489
 31
0.0
  0
LINE
  5
14E
330
2
100
AcDbEntity
  8
0
100
AcDbLine
 10
-0.9307969271568997
 20
-0.0000000000000018
 30
0.0
 11
-0.9307969271568819
 21
1.030749999999998
 31
0.0
  0
ARC
  5
14F
330
2
100
AcDbEntity
  8
0
100
AcDbCircle
 10
-1.267251796856444
 20
0.125
 30
0.0
 40
0.125
100
AcDbArc
 50
180.0
 51
270.0
  0
LINE
  5
150
330
2
100
AcDbEntity
  8
0
100
AcDbLine
 10
-0.9307969271568979
 20
0.0937499999999982
 30
0.0
 11
-1.204751796856444
 21
0.09375
 31
0.0
  0
ARC
  5
151
330
2
100
AcDbEntity
  8
0
100
AcDbCircle
 10
-1.204751796856444
 20
0.1875
 30
0.0
 40
0.09375
100
AcDbArc
 50
180.0
 51
270.0
  0
ARC
  5
152
330
2
100
AcDbEntity
  8
0
100
AcDbCircle
 10
-0.7133833587009679
 20
0.9601785010045916
 30
0.0
 40
0.07
100
AcDbArc
 50
90.03622228313948
 51
180.03622228314
  0
LINE
  5
153
330
2
100
AcDbEntity
  8
0
100
AcDbLine
 10
-0.7211835490856107
 20
1.030173583726977
 30
0.0
 11
-0.7212230614644408
 21
1.09267357123715
 31
0.0
  0
ARC
  5
154
330
2
100
AcDbEntity
  8
0
100
AcDbCircle
 10
-0.777708421002524
 20
1.022677359697291
 30
0.0
 40
0.07
100
AcDbArc
 50
90.03622228313948
 51
180.03622228314
  0
ARC
  5
155
330
2
100
AcDbEntity
  8
0
100
AcDbCircle
 10
-0.7720161741784697
 20
1.055701439813827
 30
0.0
 40
0.1328000000000006
100
AcDbArc
 50
235.2770045498178
 51
313.3845782099363
  0
LINE
  5
156
330
2
100
AcDbEntity
  8
0
100
AcDbLine
 10
-0.7833833447123642
 20
0.9601342471403029
 30
0.0
 11
-0.7834976430305982
 21
0.9233986965580741
 31
0.0
  0
LINE
  5
157
330
2
100
AcDbEntity
  8
0
100
AcDbLine
 10
-0.0385129917853249
 20
0.34375
 30
0.0
 11
1.961487008214677
 21
0.34375
 31
0.0
  0
LINE
  5
158
330
2
100
AcDbEntity
  8
0
100
AcDbLine
 10
0.963312650341086
 20
0.0932060513959172
 30
0.0
 11
0.9628045388611906
 21
0.8969278744927429
 31
0.0
  0
LINE
  5
159
330
2
100
AcDbEntity
  8
0
100
AcDbLine
 10
-0.2128473797729722
 20
0.092834268313382
 30
0.0
 11
-0.2134400654554067
 21
1.030334080965993
 31
0.0
  0
LINE
  5
15A
330
2
100
AcDbEntity
  8
0
100
AcDbLine
 10
-0.0385129917853249
 20
0.34375
 30
0.0
 11
-0.0385129917853249
 21
0.09375
 31
0.0
  0
ARC
  5
15B
330
2
100
AcDbEntity
  8
0
100
AcDbCircle
 10
0.9981349805632345
 20
1.02516675654941
 30
0.0
 40
0.1328000000000014
100
AcDbArc
 50
180.8834460276655
 51
254.7551604665779
  0
ARC
  5
15C
330
2
100
AcDbEntity
  8
0
100
AcDbCircle
 10
0.9281349945518382
 20
1.025122502685122
 30
0.0
 40
0.1328000000000014
100
AcDbArc
 50
180.8834460276655
 51
30.85485201493185
  0
LINE
  5
15D
330
2
100
AcDbEntity
  8
0
100
AcDbLine
 10
1.961487008214677
 20
0.34375
 30
0.0
 11
1.961487008214677
 21
0.09375
 31
0.0
  0
LINE
  5
15E
330
2
100
AcDbEntity
  8
0
100
AcDbLine
 10
3.337143775892349
 20
0.34375
 30
0.0
 11
3.337143775892349
 21
0.09375
 31
0.0
  0
LINE
  5
15F
330
2
100
AcDbEntity
  8
0
100
AcDbLine
 10
6.319138456660154
 20
0.09375
 30
0.0
 11
6.60774820314356
 21
0.09375
 31
0.0
  0
LINE
  5
160
330
2
100
AcDbEntity
  8
0
100
AcDbLine
 10
6.150844764946619
 20
0.8939185247700152
 30
0.0
 11
6.151349962748942
 21
0.0948055057322605
 31
0.0
  0
LINE
  5
161
330
2
100
AcDbEntity
  8
0
100
AcDbLine
 10
5.587903104623294
 20
0.0925840716758302
 30
0.0
 11
5.587310418940863
 21
1.030083884328441
 31
0.0
  0
LINE
  5
162
330
2
100
AcDbEntity
  8
0
100
AcDbLine
 10
6.214791592986083
 20
1.0248655554599
 30
0.0
 11
6.215379536877384
 21
0.0948662248134511
 31
0.0
  0
LINE
  5
163
330
2
100
AcDbEntity
  8
0
100
AcDbLine
 10
4.404947146997502
 20
0.0931493964140699
 30
0.0
 11
4.404439035517608
 21
0.8968712195108921
 31
0.0
  0
LINE
  5
164
330
2
100
AcDbEntity
  8
0
100
AcDbLine
 10
6.319138456660154
 20
0.006961175329538
 30
0.0
 11
6.319138456660161
 21
1.030750000000001
 31
0.0
  0
LINE
  5
165
330
2
100
AcDbEntity
  8
0
100
AcDbLine
 10
5.337143775892349
 20
0.34375
 30
0.0
 11
5.337143775892349
 21
0.09375
 31
0.0
  0
ARC
  5
166
330
2
100
AcDbEntity
  8
0
100
AcDbCircle
 10
4.438946463355476
 20
1.025109581259684
 30
0.0
 40
0.1328000000000014
100
AcDbArc
 50
149.2175925513471
 51
359.1889985386134
  0
ARC
  5
167
330
2
100
AcDbEntity
  8
0
100
AcDbCircle
 10
4.368946477344082
 20
1.025065327395396
 30
0.0
 40
0.1328000000000014
100
AcDbArc
 50
285.3172840997011
 51
359.1889985386134
  0
LINE
  5
168
330
2
100
AcDbEntity
  8
0
100
AcDbLine
 10
6.088257302046161
 20
1.032246049818603
 30
0.0
 11
6.088217789667333
 21
1.094746037328783
 31
0.0
  0
ARC
  5
169
330
2
100
AcDbEntity
  8
0
100
AcDbCircle
 10
6.080545619390092
 20
0.9622411605181966
 30
0.0
 40
0.07
100
AcDbArc
 50
0.0362222831389939
 51
90.03622228313948
  0
ARC
  5
16A
330
2
100
AcDbEntity
  8
0
100
AcDbCircle
 10
6.144791606974687
 20
1.024821301595615
 30
0.0
 40
0.07
100
AcDbArc
 50
0.0362222831389939
 51
90.03622228313948
  0
ARC
  5
16B
330
2
100
AcDbEntity
  8
0
100
AcDbCircle
 10
6.139057609190219
 20
1.057838158061017
 30
0.0
 40
0.1328000000000006
100
AcDbArc
 50
193.5607644717076
 51
304.7954400164612
  0
LINE
  5
16C
330
2
100
AcDbEntity
  8
0
100
AcDbLine
 10
6.150545605401488
 20
0.9622854143824853
 30
0.0
 11
6.150706351906793
 21
0.9255500376830952
 31
0.0
  0
ARC
  5
16D
330
2
100
AcDbEntity
  8
0
100
AcDbCircle
 10
6.67024820314356
 20
0.125
 30
0.0
 40
0.125
100
AcDbArc
 50
270.0
 51
0.0
  0
ARC
  5
16E
330
2
100
AcDbEntity
  8
0
100
AcDbCircle
 10
6.60774820314356
 20
0.1875
 30
0.0
 40
0.09375
100
AcDbArc
 50
270.0
 51
0.0
  0
LINE
  5
16F
330
2
100
AcDbEntity
  8
0
100
AcDbLine
 10
-1.298501796856444
 20
7.093749999999998
 30
0.0
 11
-1.392251796856444
 21
7.093749999999998
 31
0.0
  0
LINE
  5
170
330
2
100
AcDbEntity
  8
0
100
AcDbLine
 10
6.79524820314356
 20
7.093749999999998
 30
0.0
 11
6.70149820314356
 21
7.093749999999998
 31
0.0
  0
LINE
  5
171
330
2
100
AcDbEntity
  8
0
100
AcDbLine
 10
3.587143775892349
 20
13.82017102540888
 30
0.0
 11
5.587143775892349
 21
13.82017102540888
 31
0.0
  0
LINE
  5
172
330
2
100
AcDbEntity
  8
0
100
AcDbLine
 10
3.587143775892349
 20
15.82017102540888
 30
0.0
 11
5.587143775892349
 21
15.82017102540888
 31
0.0
  0
ARC
  5
173
330
2
100
AcDbEntity
  8
0
100
AcDbCircle
 10
4.190281385652595
 20
17.98516410481145
 30
0.0
 40
0.1029421872156514
100
AcDbArc
 50
177.7022684182436
 51
319.3092400211499
  0
LINE
  5
174
330
2
100
AcDbEntity
  8
0
100
AcDbLine
 10
6.125326609335426
 20
16.27094135849308
 30
0.0
 11
3.312507697795391
 21
17.13090640113803
 31
0.0
  0
LINE
  5
175
330
2
100
AcDbEntity
  8
0
100
AcDbLine
 10
6.062956966737142
 20
16.2244184614725
 30
0.0
 11
3.294689820096828
 21
17.07100003057263
 31
0.0
  0
LINE
  5
176
330
2
100
AcDbEntity
  8
0
100
AcDbLine
 10
4.135743551218619
 20
18.05179128696982
 30
0.0
 11
1.164544000566083
 21
18.05179128696982
 31
0.0
  0
LINE
  5
177
330
2
100
AcDbEntity
  8
0
100
AcDbLine
 10
1.188817990755043
 20
17.98929128696982
 30
0.0
 11
4.111469561029661
 21
17.98929128696982
 31
0.0
  0
ARC
  5
178
330
2
100
AcDbEntity
  8
0
100
AcDbCircle
 10
4.190029224631349
 20
11.43108795058799
 30
0.0
 40
0.1026971806177457
100
AcDbArc
 50
40.53024638579289
 51
182.3978513037659
  0
LINE
  5
179
330
2
100
AcDbEntity
  8
0
100
AcDbLine
 10
6.062956966737149
 20
13.2229184047968
 30
0.0
 11
3.294689820096835
 21
12.37633683569666
 31
0.0
  0
LINE
  5
17A
330
2
100
AcDbEntity
  8
0
100
AcDbLine
 10
6.125326609335433
 20
13.17639550777621
 30
0.0
 11
3.312507697795398
 21
12.31643046513126
 31
0.0
  0
LINE
  5
17B
330
2
100
AcDbEntity
  8
0
100
AcDbLine
 10
4.135743551218626
 20
11.36429128696981
 30
0.0
 11
1.164544000566091
 21
11.36429128696981
 31
0.0
  0
LINE
  5
17C
330
2
100
AcDbEntity
  8
0
100
AcDbLine
 10
1.18881799075505
 20
11.42679128696981
 30
0.0
 11
4.111469561029669
 21
11.42679128696981
 31
0.0
  0
LINE
  5
17D
330
2
100
AcDbEntity
  8
0
100
AcDbLine
 10
-1.349856224107638
 20
18.32017086251527
 30
0.0
 11
5.650143775892355
 21
18.32017102540888
 31
0.0
  0
LINE
  5
17E
330
2
100
AcDbEntity
  8
0
100
AcDbLine
 10
-0.9748562241076453
 20
18.44917102540887
 30
0.0
 11
6.275143775892355
 21
18.44917102540889
 31
0.0
  0
LINE
  5
17F
330
2
100
AcDbEntity
  8
0
100
AcDbLine
 10
-0.9748562241076453
 20
11.19117086251525
 30
0.0
 11
6.275143775892353
 21
11.19117086251527
 31
0.0
  0
LINE
  5
180
330
2
100
AcDbEntity
  8
0
100
AcDbLine
 10
-1.349856224107638
 20
11.32017086251527
 30
0.0
 11
6.650143775892358
 21
11.32017086251527
 31
0.0
  0
ARC
  5
181
330
2
100
AcDbEntity
  8
0
100
AcDbCircle
 10
4.212143775892349
 20
14.82017102540888
 30
0.0
 40
0.5315
100
AcDbArc
 50
90.0
 51
270.0
  0
LINE
  5
182
330
2
100
AcDbEntity
  8
0
100
AcDbLine
 10
-0.7561344138997921
 20
16.34309274272503
 30
0.0
 11
-0.7561344138997921
 21
17.92679128696982
 31
0.0
  0
LINE
  5
183
330
2
100
AcDbEntity
  8
0
100
AcDbLine
 10
-0.7626694149524393
 20
16.2244184614725
 30
0.0
 11
2.005597731687875
 21
17.07100003057263
 31
0.0
  0
LINE
  5
184
330
2
100
AcDbEntity
  8
0
100
AcDbLine
 10
-0.8250390575507236
 20
16.27094135849308
 30
0.0
 11
1.987779853989311
 21
17.13090640113803
 31
0.0
  0
LINE
  5
185
330
2
100
AcDbEntity
  8
0
100
AcDbLine
 10
-1.349856224107642
 20
18.3201711883025
 30
0.0
 11
-1.349856224107638
 21
11.32017086251527
 31
0.0
  0
LINE
  5
186
330
2
100
AcDbEntity
  8
0
100
AcDbLine
 10
-1.478856224107636
 20
18.32017086251527
 30
0.0
 11
-1.47885622410764
 21
11.32017086251527
 31
0.0
  0
LINE
  5
187
330
2
100
AcDbEntity
  8
0
100
AcDbLine
 10
-0.0613909302695799
 20
12.32549720762976
 30
0.0
 11
1.059519086238369
 21
11.39237783564973
 31
0.0
  0
LINE
  5
188
330
2
100
AcDbEntity
  8
0
100
AcDbLine
 10
-0.0204883107742386
 20
12.37415444067546
 30
0.0
 11
1.083793076427329
 21
11.45487783564973
 31
0.0
  0
LINE
  5
189
330
2
100
AcDbEntity
  8
0
100
AcDbLine
 10
-0.756134413899785
 20
11.48929128696981
 30
0.0
 11
-0.756134413899785
 21
13.1070515377307
 31
0.0
  0
LINE
  5
18A
330
2
100
AcDbEntity
  8
0
100
AcDbLine
 10
1.042453904349662
 20
11.48929128696981
 30
0.0
 11
-0.756134413899785
 21
11.48929128696981
 31
0.0
  0
LINE
  5
18B
330
2
100
AcDbEntity
  8
0
100
AcDbLine
 10
-0.9748562241076453
 20
11.19117086251525
 30
0.0
 11
-0.9748562241076453
 21
11.32017102540889
 31
0.0
  0
LINE
  5
18C
330
2
100
AcDbEntity
  8
0
100
AcDbLine
 10
-1.349856224107656
 20
11.57017086251527
 30
0.0
 11
-1.478856224107647
 21
11.57017086251527
 31
0.0
  0
LINE
  5
18D
330
2
100
AcDbEntity
  8
0
100
AcDbLine
 10
-1.349856224107656
 20
11.32017086251527
 30
0.0
 11
-1.478856224107647
 21
11.32017086251527
 31
0.0
  0
ARC
  5
18E
330
2
100
AcDbEntity
  8
0
100
AcDbCircle
 10
1.177139457802342
 20
11.59352613765169
 30
0.0
 40
0.1671433473514128
100
AcDbArc
 50
236.0491872576975
 51
274.0065985836332
  0
ARC
  5
18F
330
2
100
AcDbEntity
  8
0
100
AcDbCircle
 10
1.103865586100215
 20
11.42679128696981
 30
0.0
 40
0.109
100
AcDbArc
 50
0.0
 51
135.6227184505549
  0
ARC
  5
190
330
2
100
AcDbEntity
  8
0
100
AcDbCircle
 10
1.152865467613383
 20
11.53102613765169
 30
0.0
 40
0.1671433473514128
100
AcDbArc
 50
236.0491872576975
 51
274.0065985836332
  0
LINE
  5
191
330
2
100
AcDbEntity
  8
0
100
AcDbLine
 10
-0.8250390575507165
 20
13.17639550777621
 30
0.0
 11
1.987779853989318
 21
12.31643046513126
 31
0.0
  0
LINE
  5
192
330
2
100
AcDbEntity
  8
0
100
AcDbLine
 10
-0.7626694149524322
 20
13.2229184047968
 30
0.0
 11
2.005597731687882
 21
12.37633683569666
 31
0.0
  0
LINE
  5
193
330
2
100
AcDbEntity
  8
0
100
AcDbLine
 10
-0.8188374283273898
 20
16.14931902677497
 30
0.0
 11
-0.8188374283273827
 21
13.29801783949432
 31
0.0
  0
LINE
  5
194
330
2
100
AcDbEntity
  8
0
100
AcDbLine
 10
-0.8811062241076453
 20
16.19574412354427
 30
0.0
 11
-0.8811062241076382
 21
13.25159274272503
 31
0.0
  0
ARC
  5
195
330
2
100
AcDbEntity
  8
0
100
AcDbCircle
 10
-0.8186344138997885
 20
13.19354557929948
 30
0.0
 40
0.109000000000004
100
AcDbArc
 50
304.9872750882498
 51
7.065254714538658
  0
ARC
  5
196
330
2
100
AcDbEntity
  8
0
100
AcDbCircle
 10
-0.7422081702595289
 20
13.29677585654869
 30
0.0
 40
0.076639322241697
100
AcDbArc
 50
179.0714493031827
 51
254.5153011669098
  0
ARC
  5
197
330
2
100
AcDbEntity
  8
0
100
AcDbCircle
 10
-0.818634413899785
 20
13.19354557929948
 30
0.0
 40
0.109
100
AcDbArc
 50
7.065254714556792
 51
90.10671446428283
  0
ARC
  5
198
330
2
100
AcDbEntity
  8
0
100
AcDbCircle
 10
-0.8044769660397844
 20
13.25035075977939
 30
0.0
 40
0.076639322241697
100
AcDbArc
 50
179.0714493031827
 51
254.5153011669098
  0
ARC
  5
199
330
2
100
AcDbEntity
  8
0
100
AcDbCircle
 10
-0.8186344138998063
 20
16.25379128696981
 30
0.0
 40
0.1090000000000145
100
AcDbArc
 50
352.9347452854623
 51
55.01272491174647
  0
ARC
  5
19A
330
2
100
AcDbEntity
  8
0
100
AcDbCircle
 10
-0.8044769660397915
 20
16.1969861064899
 30
0.0
 40
0.076639322241697
100
AcDbArc
 50
105.4846988330902
 51
180.9285506968173
  0
ARC
  5
19B
330
2
100
AcDbEntity
  8
0
100
AcDbCircle
 10
-0.742208170259536
 20
16.1505610097206
 30
0.0
 40
0.076639322241697
100
AcDbArc
 50
105.4846988330902
 51
180.9285506968173
  0
ARC
  5
19C
330
2
100
AcDbEntity
  8
0
100
AcDbCircle
 10
-0.8186344138997921
 20
16.25379128696982
 30
0.0
 40
0.109
100
AcDbArc
 50
269.8932855357176
 51
352.9347452854432
  0
LINE
  5
19D
330
2
100
AcDbEntity
  8
0
100
AcDbLine
 10
3.587143775892349
 20
13.82017102540888
 30
0.0
 11
3.587143775892349
 21
15.82017102540888
 31
0.0
  0
LINE
  5
19E
330
2
100
AcDbEntity
  8
0
100
AcDbLine
 10
1.711487008214677
 20
13.82017102540888
 30
0.0
 11
1.711487008214677
 21
15.82017102540888
 31
0.0
  0
LINE
  5
19F
330
2
100
AcDbEntity
  8
0
100
AcDbLine
 10
-0.2885129917853249
 20
13.82017102540888
 30
0.0
 11
-0.2885129917853249
 21
15.82017102540888
 31
0.0
  0
ARC
  5
1A0
330
2
100
AcDbEntity
  8
0
100
AcDbCircle
 10
0.3381437758923607
 20
14.82017102540888
 30
0.0
 40
0.5315
100
AcDbArc
 50
90.0
 51
270.0
  0
ARC
  5
1A1
330
2
100
AcDbEntity
  8
0
100
AcDbCircle
 10
1.088143775892361
 20
14.82017102540888
 30
0.0
 40
0.5315
100
AcDbArc
 50
270.0
 51
90.0
  0
LINE
  5
1A2
330
2
100
AcDbEntity
  8
0
100
AcDbLine
 10
-0.0613909302695799
 20
12.32549720762976
 30
0.0
 11
-0.0204883107742386
 21
12.37415444067546
 31
0.0
  0
LINE
  5
1A3
330
2
100
AcDbEntity
  8
0
100
AcDbLine
 10
-0.2885129917853249
 20
13.82017102540888
 30
0.0
 11
1.711487008214677
 21
13.82017102540888
 31
0.0
  0
LINE
  5
1A4
330
2
100
AcDbEntity
  8
0
100
AcDbLine
 10
1.088143775892361
 20
14.28867102540888
 30
0.0
 11
0.3381437758923607
 21
14.28867102540888
 31
0.0
  0
LINE
  5
1A5
330
2
100
AcDbEntity
  8
0
100
AcDbLine
 10
1.9877798539934
 20
12.31643046513344
 30
0.0
 11
2.005597731687882
 21
12.37633683569666
 31
0.0
  0
LINE
  5
1A6
330
2
100
AcDbEntity
  8
0
100
AcDbLine
 10
3.312507697791316
 20
12.31643046513344
 30
0.0
 11
3.294689820096835
 21
12.37633683569666
 31
0.0
  0
CIRCLE
  5
1A7
330
2
100
AcDbEntity
  8
0
100
AcDbCircle
 10
0.7114870082146751
 20
14.82017102540888
 30
0.0
 40
0.34375
  0
LINE
  5
1A8
330
2
100
AcDbEntity
  8
0
100
AcDbLine
 10
0.3381437758923607
 20
15.35167102540888
 30
0.0
 11
1.088143775892361
 21
15.35167102540888
 31
0.0
  0
LINE
  5
1A9
330
2
100
AcDbEntity
  8
0
100
AcDbLine
 10
-0.2885129917853249
 20
15.82017102540888
 30
0.0
 11
1.711487008214677
 21
15.82017102540888
 31
0.0
  0
LINE
  5
1AA
330
2
100
AcDbEntity
  8
0
100
AcDbLine
 10
1.042453904349662
 20
17.92679128696982
 30
0.0
 11
-0.7561344138997921
 21
17.92679128696982
 31
0.0
  0
LINE
  5
1AB
330
2
100
AcDbEntity
  8
0
100
AcDbLine
 10
-1.349856224107652
 20
18.07017086251528
 30
0.0
 11
-1.478856224107643
 21
18.07017086251528
 31
0.0
  0
LINE
  5
1AC
330
2
100
AcDbEntity
  8
0
100
AcDbLine
 10
-1.349856224107638
 20
18.32017086251527
 30
0.0
 11
-1.478856224107636
 21
18.32017086251527
 31
0.0
  0
LINE
  5
1AD
330
2
100
AcDbEntity
  8
0
100
AcDbLine
 10
-0.9748562241076453
 20
18.32017102540888
 30
0.0
 11
-0.9748562241076453
 21
18.44917102540887
 31
0.0
  0
LINE
  5
1AE
330
2
100
AcDbEntity
  8
0
100
AcDbLine
 10
-0.0204883107742457
 20
17.04192813326417
 30
0.0
 11
1.083793076427321
 21
17.96120473828989
 31
0.0
  0
LINE
  5
1AF
330
2
100
AcDbEntity
  8
0
100
AcDbLine
 10
-0.061390930269587
 20
17.09058536630987
 30
0.0
 11
1.059519086238362
 21
18.02370473828989
 31
0.0
  0
LINE
  5
1B0
330
2
100
AcDbEntity
  8
0
100
AcDbLine
 10
-0.061390930269587
 20
17.09058536630987
 30
0.0
 11
-0.0204883107742457
 21
17.04192813326417
 31
0.0
  0
ARC
  5
1B1
330
2
100
AcDbEntity
  8
0
100
AcDbCircle
 10
1.177139457802335
 20
17.82255643628794
 30
0.0
 40
0.1671433473514128
100
AcDbArc
 50
85.99340141636679
 51
123.9508127423025
  0
ARC
  5
1B2
330
2
100
AcDbEntity
  8
0
100
AcDbCircle
 10
1.152865467613376
 20
17.88505643628794
 30
0.0
 40
0.1671433473514128
100
AcDbArc
 50
85.99340141636679
 51
123.9508127423025
  0
ARC
  5
1B3
330
2
100
AcDbEntity
  8
0
100
AcDbCircle
 10
1.103865586100207
 20
17.98929128696982
 30
0.0
 40
0.109
100
AcDbArc
 50
224.3772815494438
 51
0.0
  0
LINE
  5
1B4
330
2
100
AcDbEntity
  8
0
100
AcDbLine
 10
1.987779853993393
 20
17.13090640113585
 30
0.0
 11
2.005597731687875
 21
17.07100003057263
 31
0.0
  0
LINE
  5
1B5
330
2
100
AcDbEntity
  8
0
100
AcDbLine
 10
3.312507697791309
 20
17.13090640113585
 30
0.0
 11
3.294689820096828
 21
17.07100003057263
 31
0.0
  0
LINE
  5
1B6
330
2
100
AcDbEntity
  8
0
100
AcDbLine
 10
6.056421965684494
 20
16.34309274272503
 30
0.0
 11
6.056421965684494
 21
17.92679128696982
 31
0.0
  0
LINE
  5
1B7
330
2
100
AcDbEntity
  8
0
100
AcDbLine
 10
6.650143775892344
 20
18.32017086251527
 30
0.0
 11
6.650143775892358
 21
11.32017086251527
 31
0.0
  0
LINE
  5
1B8
330
2
100
AcDbEntity
  8
0
100
AcDbLine
 10
6.779143775892344
 20
18.32017086251527
 30
0.0
 11
6.779143775892356
 21
11.32017086251527
 31
0.0
  0
LINE
  5
1B9
330
2
100
AcDbEntity
  8
0
100
AcDbLine
 10
6.056421965684502
 20
11.48929128696981
 30
0.0
 11
6.056421965684502
 21
13.10424412354426
 31
0.0
  0
LINE
  5
1BA
330
2
100
AcDbEntity
  8
0
100
AcDbLine
 10
5.361678482054296
 20
12.32549720762976
 30
0.0
 11
4.240768465546346
 21
11.39237783564973
 31
0.0
  0
LINE
  5
1BB
330
2
100
AcDbEntity
  8
0
100
AcDbLine
 10
5.320775862558957
 20
12.37415444067546
 30
0.0
 11
4.21649447535739
 21
11.45487783564973
 31
0.0
  0
LINE
  5
1BC
330
2
100
AcDbEntity
  8
0
100
AcDbLine
 10
4.257833647435048
 20
11.48929128696981
 30
0.0
 11
6.057421965684506
 21
11.48929128696981
 31
0.0
  0
ARC
  5
1BD
330
2
100
AcDbEntity
  8
0
100
AcDbCircle
 10
4.123148093982376
 20
11.59352613765169
 30
0.0
 40
0.1671433473514128
100
AcDbArc
 50
265.9934014163668
 51
303.9508127423025
  0
ARC
  5
1BE
330
2
100
AcDbEntity
  8
0
100
AcDbCircle
 10
4.147422084171334
 20
11.53102613765169
 30
0.0
 40
0.1671433473514128
100
AcDbArc
 50
265.9934014163668
 51
303.9508127423025
  0
LINE
  5
1BF
330
2
100
AcDbEntity
  8
0
100
AcDbLine
 10
6.275143775892353
 20
11.19117086251527
 30
0.0
 11
6.275143775892355
 21
11.32017102540889
 31
0.0
  0
LINE
  5
1C0
330
2
100
AcDbEntity
  8
0
100
AcDbLine
 10
6.650143775892358
 20
11.57017086251527
 30
0.0
 11
6.779143775892349
 21
11.57017086251527
 31
0.0
  0
LINE
  5
1C1
330
2
100
AcDbEntity
  8
0
100
AcDbLine
 10
6.650143775892358
 20
11.32017086251527
 30
0.0
 11
6.779143775892349
 21
11.32017086251527
 31
0.0
  0
LINE
  5
1C2
330
2
100
AcDbEntity
  8
0
100
AcDbLine
 10
5.587143775892349
 20
13.82017102540888
 30
0.0
 11
5.587143775892349
 21
15.82017102540888
 31
0.0
  0
LINE
  5
1C3
330
2
100
AcDbEntity
  8
0
100
AcDbLine
 10
6.119124980112092
 20
16.14931902677497
 30
0.0
 11
6.119124980112098
 21
13.29801783949432
 31
0.0
  0
LINE
  5
1C4
330
2
100
AcDbEntity
  8
0
100
AcDbLine
 10
6.181393775892348
 20
16.19574412354427
 30
0.0
 11
6.181393775892353
 21
13.25159274272503
 31
0.0
  0
ARC
  5
1C5
330
2
100
AcDbEntity
  8
0
100
AcDbCircle
 10
4.962143775892349
 20
14.82017102540888
 30
0.0
 40
0.5315
100
AcDbArc
 50
270.0
 51
90.0
  0
ARC
  5
1C6
330
2
100
AcDbEntity
  8
0
100
AcDbCircle
 10
6.118921965684494
 20
13.19354557929948
 30
0.0
 40
0.1089999999999945
100
AcDbArc
 50
206.6508833465848
 51
235.0127249117538
  0
LINE
  5
1C7
330
2
100
AcDbEntity
  8
0
100
AcDbLine
 10
5.361678482054296
 20
12.32549720762976
 30
0.0
 11
5.320775862558957
 21
12.37415444067546
 31
0.0
  0
LINE
  5
1C8
330
2
100
AcDbEntity
  8
0
100
AcDbLine
 10
4.212143775892349
 20
14.28867102540888
 30
0.0
 11
4.962143775892349
 21
14.28867102540888
 31
0.0
  0
ARC
  5
1C9
330
2
100
AcDbEntity
  8
0
100
AcDbCircle
 10
6.118921965684502
 20
13.19354557929948
 30
0.0
 40
0.109
100
AcDbArc
 50
89.89328553571902
 51
206.6508833465777
  0
ARC
  5
1CA
330
2
100
AcDbEntity
  8
0
100
AcDbCircle
 10
6.042495722044246
 20
13.29677585654869
 30
0.0
 40
0.076639322241697
100
AcDbArc
 50
285.4846988330903
 51
0.9285506968172846
  0
ARC
  5
1CB
330
2
100
AcDbEntity
  8
0
100
AcDbCircle
 10
6.104764517824501
 20
13.25035075977939
 30
0.0
 40
0.076639322241697
100
AcDbArc
 50
285.4846988330903
 51
0.9285506968172846
  0
CIRCLE
  5
1CC
330
2
100
AcDbEntity
  8
0
100
AcDbCircle
 10
4.587143775892349
 20
14.82017102540888
 30
0.0
 40
0.34375
  0
LINE
  5
1CD
330
2
100
AcDbEntity
  8
0
100
AcDbLine
 10
4.962143775892349
 20
15.35167102540888
 30
0.0
 11
4.212143775892349
 21
15.35167102540888
 31
0.0
  0
ARC
  5
1CE
330
2
100
AcDbEntity
  8
0
100
AcDbCircle
 10
6.118921965684494
 20
16.25379128696982
 30
0.0
 40
0.109
100
AcDbArc
 50
153.3491166533996
 51
270.1067144642829
  0
ARC
  5
1CF
330
2
100
AcDbEntity
  8
0
100
AcDbCircle
 10
6.104764517824494
 20
16.1969861064899
 30
0.0
 40
0.076639322241697
100
AcDbArc
 50
359.0714493031828
 51
74.51530116690979
  0
ARC
  5
1D0
330
2
100
AcDbEntity
  8
0
100
AcDbCircle
 10
6.042495722044238
 20
16.1505610097206
 30
0.0
 40
0.076639322241697
100
AcDbArc
 50
359.0714493031828
 51
74.51530116690979
  0
ARC
  5
1D1
330
2
100
AcDbEntity
  8
0
100
AcDbCircle
 10
6.118921965684498
 20
16.25379128696982
 30
0.0
 40
0.1090000000000025
100
AcDbArc
 50
124.9872750882503
 51
153.3491166534177
  0
LINE
  5
1D2
330
2
100
AcDbEntity
  8
0
100
AcDbLine
 10
6.650143775892344
 20
18.32017086251527
 30
0.0
 11
5.650143775892355
 21
18.32017102540888
 31
0.0
  0
LINE
  5
1D3
330
2
100
AcDbEntity
  8
0
100
AcDbLine
 10
5.361678482054289
 20
17.09058536630987
 30
0.0
 11
4.240768465546339
 21
18.02370473828989
 31
0.0
  0
LINE
  5
1D4
330
2
100
AcDbEntity
  8
0
100
AcDbLine
 10
5.32077586255895
 20
17.04192813326417
 30
0.0
 11
4.216494475357383
 21
17.96120473828989
 31
0.0
  0
LINE
  5
1D5
330
2
100
AcDbEntity
  8
0
100
AcDbLine
 10
4.257833647435046
 20
17.92679128696982
 30
0.0
 11
6.057421965684499
 21
17.92679128696982
 31
0.0
  0
ARC
  5
1D6
330
2
100
AcDbEntity
  8
0
100
AcDbCircle
 10
4.123148093982369
 20
17.82255643628794
 30
0.0
 40
0.1671433473514128
100
AcDbArc
 50
56.04918725769747
 51
94.00659858363321
  0
ARC
  5
1D7
330
2
100
AcDbEntity
  8
0
100
AcDbCircle
 10
4.147422084171327
 20
17.88505643628794
 30
0.0
 40
0.1671433473514128
100
AcDbArc
 50
56.04918725769747
 51
94.00659858363321
  0
LINE
  5
1D8
330
2
100
AcDbEntity
  8
0
100
AcDbLine
 10
5.361678482054289
 20
17.09058536630987
 30
0.0
 11
5.32077586255895
 21
17.04192813326417
 31
0.0
  0
LINE
  5
1D9
330
2
100
AcDbEntity
  8
0
100
AcDbLine
 10
6.275143775892357
 20
18.32017102540888
 30
0.0
 11
6.275143775892355
 21
18.44917102540889
 31
0.0
  0
LINE
  5
1DA
330
2
100
AcDbEntity
  8
0
100
AcDbLine
 10
6.65014377589236
 20
18.07017086251528
 30
0.0
 11
6.779143775892351
 21
18.07017086251528
 31
0.0
  0
LINE
  5
1DB
330
2
100
AcDbEntity
  8
0
100
AcDbLine
 10
17.96280781281855
 20
0.3415891358474674
 30
0.0
 11
19.96280781281855
 21
0.3415891358474674
 31
0.0
  0
LINE
  5
1DC
330
2
100
AcDbEntity
  8
0
100
AcDbLine
 10
17.59462579533383
 20
1.030600247473952
 30
0.0
 11
20.34537169151608
 21
1.029730739275781
 31
0.0
  0
LINE
  5
1DD
330
2
100
AcDbEntity
  8
0
100
AcDbLine
 10
22.30512598378341
 20
1.09367246076825
 30
0.0
 11
15.75012598378341
 21
1.093703048326027
 31
0.0
  0
LINE
  5
1DE
330
2
100
AcDbEntity
  8
0
100
AcDbLine
 10
15.70738787922034
 20
7.093749999999998
 30
0.0
 11
22.35383448862707
 21
7.093749999999998
 31
0.0
  0
LINE
  5
1DF
330
2
100
AcDbEntity
  8
0
100
AcDbLine
 10
15.5306111839237
 20
0.0
 30
0.0
 11
22.5306111839237
 21
0.0000000000000089
 31
0.0
  0
LINE
  5
1E0
330
2
100
AcDbEntity
  8
0
100
AcDbLine
 10
15.5306111839237
 20
0.0915891358474603
 30
0.0
 11
22.5306111839237
 21
0.0915891358474816
 31
0.0
  0
LINE
  5
1E1
330
2
100
AcDbEntity
  8
0
100
AcDbLine
 10
15.5306111839237
 20
0.0
 30
0.0
 11
15.5306111839237
 21
6.916973304703364
 31
0.0
  0
LINE
  5
1E2
330
2
100
AcDbEntity
  8
0
100
AcDbLine
 10
15.8203819218537
 20
1.03116353594325
 30
0.0
 11
17.59462579533383
 21
1.030600247473952
 31
0.0
  0
LINE
  5
1E3
330
2
100
AcDbEntity
  8
0
100
AcDbLine
 10
16.64883190444336
 20
0.0933992120359122
 30
0.0
 11
16.64883190444336
 21
1.030899212035905
 31
0.0
  0
LINE
  5
1E4
330
2
100
AcDbEntity
  8
0
100
AcDbLine
 10
16.69748913748907
 20
0.0933838315301756
 30
0.0
 11
16.69748913748907
 21
1.030883831530169
 31
0.0
  0
LINE
  5
1E5
330
2
100
AcDbEntity
  8
0
100
AcDbLine
 10
15.75012598378341
 20
0.892796470864937
 30
0.0
 11
15.75012598378341
 21
0.0936832921346351
 31
0.0
  0
LINE
  5
1E6
330
2
100
AcDbEntity
  8
0
100
AcDbLine
 10
15.68609638406398
 20
1.023703048326027
 30
0.0
 11
15.68609638406397
 21
0.091589135847471
 31
0.0
  0
LINE
  5
1E7
330
2
100
AcDbEntity
  8
0
100
AcDbLine
 10
15.4368611839237
 20
0.125
 30
0.0
 11
15.4368611839237
 21
1.037913881496499
 31
0.0
  0
ARC
  5
1E8
330
2
100
AcDbEntity
  8
0
100
AcDbCircle
 10
15.5618611839237
 20
0.125
 30
0.0
 40
0.125
100
AcDbArc
 50
180.0
 51
270.0
  0
LINE
  5
1E9
330
2
100
AcDbEntity
  8
0
100
AcDbLine
 10
15.4368611839237
 20
1.037913881496499
 30
0.0
 11
15.5306111839237
 21
1.037913881496499
 31
0.0
  0
ARC
  5
1EA
330
2
100
AcDbEntity
  8
0
100
AcDbCircle
 10
15.75609638406398
 20
1.023703048326023
 30
0.0
 40
0.07
100
AcDbArc
 50
90.00000000000003
 51
180.0000000000005
  0
LINE
  5
1EB
330
2
100
AcDbEntity
  8
0
100
AcDbLine
 10
15.81262598378341
 20
1.03116353594325
 30
0.0
 11
15.81262598378341
 21
1.09366353594325
 31
0.0
  0
LINE
  5
1EC
330
2
100
AcDbEntity
  8
0
100
AcDbLine
 10
15.7503819218537
 20
0.9611635359432498
 30
0.0
 11
15.75024439941444
 21
0.9244280649613259
 31
0.0
  0
ARC
  5
1ED
330
2
100
AcDbEntity
  8
0
100
AcDbCircle
 10
15.8203819218537
 20
0.9611635359432462
 30
0.0
 40
0.07
100
AcDbArc
 50
90.00000000000003
 51
180.0000000000005
  0
ARC
  5
1EE
330
2
100
AcDbEntity
  8
0
100
AcDbCircle
 10
15.76180950750993
 20
1.056723523215716
 30
0.0
 40
0.1328000000000006
100
AcDbArc
 50
235.2407822666783
 51
346.4754578114319
  0
LINE
  5
1EF
330
2
100
AcDbEntity
  8
0
100
AcDbLine
 10
17.49652949752768
 20
0.0931312556216923
 30
0.0
 11
17.49652949752768
 21
0.8968532393320778
 31
0.0
  0
LINE
  5
1F0
330
2
100
AcDbEntity
  8
0
100
AcDbLine
 10
17.96280781281855
 20
0.3415891358474674
 30
0.0
 11
17.96280781281855
 21
0.0915891358474674
 31
0.0
  0
ARC
  5
1F1
330
2
100
AcDbEntity
  8
0
100
AcDbCircle
 10
17.531941004542
 20
1.025069759925096
 30
0.0
 40
0.1328000000000014
100
AcDbArc
 50
180.8472237445261
 51
254.7189381834384
  0
ARC
  5
1F2
330
2
100
AcDbEntity
  8
0
100
AcDbCircle
 10
17.461941004542
 20
1.025069759925096
 30
0.0
 40
0.1328000000000014
100
AcDbArc
 50
180.8472237445261
 51
30.81862973179237
  0
CIRCLE
  5
1F3
330
2
100
AcDbEntity
  8
0
100
AcDbCircle
 10
17.52487656734389
 20
4.520817253535048
 30
0.0
 40
0.1405
  0
CIRCLE
  5
1F6
330
2
100
AcDbEntity
  8
0
100
AcDbCircle
 10
16.7806111839237
 20
4.530750000000001
 30
0.0
 40
0.0855
  0
CIRCLE
  5
1F7
330
2
100
AcDbEntity
  8
0
100
AcDbCircle
 10
17.0306111839237
 20
5.343750000000004
 30
0.0
 40
0.0855
  0
CIRCLE
  5
1FB
330
2
100
AcDbEntity
  8
0
100
AcDbCircle
 10
16.7806111839237
 20
6.120552903402297
 30
0.0
 40
0.0855
  0
CIRCLE
  5
1FD
330
2
100
AcDbEntity
  8
0
100
AcDbCircle
 10
19.2806111839237
 20
5.593750000000009
 30
0.0
 40
0.0855
  0
CIRCLE
  5
201
330
2
100
AcDbEntity
  8
0
100
AcDbCircle
 10
18.7806111839237
 20
4.780750000000007
 30
0.0
 40
0.0855
  0
CIRCLE
  5
205
330
2
100
AcDbEntity
  8
0
100
AcDbCircle
 10
17.89987656734389
 20
6.14581725353505
 30
0.0
 40
0.1405
  0
CIRCLE
  5
208
330
2
100
AcDbEntity
  8
0
100
AcDbCircle
 10
18.7806111839237
 20
6.405749999999999
 30
0.0
 40
0.0855
  0
LINE
  5
20B
330
2
100
AcDbEntity
  8
0
100
AcDbLine
 10
15.5306111839237
 20
6.916973304703364
 30
0.0
 11
15.70738787922034
 21
7.093749999999998
 31
0.0
  0
LINE
  5
20C
330
2
100
AcDbEntity
  8
0
100
AcDbLine
 10
22.5306111839237
 20
6.916973304703364
 30
0.0
 11
22.5306111839237
 21
0.0
 31
0.0
  0
LINE
  5
20D
330
2
100
AcDbEntity
  8
0
100
AcDbLine
 10
22.2408404459937
 20
1.031132948385473
 30
0.0
 11
20.46133083851709
 21
1.03057132440976
 31
0.0
  0
LINE
  5
20E
330
2
100
AcDbEntity
  8
0
100
AcDbLine
 10
21.35846749636186
 20
0.093354908465983
 30
0.0
 11
21.35846749636186
 21
1.030854908465976
 31
0.0
  0
LINE
  5
20F
330
2
100
AcDbEntity
  8
0
100
AcDbLine
 10
21.40712472940756
 20
0.0933702889717161
 30
0.0
 11
21.40712472940756
 21
1.030870288971713
 31
0.0
  0
LINE
  5
210
330
2
100
AcDbEntity
  8
0
100
AcDbLine
 10
20.55942713632324
 20
0.0931023325574998
 30
0.0
 11
20.55942713632324
 21
0.8968243162678853
 31
0.0
  0
LINE
  5
211
330
2
100
AcDbEntity
  8
0
100
AcDbLine
 10
19.96280781281855
 20
0.3415891358474674
 30
0.0
 11
19.96280781281855
 21
0.0915891358474674
 31
0.0
  0
ARC
  5
212
330
2
100
AcDbEntity
  8
0
100
AcDbCircle
 10
20.52401562930892
 20
1.025040836860903
 30
0.0
 40
0.1328000000000014
100
AcDbArc
 50
285.2810618165616
 51
359.152776255474
  0
ARC
  5
213
330
2
100
AcDbEntity
  8
0
100
AcDbCircle
 10
20.59401562930892
 20
1.025040836860903
 30
0.0
 40
0.1328000000000014
100
AcDbArc
 50
149.1813702682076
 51
359.152776255474
  0
LINE
  5
214
330
2
100
AcDbEntity
  8
0
100
AcDbLine
 10
22.31109638406398
 20
0.8927658833071632
 30
0.0
 11
22.31109638406398
 21
0.0936527045768614
 31
0.0
  0
LINE
  5
215
330
2
100
AcDbEntity
  8
0
100
AcDbLine
 10
22.37512598378341
 20
1.02367246076825
 30
0.0
 11
22.37512598378341
 21
0.091589135847471
 31
0.0
  0
LINE
  5
216
330
2
100
AcDbEntity
  8
0
100
AcDbLine
 10
22.6243611839237
 20
0.125
 30
0.0
 11
22.6243611839237
 21
1.037913881496499
 31
0.0
  0
ARC
  5
217
330
2
100
AcDbEntity
  8
0
100
AcDbCircle
 10
22.4993611839237
 20
0.125
 30
0.0
 40
0.125
100
AcDbArc
 50
270.0
 51
0.0
  0
ARC
  5
218
330
2
100
AcDbEntity
  8
0
100
AcDbCircle
 10
22.29941286033746
 20
1.056692935657942
 30
0.0
 40
0.1328000000000006
100
AcDbArc
 50
193.5245421885682
 51
304.7592177333218
  0
ARC
  5
219
330
2
100
AcDbEntity
  8
0
100
AcDbCircle
 10
22.2408404459937
 20
0.9611329483854725
 30
0.0
 40
0.07
100
AcDbArc
 50
359.9999999999995
 51
90.00000000000003
  0
LINE
  5
21A
330
2
100
AcDbEntity
  8
0
100
AcDbLine
 10
22.24859638406398
 20
1.031132948385473
 30
0.0
 11
22.24859638406398
 21
1.093632948385473
 31
0.0
  0
ARC
  5
21B
330
2
100
AcDbEntity
  8
0
100
AcDbCircle
 10
22.30512598378341
 20
1.02367246076825
 30
0.0
 40
0.07
100
AcDbArc
 50
359.9999999999995
 51
90.00000000000003
  0
LINE
  5
21C
330
2
100
AcDbEntity
  8
0
100
AcDbLine
 10
22.3108404459937
 20
0.9611329483854725
 30
0.0
 11
22.31097796843294
 21
0.9243974774035486
 31
0.0
  0
LINE
  5
21D
330
2
100
AcDbEntity
  8
0
100
AcDbLine
 10
22.6243611839237
 20
1.037913881496499
 30
0.0
 11
22.5306111839237
 21
1.037913881496499
 31
0.0
  0
CIRCLE
  5
21E
330
2
100
AcDbEntity
  8
0
100
AcDbCircle
 10
20.52487656734389
 20
4.520817253535057
 30
0.0
 40
0.1405
  0
CIRCLE
  5
223
330
2
100
AcDbEntity
  8
0
100
AcDbCircle
 10
21.2806111839237
 20
4.530750000000014
 30
0.0
 40
0.0855
  0
CIRCLE
  5
224
330
2
100
AcDbEntity
  8
0
100
AcDbCircle
 10
21.0306111839237
 20
5.343750000000012
 30
0.0
 40
0.0855
  0
CIRCLE
  5
228
330
2
100
AcDbEntity
  8
0
100
AcDbCircle
 10
20.14987656734389
 20
6.145817253535055
 30
0.0
 40
0.1405
  0
CIRCLE
  5
22C
330
2
100
AcDbEntity
  8
0
100
AcDbCircle
 10
21.2806111839237
 20
6.155750000000014
 30
0.0
 40
0.0855
  0
LINE
  5
22D
330
2
100
AcDbEntity
  8
0
100
AcDbLine
 10
22.5306111839237
 20
6.916973304703364
 30
0.0
 11
22.35383448862707
 21
7.093749999999998
 31
0.0
  0
LINE
  5
232
330
2
100
AcDbEntity
  8
0
100
AcDbLine
 10
-10.23032363213899
 20
0.0915891358474603
 30
0.0
 11
-17.23032363213899
 21
0.0915891358474816
 31
0.0
  0
LINE
  5
233
330
2
100
AcDbEntity
  8
0
100
AcDbLine
 10
-10.23032363213899
 20
0.0
 30
0.0
 11
-17.23032363213899
 21
0.0000000000000089
 31
0.0
  0
LINE
  5
234
330
2
100
AcDbEntity
  8
0
100
AcDbLine
 10
-10.40710032743563
 20
7.093749999999998
 30
0.0
 11
-17.05354693684236
 21
7.093749999999998
 31
0.0
  0
LINE
  5
235
330
2
100
AcDbEntity
  8
0
100
AcDbLine
 10
-17.00483843199871
 20
1.09367246076825
 30
0.0
 11
-10.44983843199871
 21
1.093703048326027
 31
0.0
  0
LINE
  5
236
330
2
100
AcDbEntity
  8
0
100
AcDbLine
 10
-12.29433824354913
 20
1.030600247473952
 30
0.0
 11
-15.04508413973137
 21
1.029730739275781
 31
0.0
  0
LINE
  5
237
330
2
100
AcDbEntity
  8
0
100
AcDbLine
 10
-12.66252026103384
 20
0.3415891358474674
 30
0.0
 11
-14.66252026103384
 21
0.3415891358474674
 31
0.0
  0
LINE
  5
238
330
2
100
AcDbEntity
  8
0
100
AcDbLine
 10
-10.23032363213899
 20
0.0
 30
0.0
 11
-10.23032363213899
 21
6.916973304703364
 31
0.0
  0
ARC
  5
239
330
2
100
AcDbEntity
  8
0
100
AcDbCircle
 10
-12.16165345275729
 20
1.025069759925096
 30
0.0
 40
0.1328000000000014
100
AcDbArc
 50
149.1813702682076
 51
359.1527762554739
  0
ARC
  5
23A
330
2
100
AcDbEntity
  8
0
100
AcDbCircle
 10
-12.23165345275729
 20
1.025069759925096
 30
0.0
 40
0.1328000000000014
100
AcDbArc
 50
285.2810618165617
 51
359.1527762554739
  0
ARC
  5
23B
330
2
100
AcDbEntity
  8
0
100
AcDbCircle
 10
-10.46152195572523
 20
1.056723523215716
 30
0.0
 40
0.1328000000000006
100
AcDbArc
 50
193.5245421885682
 51
304.7592177333218
  0
ARC
  5
23C
330
2
100
AcDbEntity
  8
0
100
AcDbCircle
 10
-10.52009437006899
 20
0.9611635359432462
 30
0.0
 40
0.07
100
AcDbArc
 50
359.9999999999995
 51
89.99999999999999
  0
LINE
  5
23D
330
2
100
AcDbEntity
  8
0
100
AcDbLine
 10
-10.13657363213899
 20
0.125
 30
0.0
 11
-10.13657363213899
 21
1.037913881496499
 31
0.0
  0
LINE
  5
23E
330
2
100
AcDbEntity
  8
0
100
AcDbLine
 10
-10.38580883227927
 20
1.023703048326027
 30
0.0
 11
-10.38580883227927
 21
0.091589135847471
 31
0.0
  0
LINE
  5
23F
330
2
100
AcDbEntity
  8
0
100
AcDbLine
 10
-11.39720158570436
 20
0.0933838315301756
 30
0.0
 11
-11.39720158570436
 21
1.030883831530169
 31
0.0
  0
LINE
  5
240
330
2
100
AcDbEntity
  8
0
100
AcDbLine
 10
-11.34854435265866
 20
0.0933992120359122
 30
0.0
 11
-11.34854435265866
 21
1.030899212035905
 31
0.0
  0
LINE
  5
241
330
2
100
AcDbEntity
  8
0
100
AcDbLine
 10
-10.44983843199871
 20
0.892796470864937
 30
0.0
 11
-10.44983843199871
 21
0.0936832921346351
 31
0.0
  0
ARC
  5
242
330
2
100
AcDbEntity
  8
0
100
AcDbCircle
 10
-10.26157363213899
 20
0.125
 30
0.0
 40
0.125
100
AcDbArc
 50
270.0
 51
0.000000000000007
  0
LINE
  5
243
330
2
100
AcDbEntity
  8
0
100
AcDbLine
 10
-10.45009437006899
 20
0.9611635359432498
 30
0.0
 11
-10.44995684762974
 21
0.9244280649613259
 31
0.0
  0
LINE
  5
244
330
2
100
AcDbEntity
  8
0
100
AcDbLine
 10
-12.19624194574297
 20
0.0931312556216923
 30
0.0
 11
-12.19624194574297
 21
0.8968532393320778
 31
0.0
  0
LINE
  5
245
330
2
100
AcDbEntity
  8
0
100
AcDbLine
 10
-12.66252026103384
 20
0.3415891358474674
 30
0.0
 11
-12.66252026103384
 21
0.0915891358474674
 31
0.0
  0
LINE
  5
246
330
2
100
AcDbEntity
  8
0
100
AcDbLine
 10
-10.52009437006899
 20
1.03116353594325
 30
0.0
 11
-12.29433824354913
 21
1.030600247473952
 31
0.0
  0
ARC
  5
247
330
2
100
AcDbEntity
  8
0
100
AcDbCircle
 10
-10.45580883227927
 20
1.023703048326023
 30
0.0
 40
0.07
100
AcDbArc
 50
359.9999999999995
 51
89.99999999999999
  0
LINE
  5
248
330
2
100
AcDbEntity
  8
0
100
AcDbLine
 10
-10.13657363213899
 20
1.037913881496499
 30
0.0
 11
-10.23032363213899
 21
1.037913881496499
 31
0.0
  0
LINE
  5
249
330
2
100
AcDbEntity
  8
0
100
AcDbLine
 10
-10.51233843199871
 20
1.03116353594325
 30
0.0
 11
-10.51233843199871
 21
1.09366353594325
 31
0.0
  0
CIRCLE
  5
24A
330
2
100
AcDbEntity
  8
0
100
AcDbCircle
 10
-11.480323632139
 20
5.330416666666666
 30
0.0
 40
0.0855
  0
CIRCLE
  5
24C
330
2
100
AcDbEntity
  8
0
100
AcDbCircle
 10
-11.72607898706525
 20
4.517416666666666
 30
0.0
 40
0.0855
  0
CIRCLE
  5
250
330
2
100
AcDbEntity
  8
0
100
AcDbCircle
 10
-13.980323632139
 20
4.780749999999999
 30
0.0
 40
0.0855
  0
CIRCLE
  5
251
330
2
100
AcDbEntity
  8
0
100
AcDbCircle
 10
-12.605323632139
 20
4.517416666666666
 30
0.0
 40
0.1405
  0
LINE
  5
257
330
2
100
AcDbEntity
  8
0
100
AcDbLine
 10
-10.23032363213899
 20
6.916973304703364
 30
0.0
 11
-10.40710032743563
 21
7.093749999999998
 31
0.0
  0
CIRCLE
  5
259
330
2
100
AcDbEntity
  8
0
100
AcDbCircle
 10
-11.730323632139
 20
6.142416666666666
 30
0.0
 40
0.0855
  0
CIRCLE
  5
25A
330
2
100
AcDbEntity
  8
0
100
AcDbCircle
 10
-12.230323632139
 20
6.392416666666666
 30
0.0
 40
0.1405
  0
CIRCLE
  5
25D
330
2
100
AcDbEntity
  8
0
100
AcDbCircle
 10
-13.980323632139
 20
6.392416666666666
 30
0.0
 40
0.0855
  0
LINE
  5
25E
330
2
100
AcDbEntity
  8
0
100
AcDbLine
 10
-17.23032363213899
 20
6.916973304703364
 30
0.0
 11
-17.23032363213899
 21
0.0
 31
0.0
  0
ARC
  5
25F
330
2
100
AcDbEntity
  8
0
100
AcDbCircle
 10
-16.94055289420899
 20
0.9611329483854725
 30
0.0
 40
0.07
100
AcDbArc
 50
89.99999999999999
 51
180.0000000000005
  0
ARC
  5
260
330
2
100
AcDbEntity
  8
0
100
AcDbCircle
 10
-16.99912530855276
 20
1.056692935657942
 30
0.0
 40
0.1328000000000006
100
AcDbArc
 50
235.2407822666783
 51
346.4754578114319
  0
LINE
  5
261
330
2
100
AcDbEntity
  8
0
100
AcDbLine
 10
-17.32407363213899
 20
0.125
 30
0.0
 11
-17.32407363213899
 21
1.037913881496499
 31
0.0
  0
LINE
  5
262
330
2
100
AcDbEntity
  8
0
100
AcDbLine
 10
-17.07483843199871
 20
1.02367246076825
 30
0.0
 11
-17.07483843199871
 21
0.091589135847471
 31
0.0
  0
ARC
  5
263
330
2
100
AcDbEntity
  8
0
100
AcDbCircle
 10
-15.29372807752421
 20
1.025040836860903
 30
0.0
 40
0.1328000000000014
100
AcDbArc
 50
180.8472237445261
 51
30.81862973179237
  0
ARC
  5
264
330
2
100
AcDbEntity
  8
0
100
AcDbCircle
 10
-15.22372807752421
 20
1.025040836860903
 30
0.0
 40
0.1328000000000014
100
AcDbArc
 50
180.8472237445261
 51
254.7189381834384
  0
LINE
  5
265
330
2
100
AcDbEntity
  8
0
100
AcDbLine
 10
-16.10683717762285
 20
0.0933702889717161
 30
0.0
 11
-16.10683717762285
 21
1.030870288971713
 31
0.0
  0
LINE
  5
266
330
2
100
AcDbEntity
  8
0
100
AcDbLine
 10
-16.05817994457716
 20
0.093354908465983
 30
0.0
 11
-16.05817994457716
 21
1.030854908465976
 31
0.0
  0
ARC
  5
267
330
2
100
AcDbEntity
  8
0
100
AcDbCircle
 10
-17.19907363213899
 20
0.125
 30
0.0
 40
0.125
100
AcDbArc
 50
180.0
 51
270.0
  0
LINE
  5
268
330
2
100
AcDbEntity
  8
0
100
AcDbLine
 10
-15.25913958453854
 20
0.0931023325574998
 30
0.0
 11
-15.25913958453854
 21
0.8968243162678853
 31
0.0
  0
LINE
  5
269
330
2
100
AcDbEntity
  8
0
100
AcDbLine
 10
-14.66252026103384
 20
0.3415891358474674
 30
0.0
 11
-14.66252026103384
 21
0.0915891358474674
 31
0.0
  0
LINE
  5
26A
330
2
100
AcDbEntity
  8
0
100
AcDbLine
 10
-17.01080883227927
 20
0.8927658833071632
 30
0.0
 11
-17.01080883227927
 21
0.0936527045768614
 31
0.0
  0
LINE
  5
26B
330
2
100
AcDbEntity
  8
0
100
AcDbLine
 10
-17.01055289420899
 20
0.9611329483854725
 30
0.0
 11
-17.01069041664824
 21
0.9243974774035486
 31
0.0
  0
LINE
  5
26C
330
2
100
AcDbEntity
  8
0
100
AcDbLine
 10
-16.94055289420899
 20
1.031132948385473
 30
0.0
 11
-15.16104328673239
 21
1.03057132440976
 31
0.0
  0
ARC
  5
26D
330
2
100
AcDbEntity
  8
0
100
AcDbCircle
 10
-17.00483843199871
 20
1.02367246076825
 30
0.0
 40
0.07
100
AcDbArc
 50
89.99999999999999
 51
180.0000000000005
  0
LINE
  5
26E
330
2
100
AcDbEntity
  8
0
100
AcDbLine
 10
-16.94830883227927
 20
1.031132948385473
 30
0.0
 11
-16.94830883227927
 21
1.093632948385473
 31
0.0
  0
CIRCLE
  5
272
330
2
100
AcDbEntity
  8
0
100
AcDbCircle
 10
-14.855323632139
 20
4.517416666666666
 30
0.0
 40
0.1405
  0
CIRCLE
  5
274
330
2
100
AcDbEntity
  8
0
100
AcDbCircle
 10
-13.480323632139
 20
5.59375
 30
0.0
 40
0.0855
  0
CIRCLE
  5
277
330
2
100
AcDbEntity
  8
0
100
AcDbCircle
 10
-15.73456827721274
 20
4.517416666666666
 30
0.0
 40
0.0855
  0
CIRCLE
  5
279
330
2
100
AcDbEntity
  8
0
100
AcDbCircle
 10
-15.980323632139
 20
5.330416666666666
 30
0.0
 40
0.0855
  0
LINE
  5
27B
330
2
100
AcDbEntity
  8
0
100
AcDbLine
 10
-17.32407363213899
 20
1.037913881496499
 30
0.0
 11
-17.23032363213899
 21
1.037913881496499
 31
0.0
  0
LINE
  5
27C
330
2
100
AcDbEntity
  8
0
100
AcDbLine
 10
-17.23032363213899
 20
6.916973304703364
 30
0.0
 11
-17.05354693684236
 21
7.093749999999998
 31
0.0
  0
CIRCLE
  5
27F
330
2
100
AcDbEntity
  8
0
100
AcDbCircle
 10
-15.230323632139
 20
6.392416666666666
 30
0.0
 40
0.1405
  0
CIRCLE
  5
284
330
2
100
AcDbEntity
  8
0
100
AcDbCircle
 10
-15.730323632139
 20
6.142416666666666
 30
0.0
 40
0.0855
  0
ENDSEC
  0
SECTION
  2
OBJECTS
  0
DICTIONARY
  5
9
330
0
100
AcDbDictionary
281
     1
  3
ACAD_COLOR
350
289
  3
ACAD_GROUP
350
23
  3
ACAD_LAYOUT
350
D
  3
ACAD_MATERIAL
350
288
  3
ACAD_MLINESTYLE
350
24
  3
ACAD_PLOTSETTINGS
350
25
  3
ACAD_PLOTSTYLENAME
350
8
  3
ACAD_TABLESTYLE
350
28A
  3
ACDBHEADERROUNDTRIPXREC
350
297
  3
AcDbVariableDictionary
350
136
  0
DICTIONARY
  5
289
102
{ACAD_REACTORS
330
9
102
}
330
9
100
AcDbDictionary
281
     1
  0
DICTIONARY
  5
23
102
{ACAD_REACTORS
330
9
102
}
330
9
100
AcDbDictionary
281
     1
  0
DICTIONARY
  5
D
102
{ACAD_REACTORS
330
9
102
}
330
9
100
AcDbDictionary
281
     1
  3
Layout1
350
13
  3
Model
350
C
  0
DICTIONARY
  5
288
102
{ACAD_REACTORS
330
9
102
}
330
9
100
AcDbDictionary
281
     1
  0
DICTIONARY
  5
24
102
{ACAD_REACTORS
330
9
102
}
330
9
100
AcDbDictionary
281
     1
  3
STANDARD
350
27
  0
DICTIONARY
  5
25
102
{ACAD_REACTORS
330
9
102
}
330
9
100
AcDbDictionary
281
     1
  0
ACDBDICTIONARYWDFLT
  5
8
102
{ACAD_REACTORS
330
9
102
}
330
9
100
AcDbDictionary
281
     1
  3
Normal
350
7
100
AcDbDictionaryWithDefault
340
7
  0
DICTIONARY
  5
28A
102
{ACAD_REACTORS
330
9
102
}
330
9
100
AcDbDictionary
281
     1
  3
Standard
350
28B
  0
DICTIONARY
  5
297
102
{ACAD_REACTORS
330
9
102
}
330
9
100
AcDbDictionary
281
     1
  3
COLORDICT
350
298
  3
MATERIALDICT
350
299
  0
DICTIONARY
  5
136
102
{ACAD_REACTORS
330
9
102
}
330
9
100
AcDbDictionary
281
     1
  3
CTABLESTYLE
350
294
  3
HIDETEXT
350
296
  0
LAYOUT
  5
13
102
{ACAD_REACTORS
330
D
102
}
102
{ACAD_XDICTIONARY
360
29A
102
}
330
D
100
AcDbPlotSettings
  1

  2
C:\ACAD2000\plotters\HP LaserJet 2100 Series PS.pc3
  4

  6

 40
0.0
 41
0.0
 42
0.0
 43
0.0
 44
0.0
 45
0.0
 46
0.0
 47
0.0
 48
0.0
 49
0.0
140
0.0
141
0.0
142
1.0
143
1.0
 70
   688
 72
     0
 73
     0
 74
     5
  7

 75
    16
147
1.0
148
0.0
149
0.0
100
AcDbLayout
  1
Layout1
 70
     0
 71
     1
 10
0.0
 20
0.0
 11
12.0
 21
9.0
 12
0.0
 22
0.0
 32
0.0
 14
1.000000000000000E+20
 24
1.000000000000000E+20
 34
1.000000000000000E+20
 15
-1.000000000000000E+20
 25
-1.000000000000000E+20
 35
-1.000000000000000E+20
146
0.0
 13
0.0
 23
0.0
 33
0.0
 16
1.0
 26
0.0
 36
0.0
 17
0.0
 27
1.0
 37
0.0
 76
     0
330
E
  0
LAYOUT
  5
C
102
{ACAD_REACTORS
330
D
102
}
102
{ACAD_XDICTIONARY
360
29C
102
}
330
D
100
AcDbPlotSettings
  1

  2
HP LaserJet 2100 Series PS
  4
Letter
  6

 40
5.365749835968018
 41
5.365735054016113
 42
3.175003051757813
 43
3.17498779296875
 44
210.4813232421875
 45
273.9813232421875
 46
0.0
 47
0.0
 48
0.0
 49
0.0
140
0.0
141
0.0
142
1.0
143
5.282742334180151
 70
 28336
 72
     0
 73
     1
 74
     2
  7

 75
     0
147
0.1892956227544635
148
0.0
149
0.0
100
AcDbLayout
  1
Model
 70
     1
 71
     0
 10
0.0
 20
0.0
 11
12.0
 21
9.0
 12
0.0
 22
0.0
 32
0.0
 14
0.0
 24
0.0
 34
0.0
 15
0.0
 25
0.0
 35
0.0
146
0.0
 13
0.0
 23
0.0
 33
0.0
 16
1.0
 26
0.0
 36
0.0
 17
0.0
 27
1.0
 37
0.0
 76
     0
330
2
  0
MLINESTYLE
  5
27
102
{ACAD_REACTORS
330
24
102
}
330
24
100
AcDbMlineStyle
  2
STANDARD
 70
     0
  3

 62
   256
 51
90.0
 52
90.0
 71
     2
 49
0.5
 62
   256
  6
BYLAYER
 49
-0.5
 62
   256
  6
BYLAYER
  0
ACDBPLACEHOLDER
  5
7
102
{ACAD_REACTORS
330
8
102
}
330
8
  0
ACAD_PROXY_OBJECT
  5
28B
102
{ACAD_REACTORS
330
28A
102
}
330
28A
100
AcDbProxyObject
 90
      499
 91
      517
 95
   983063
 70
     0
 93
     1841
310
4214DD185B99185C9928B81E85EB51B8AE3F2E07A17AD46E2B8FC02B5E8DC0F42B1CFD028000000C1008070000C3001FDFF8000000C1003FBFF000000182007F7FE00000030400FEFFC00000060801FDFF8000000C1003FBFF00000018200000000000000681FA0B0000001820100E000186003FBFF000000182007F7FE000
310
00030400FEFFC00000060801FDFF8000000C1003FBFF000000182007F7FE000000304000AD7A3703D0AC73F4160000003040201C00030C007F7FE00000030400FEFFC00000060801FDFF8000000C1003FBFF000000182007F7FE00000030400FEFFC000000608000
340
16
340
16
340
16
 94
        0
  0
XRECORD
  5
298
102
{ACAD_REACTORS
330
297
102
}
330
297
100
AcDbXrecord
340
289
  0
XRECORD
  5
299
102
{ACAD_REACTORS
330
297
102
}
330
297
100
AcDbXrecord
340
288
  0
DICTIONARYVAR
  5
294
102
{ACAD_REACTORS
330
136
102
}
330
136
100
DictionaryVariables
280
     0
  1
STANDARD
  0
DICTIONARYVAR
  5
296
102
{ACAD_REACTORS
330
136
102
}
330
136
100
DictionaryVariables
280
     0
  1
0
  0
DICTIONARY
  5
29A
330
13
100
AcDbDictionary
280
     1
281
     1
  3
ACAD_XREC_ROUNDTRIP
360
29B
  0
DICTIONARY
  5
29C
330
C
100
AcDbDictionary
280
     1
281
     1
  3
ACAD_XREC_ROUNDTRIP
360
29D
  0
XRECORD
  5
29B
102
{ACAD_REACTORS
330
29A
102
}
330
29A
100
AcDbXrecord
102
SHADEPLOT
 70
     0
102
SHADEPLOTRESLEVEL
 70
     2
102
SHADEPLOTCUSTOMDPI
 70
   300
  0
XRECORD
  5
29D
102
{ACAD_REACTORS
330
29C
102
}
330
29C
100
AcDbXrecord
102
SHADEPLOT
 70
     0
102
SHADEPLOTRESLEVEL
 70
     2
102
SHADEPLOTCUSTOMDPI
 70
   300
  0
ENDSEC
  0
EOF
