  0
SECTION
  2
HEADER
  9
$ACADVER
  1
AC1015
  9
$ACADMAINTVER
 70
    20
  9
$DWGCODEPAGE
  3
ANSI_1252
  9
$INSBASE
 10
2.578414854581936
 20
3.139388892467285
 30
0.0
  9
$EXTMIN
 10
2.578414854581934
 20
3.079973842030567
 30
0.0
  9
$EXTMAX
 10
8.696094955455356
 20
5.951888892467282
 30
0.0
  9
$LIMMIN
 10
0.0
 20
0.0
  9
$LIMMAX
 10
11.0
 20
8.5
  9
$ORTHOMODE
 70
     0
  9
$REGENMODE
 70
     1
  9
$FILLMODE
 70
     1
  9
$QTEXTMODE
 70
     0
  9
$MIRRTEXT
 70
     0
  9
$LTSCALE
 40
1.0
  9
$ATTMODE
 70
     1
  9
$TEXTSIZE
 40
0.2
  9
$TRACEWID
 40
0.05
  9
$TEXTSTYLE
  7
Standard
  9
$CLAYER
  8
0
  9
$CELTYPE
  6
ByLayer
  9
$CECOLOR
 62
   256
  9
$CELTSCALE
 40
1.0
  9
$DISPSILH
 70
     0
  9
$DIMSCALE
 40
1.0
  9
$DIMASZ
 40
0.0708661417322835
  9
$DIMEXO
 40
0.0625
  9
$DIMDLI
 40
0.38
  9
$DIMRND
 40
0.0
  9
$DIMDLE
 40
0.0
  9
$DIMEXE
 40
0.18
  9
$DIMTP
 40
0.0
  9
$DIMTM
 40
0.0
  9
$DIMTXT
 40
0.0708661417322835
  9
$DIMCEN
 40
0.09
  9
$DIMTSZ
 40
0.0
  9
$DIMTOL
 70
     0
  9
$DIMLIM
 70
     0
  9
$DIMTIH
 70
     1
  9
$DIMTOH
 70
     1
  9
$DIMSE1
 70
     0
  9
$DIMSE2
 70
     0
  9
$DIMTAD
 70
     0
  9
$DIMZIN
 70
     0
  9
$DIMBLK
  1

  9
$DIMASO
 70
     1
  9
$DIMSHO
 70
     1
  9
$DIMPOST
  1

  9
$DIMAPOST
  1

  9
$DIMALT
 70
     0
  9
$DIMALTD
 70
     2
  9
$DIMALTF
 40
25.4
  9
$DIMLFAC
 40
1.0
  9
$DIMTOFL
 70
     0
  9
$DIMTVP
 40
0.0
  9
$DIMTIX
 70
     0
  9
$DIMSOXD
 70
     0
  9
$DIMSAH
 70
     0
  9
$DIMBLK1
  1

  9
$DIMBLK2
  1

  9
$DIMSTYLE
  2
Standard
  9
$DIMCLRD
 70
     0
  9
$DIMCLRE
 70
     0
  9
$DIMCLRT
 70
     0
  9
$DIMTFAC
 40
1.0
  9
$DIMGAP
 40
0.09
  9
$DIMJUST
 70
     0
  9
$DIMSD1
 70
     0
  9
$DIMSD2
 70
     0
  9
$DIMTOLJ
 70
     1
  9
$DIMTZIN
 70
     0
  9
$DIMALTZ
 70
     0
  9
$DIMALTTZ
 70
     0
  9
$DIMUPT
 70
     0
  9
$DIMDEC
 70
     4
  9
$DIMTDEC
 70
     4
  9
$DIMALTU
 70
     2
  9
$DIMALTTD
 70
     2
  9
$DIMTXSTY
  7
Standard
  9
$DIMAUNIT
 70
     0
  9
$DIMADEC
 70
     0
  9
$DIMALTRND
 40
0.0
  9
$DIMAZIN
 70
     0
  9
$DIMDSEP
 70
    46
  9
$DIMATFIT
 70
     3
  9
$DIMFRAC
 70
     0
  9
$DIMLDRBLK
  1

  9
$DIMLUNIT
 70
     2
  9
$DIMLWD
 70
    -2
  9
$DIMLWE
 70
    -2
  9
$DIMTMOVE
 70
     0
  9
$LUNITS
 70
     2
  9
$LUPREC
 70
     4
  9
$SKETCHINC
 40
0.1
  9
$FILLETRAD
 40
0.0
  9
$AUNITS
 70
     0
  9
$AUPREC
 70
     0
  9
$MENU
  1
.
  9
$ELEVATION
 40
0.0
  9
$PELEVATION
 40
0.0
  9
$THICKNESS
 40
0.0
  9
$LIMCHECK
 70
     0
  9
$CHAMFERA
 40
0.0
  9
$CHAMFERB
 40
0.0
  9
$CHAMFERC
 40
0.0
  9
$CHAMFERD
 40
0.0
  9
$SKPOLY
 70
     0
  9
$TDCREATE
 40
2456514.657927396
  9
$TDUCREATE
 40
2456514.949594062
  9
$TDUPDATE
 40
2456514.673087373
  9
$TDUUPDATE
 40
2456514.964754040
  9
$TDINDWG
 40
0.0121769097
  9
$TDUSRTIMER
 40
0.0121769097
  9
$USRTIMER
 70
     1
  9
$ANGBASE
 50
0.0
  9
$ANGDIR
 70
     0
  9
$PDMODE
 70
     0
  9
$PDSIZE
 40
0.0
  9
$PLINEWID
 40
0.0
  9
$SPLFRAME
 70
     0
  9
$SPLINETYPE
 70
     6
  9
$SPLINESEGS
 70
     8
  9
$HANDSEED
  5
166
  9
$SURFTAB1
 70
     6
  9
$SURFTAB2
 70
     6
  9
$SURFTYPE
 70
     6
  9
$SURFU
 70
     6
  9
$SURFV
 70
     6
  9
$UCSBASE
  2

  9
$UCSNAME
  2

  9
$UCSORG
 10
0.0
 20
0.0
 30
0.0
  9
$UCSXDIR
 10
1.0
 20
0.0
 30
0.0
  9
$UCSYDIR
 10
0.0
 20
1.0
 30
0.0
  9
$UCSORTHOREF
  2

  9
$UCSORTHOVIEW
 70
     0
  9
$UCSORGTOP
 10
0.0
 20
0.0
 30
0.0
  9
$UCSORGBOTTOM
 10
0.0
 20
0.0
 30
0.0
  9
$UCSORGLEFT
 10
0.0
 20
0.0
 30
0.0
  9
$UCSORGRIGHT
 10
0.0
 20
0.0
 30
0.0
  9
$UCSORGFRONT
 10
0.0
 20
0.0
 30
0.0
  9
$UCSORGBACK
 10
0.0
 20
0.0
 30
0.0
  9
$PUCSBASE
  2

  9
$PUCSNAME
  2

  9
$PUCSORG
 10
0.0
 20
0.0
 30
0.0
  9
$PUCSXDIR
 10
1.0
 20
0.0
 30
0.0
  9
$PUCSYDIR
 10
0.0
 20
1.0
 30
0.0
  9
$PUCSORTHOREF
  2

  9
$PUCSORTHOVIEW
 70
     0
  9
$PUCSORGTOP
 10
0.0
 20
0.0
 30
0.0
  9
$PUCSORGBOTTOM
 10
0.0
 20
0.0
 30
0.0
  9
$PUCSORGLEFT
 10
0.0
 20
0.0
 30
0.0
  9
$PUCSORGRIGHT
 10
0.0
 20
0.0
 30
0.0
  9
$PUCSORGFRONT
 10
0.0
 20
0.0
 30
0.0
  9
$PUCSORGBACK
 10
0.0
 20
0.0
 30
0.0
  9
$USERI1
 70
     0
  9
$USERI2
 70
     0
  9
$USERI3
 70
     0
  9
$USERI4
 70
     0
  9
$USERI5
 70
     0
  9
$USERR1
 40
0.0
  9
$USERR2
 40
0.0
  9
$USERR3
 40
0.0
  9
$USERR4
 40
0.0
  9
$USERR5
 40
0.0
  9
$WORLDVIEW
 70
     1
  9
$SHADEDGE
 70
     3
  9
$SHADEDIF
 70
    70
  9
$TILEMODE
 70
     1
  9
$MAXACTVP
 70
    64
  9
$PINSBASE
 10
0.0
 20
0.0
 30
0.0
  9
$PLIMCHECK
 70
     0
  9
$PEXTMIN
 10
0.0
 20
0.0
 30
0.0
  9
$PEXTMAX
 10
11.0
 20
8.5
 30
0.0
  9
$PLIMMIN
 10
0.0
 20
0.0
  9
$PLIMMAX
 10
11.0
 20
8.5
  9
$UNITMODE
 70
     0
  9
$VISRETAIN
 70
     1
  9
$PLINEGEN
 70
     0
  9
$PSLTSCALE
 70
     1
  9
$TREEDEPTH
 70
  3020
  9
$CMLSTYLE
  2
Standard
  9
$CMLJUST
 70
     0
  9
$CMLSCALE
 40
1.0
  9
$PROXYGRAPHICS
 70
     1
  9
$MEASUREMENT
 70
     0
  9
$CELWEIGHT
370
    -1
  9
$ENDCAPS
280
     0
  9
$JOINSTYLE
280
     0
  9
$LWDISPLAY
290
     0
  9
$INSUNITS
 70
     1
  9
$HYPERLINKBASE
  1

  9
$STYLESHEET
  1

  9
$XEDIT
290
     1
  9
$CEPSNTYPE
380
     0
  9
$PSTYLEMODE
290
     1
  9
$FINGERPRINTGUID
  2
{63CD28D8-D702-4BA3-8E27-D1905EBDDA27}
  9
$VERSIONGUID
  2
{DF6D076E-8830-4686-8BCE-55DBACAB5CBD}
  9
$EXTNAMES
290
     1
  9
$PSVPSCALE
 40
0.0
  9
$OLESTARTUP
290
     0
  0
ENDSEC
  0
SECTION
  2
CLASSES
  0
CLASS
  1
ACDBDICTIONARYWDFLT
  2
AcDbDictionaryWithDefault
  3
ObjectDBX Classes
 90
        0
280
     0
281
     0
  0
CLASS
  1
MATERIAL
  2
AcDbMaterial
  3
ObjectDBX Classes
 90
     1153
280
     0
281
     0
  0
CLASS
  1
VISUALSTYLE
  2
AcDbVisualStyle
  3
ObjectDBX Classes
 90
     4095
280
     0
281
     0
  0
CLASS
  1
SCALE
  2
AcDbScale
  3
ObjectDBX Classes
 90
     1153
280
     0
281
     0
  0
CLASS
  1
TABLESTYLE
  2
AcDbTableStyle
  3
ObjectDBX Classes
 90
     4095
280
     0
281
     0
  0
CLASS
  1
MLEADERSTYLE
  2
AcDbMLeaderStyle
  3
ACDB_MLEADERSTYLE_CLASS
 90
     4095
280
     0
281
     0
  0
CLASS
  1
DICTIONARYVAR
  2
AcDbDictionaryVar
  3
ObjectDBX Classes
 90
        0
280
     0
281
     0
  0
CLASS
  1
CELLSTYLEMAP
  2
AcDbCellStyleMap
  3
ObjectDBX Classes
 90
     1152
280
     0
281
     0
  0
CLASS
  1
ACDBPLACEHOLDER
  2
AcDbPlaceHolder
  3
ObjectDBX Classes
 90
        0
280
     0
281
     0
  0
CLASS
  1
LAYOUT
  2
AcDbLayout
  3
ObjectDBX Classes
 90
        0
280
     0
281
     0
  0
ENDSEC
  0
SECTION
  2
TABLES
  0
TABLE
  2
VPORT
  5
23
330
0
100
AcDbSymbolTable
 70
     1
  0
VPORT
  5
24
330
23
100
AcDbSymbolTableRecord
100
AcDbViewportTableRecord
  2
*Active
 70
     0
 10
0.0
 20
0.0
 11
1.0
 21
1.0
 12
8.588058887677208
 22
4.25
 13
0.0
 23
0.0
 14
1.0
 24
1.0
 15
0.0
 25
0.0
 16
0.0
 26
0.0
 36
1.0
 17
0.0
 27
0.0
 37
0.0
 40
8.507328255579308
 41
2.02071973827699
 42
50.0
 43
0.0
 44
0.0
 50
0.0
 51
0.0
 71
     0
 72
   100
 73
     1
 74
     1
 75
     0
 76
     0
 77
     0
 78
     0
281
     0
 65
     1
110
0.0
120
0.0
130
0.0
111
1.0
121
0.0
131
0.0
112
0.0
122
1.0
132
0.0
 79
     0
146
0.0
1001
ACAD_NAV_VCDISPLAY
1070
     3
  0
ENDTAB
  0
TABLE
  2
LTYPE
  5
1E
330
0
100
AcDbSymbolTable
 70
     3
  0
LTYPE
  5
1F
330
1E
100
AcDbSymbolTableRecord
100
AcDbLinetypeTableRecord
  2
ByBlock
 70
     0
  3

 72
    65
 73
     0
 40
0.0
  0
LTYPE
  5
20
330
1E
100
AcDbSymbolTableRecord
100
AcDbLinetypeTableRecord
  2
ByLayer
 70
     0
  3

 72
    65
 73
     0
 40
0.0
  0
LTYPE
  5
12
330
1E
100
AcDbSymbolTableRecord
100
AcDbLinetypeTableRecord
  2
Continuous
 70
     0
  3
Solid line
 72
    65
 73
     0
 40
0.0
  0
LTYPE
  5
125
330
1E
100
AcDbSymbolTableRecord
100
AcDbLinetypeTableRecord
  2
DASHED
 70
     0
  3
Dashed __ __ __ __ __ __ __ __ __ __ __ __ __ _
 72
    65
 73
     2
 40
0.75
 49
0.5
 74
     0
 49
-0.25
 74
     0
  0
LTYPE
  5
126
330
1E
100
AcDbSymbolTableRecord
100
AcDbLinetypeTableRecord
  2
DOT
 70
     0
  3
Dot . . . . . . . . . . . . . . . . . . . . . .
 72
    65
 73
     2
 40
0.25
 49
0.0
 74
     0
 49
-0.25
 74
     0
  0
ENDTAB
  0
TABLE
  2
LAYER
  5
1A
330
0
100
AcDbSymbolTable
 70
     2
  0
LAYER
  5
4
330
1A
100
AcDbSymbolTableRecord
100
AcDbLayerTableRecord
  2
0
 70
     0
 62
     7
  6
Continuous
370
    -3
390
5
  0
LAYER
  5
5B
330
1A
100
AcDbSymbolTableRecord
100
AcDbLayerTableRecord
  2
Visible (ANSI)
 70
     0
 62
     7
  6
Continuous
370
    18
390
5
  0
ENDTAB
  0
TABLE
  2
STYLE
  5
1B
330
0
100
AcDbSymbolTable
 70
     1
  0
STYLE
  5
1C
330
1B
100
AcDbSymbolTableRecord
100
AcDbTextStyleTableRecord
  2
Standard
 70
     0
 40
0.0
 41
0.8000000119209289
 50
0.0
 71
     0
 42
0.2
  3
txt
  4

  0
ENDTAB
  0
TABLE
  2
VIEW
  5
21
330
0
100
AcDbSymbolTable
 70
     0
  0
ENDTAB
  0
TABLE
  2
UCS
  5
22
330
0
100
AcDbSymbolTable
 70
     0
  0
ENDTAB
  0
TABLE
  2
APPID
  5
28
330
0
100
AcDbSymbolTable
 70
     3
  0
APPID
  5
29
330
28
100
AcDbSymbolTableRecord
100
AcDbRegAppTableRecord
  2
ACAD
 70
     0
  0
APPID
  5
27
330
28
100
AcDbSymbolTableRecord
100
AcDbRegAppTableRecord
  2
ACAD_NAV_VCDISPLAY
 70
     0
  0
APPID
  5
165
330
28
100
AcDbSymbolTableRecord
100
AcDbRegAppTableRecord
  2
ACAD_MLEADERVER
 70
     0
  0
ENDTAB
  0
TABLE
  2
DIMSTYLE
  5
2A
330
0
100
AcDbSymbolTable
 70
     1
100
AcDbDimStyleTable
 71
     0
  0
DIMSTYLE
105
48
330
2A
100
AcDbSymbolTableRecord
100
AcDbDimStyleTableRecord
  2
Standard
 70
     0
340
1C
  0
ENDTAB
  0
TABLE
  2
BLOCK_RECORD
  5
1
330
0
100
AcDbSymbolTable
 70
     0
  0
BLOCK_RECORD
  5
2
330
1
100
AcDbSymbolTableRecord
100
AcDbBlockTableRecord
  2
*Model_Space
340
14
  0
BLOCK_RECORD
  5
16
330
1
100
AcDbSymbolTableRecord
100
AcDbBlockTableRecord
  2
*Paper_Space
340
19
  0
ENDTAB
  0
ENDSEC
  0
SECTION
  2
BLOCKS
  0
BLOCK
  5
3
330
2
100
AcDbEntity
  8
0
100
AcDbBlockBegin
  2
*Model_Space
 70
     0
 10
0.0
 20
0.0
 30
0.0
  3
*Model_Space
  1

  0
ENDBLK
  5
13
330
2
100
AcDbEntity
  8
0
100
AcDbBlockEnd
  0
BLOCK
  5
17
330
16
100
AcDbEntity
 67
     1
  8
0
100
AcDbBlockBegin
  2
*Paper_Space
 70
     0
 10
0.0
 20
0.0
 30
0.0
  3
*Paper_Space
  1

  0
ENDBLK
  5
18
330
16
100
AcDbEntity
 67
     1
  8
0
100
AcDbBlockEnd
  0
ENDSEC
  0
SECTION
  2
ENTITIES
  0
ARC
  5
5A
330
2
100
AcDbEntity
  8
Visible (ANSI)
100
AcDbCircle
 10
2.710414854581933
 20
3.211973842030569
 30
0.0
 40
0.1319999999999998
100
AcDbArc
 50
180.0
 51
270.0
  0
ARC
  5
5C
330
2
100
AcDbEntity
  8
Visible (ANSI)
100
AcDbCircle
 10
2.710414854581933
 20
3.211973842030569
 30
0.0
 40
0.0619999999999994
100
AcDbArc
 50
180.0
 51
270.0000000000007
  0
LINE
  5
5D
330
2
100
AcDbEntity
  8
Visible (ANSI)
100
AcDbLine
 10
2.578414854581936
 20
3.211973842030571
 30
0.0
 11
2.578414854581936
 21
3.139388892467285
 31
0.0
  0
LINE
  5
5E
330
2
100
AcDbEntity
  8
Visible (ANSI)
100
AcDbLine
 10
2.578414854581936
 20
3.139388892467285
 30
0.0
 11
2.600163210163834
 21
3.13938889246729
 31
0.0
  0
LINE
  5
5F
330
2
100
AcDbEntity
  8
Visible (ANSI)
100
AcDbLine
 10
2.578414854581934
 20
5.951888892467281
 30
0.0
 11
2.578414854581934
 21
3.211973842030569
 31
0.0
  0
LINE
  5
60
330
2
100
AcDbEntity
  8
Visible (ANSI)
100
AcDbLine
 10
2.648414854581934
 20
5.951888892467281
 30
0.0
 11
2.578414854581934
 21
5.951888892467281
 31
0.0
  0
LINE
  5
61
330
2
100
AcDbEntity
  8
Visible (ANSI)
100
AcDbLine
 10
2.710414854581939
 20
5.95188889246728
 30
0.0
 11
4.512529905018649
 21
5.951888892467281
 31
0.0
  0
LINE
  5
62
330
2
100
AcDbEntity
  8
Visible (ANSI)
100
AcDbLine
 10
4.512529905018649
 20
5.951888892467281
 30
0.0
 11
4.512529905018648
 21
4.141067526498257
 31
0.0
  0
LINE
  5
63
330
2
100
AcDbEntity
  8
Visible (ANSI)
100
AcDbLine
 10
4.512529905018647
 20
3.150183888672303
 30
0.0
 11
4.512529905018647
 21
3.149973842030568
 31
0.0
  0
LINE
  5
64
330
2
100
AcDbEntity
  8
Visible (ANSI)
100
AcDbLine
 10
2.648414854581933
 20
3.211973842030569
 30
0.0
 11
2.648414854581934
 21
5.951888892467281
 31
0.0
  0
LINE
  5
65
330
2
100
AcDbEntity
  8
Visible (ANSI)
100
AcDbLine
 10
2.710414854581933
 20
3.07997384203057
 30
0.0
 11
2.949729905018649
 21
3.07997384203057
 31
0.0
  0
LINE
  5
66
330
2
100
AcDbEntity
  8
Visible (ANSI)
100
AcDbLine
 10
2.949729905018649
 20
3.149973842030569
 30
0.0
 11
2.710414854581933
 21
3.149973842030569
 31
0.0
  0
LINE
  5
67
330
2
100
AcDbEntity
  8
Visible (ANSI)
100
AcDbLine
 10
8.324729905018635
 20
3.079973842030569
 30
0.0
 11
8.564094955455351
 21
3.079973842030569
 31
0.0
  0
LINE
  5
68
330
2
100
AcDbEntity
  8
Visible (ANSI)
100
AcDbLine
 10
2.949729905018646
 20
3.079973842030568
 30
0.0
 11
8.324729905018633
 21
3.079973842030567
 31
0.0
  0
LINE
  5
69
330
2
100
AcDbEntity
  8
Visible (ANSI)
100
AcDbLine
 10
8.324729905018633
 20
3.149973842030568
 30
0.0
 11
2.949729905018646
 21
3.149973842030568
 31
0.0
  0
LINE
  5
6A
330
2
100
AcDbEntity
  8
Visible (ANSI)
100
AcDbLine
 10
8.564094955455351
 20
3.149973842030568
 30
0.0
 11
8.324729905018635
 21
3.149973842030568
 31
0.0
  0
LINE
  5
6B
330
2
100
AcDbEntity
  8
Visible (ANSI)
100
AcDbLine
 10
8.69609495545535
 20
3.211973842030568
 30
0.0
 11
8.696094955455352
 21
5.951838892467281
 31
0.0
  0
LINE
  5
6C
330
2
100
AcDbEntity
  8
Visible (ANSI)
100
AcDbLine
 10
8.626094955455354
 20
5.951838892467281
 30
0.0
 11
8.696094955455352
 21
5.951838892467281
 31
0.0
  0
LINE
  5
6D
330
2
100
AcDbEntity
  8
Visible (ANSI)
100
AcDbLine
 10
8.626094955455354
 20
5.951838892467281
 30
0.0
 11
8.62609495545535
 21
3.211973842030568
 31
0.0
  0
LINE
  5
6E
330
2
100
AcDbEntity
  8
Visible (ANSI)
100
AcDbLine
 10
6.011979905018647
 20
4.14106752649826
 30
0.0
 11
6.011979905018649
 21
5.951838892467285
 31
0.0
  0
LINE
  5
6F
330
2
100
AcDbEntity
  8
Visible (ANSI)
100
AcDbLine
 10
6.011979905018649
 20
5.951838892467285
 30
0.0
 11
8.564094955455356
 21
5.951838892467283
 31
0.0
  0
LINE
  5
70
330
2
100
AcDbEntity
  8
Visible (ANSI)
100
AcDbLine
 10
8.324729905018633
 20
3.149973842030568
 30
0.0
 11
8.324729905018633
 21
3.079973842030567
 31
0.0
  0
LINE
  5
71
330
2
100
AcDbEntity
  8
Visible (ANSI)
100
AcDbLine
 10
2.949729905018646
 20
3.149973842030568
 30
0.0
 11
2.949729905018646
 21
3.079973842030568
 31
0.0
  0
LINE
  5
72
330
2
100
AcDbEntity
  8
Visible (ANSI)
100
AcDbLine
 10
2.710414854581938
 20
5.951888892467282
 30
0.0
 11
2.648414854581937
 21
5.951888892467281
 31
0.0
  0
CIRCLE
  5
73
330
2
100
AcDbEntity
  8
Visible (ANSI)
100
AcDbCircle
 10
3.387529905018653
 20
5.576888892467278
 30
0.0
 40
0.0779999999999999
  0
CIRCLE
  5
74
330
2
100
AcDbEntity
  8
Visible (ANSI)
100
AcDbCircle
 10
7.824479905018642
 20
5.576838892467288
 30
0.0
 40
0.0779999999999999
  0
CIRCLE
  5
75
330
2
100
AcDbEntity
  8
Visible (ANSI)
100
AcDbCircle
 10
6.511979905018645
 20
5.576838892467286
 30
0.0
 40
0.0779999999999999
  0
ARC
  5
76
330
2
100
AcDbEntity
  8
Visible (ANSI)
100
AcDbCircle
 10
8.564094955455351
 20
3.211973842030568
 30
0.0
 40
0.1319999999999998
100
AcDbArc
 50
270.0000000000006
 51
0.0
  0
ARC
  5
77
330
2
100
AcDbEntity
  8
Visible (ANSI)
100
AcDbCircle
 10
8.564094955455351
 20
3.211973842030568
 30
0.0
 40
0.062
100
AcDbArc
 50
270.0000000000013
 51
0.0
  0
LINE
  5
78
330
2
100
AcDbEntity
  8
Visible (ANSI)
100
AcDbLine
 10
8.674313665763266
 20
3.139338892467289
 30
0.0
 11
8.696094955455356
 21
3.139338892467289
 31
0.0
  0
LINE
  5
79
330
2
100
AcDbEntity
  8
Visible (ANSI)
100
AcDbLine
 10
8.696094955455356
 20
3.139338892467289
 30
0.0
 11
8.696094955455356
 21
3.211973842030571
 31
0.0
  0
LINE
  5
7A
330
2
100
AcDbEntity
  8
Visible (ANSI)
100
AcDbLine
 10
8.626094955455355
 20
5.951838892467283
 30
0.0
 11
8.564094955455356
 21
5.951838892467283
 31
0.0
  0
SPLINE
  5
7B
330
2
100
AcDbEntity
  8
Visible (ANSI)
100
AcDbSpline
210
0.0
220
0.0
230
1.0
 70
     8
 71
     3
 72
     8
 73
     4
 74
     0
 42
0.0000000001
 43
0.0000000001
 40
3.067558875403606
 40
3.067558875403606
 40
3.067558875403606
 40
3.067558875403606
 40
3.208778677894374
 40
3.208778677894374
 40
3.208778677894374
 40
3.208778677894374
 10
2.960532939925926
 20
3.984561739702117
 30
0.0
 10
2.957516175693301
 20
3.970486151639963
 30
0.0
 10
2.956136220550949
 20
3.956462862711693
 30
0.0
 10
2.956136220550949
 20
3.943067526498256
 30
0.0
  0
LINE
  5
7C
330
2
100
AcDbEntity
  8
Visible (ANSI)
100
AcDbLine
 10
2.980920039333034
 20
4.038984962683144
 30
0.0
 11
3.012433838436709
 21
4.038984962683134
 31
0.0
  0
LINE
  5
7D
330
2
100
AcDbEntity
  8
Visible (ANSI)
100
AcDbLine
 10
3.012433838436709
 20
4.038984962683134
 30
0.0
 11
3.033766518837366
 21
4.038984962683134
 31
0.0
  0
LINE
  5
7E
330
2
100
AcDbEntity
  8
Visible (ANSI)
100
AcDbLine
 10
3.033766518837366
 20
4.038984962683134
 30
0.0
 11
2.999287068886177
 21
4.066460152812393
 31
0.0
  0
ARC
  5
7F
330
2
100
AcDbEntity
  8
Visible (ANSI)
100
AcDbCircle
 10
3.154136220550968
 20
3.943067526498243
 30
0.0
 40
0.1980000000000231
100
AcDbArc
 50
141.4501664203928
 51
151.0247677194027
  0
ARC
  5
80
330
2
100
AcDbEntity
  8
Visible (ANSI)
100
AcDbCircle
 10
3.15413622055095
 20
3.943067526498256
 30
0.0
 40
0.1980000000000002
100
AcDbArc
 50
90.00000000000062
 51
92.95064122696047
  0
LINE
  5
81
330
2
100
AcDbEntity
  8
Visible (ANSI)
100
AcDbLine
 10
3.149040131751011
 20
4.041936277268877
 30
0.0
 11
3.143944042951073
 21
4.140805028039499
 31
0.0
  0
ARC
  5
82
330
2
100
AcDbEntity
  8
Visible (ANSI)
100
AcDbCircle
 10
3.154136220550949
 20
3.94306752649825
 30
0.0
 40
0.0990000000000059
100
AcDbArc
 50
90.0
 51
92.95064122695974
  0
ARC
  5
83
330
2
100
AcDbEntity
  8
Visible (ANSI)
100
AcDbCircle
 10
3.154136220550957
 20
3.943067526498252
 30
0.0
 40
0.0990000000000089
100
AcDbArc
 50
141.4501664203927
 51
162.5974436532082
  0
LINE
  5
84
330
2
100
AcDbEntity
  8
Visible (ANSI)
100
AcDbLine
 10
3.076711644718563
 20
4.004763839655325
 30
0.0
 11
3.055185281795246
 21
4.021917272060623
 31
0.0
  0
SPLINE
  5
85
330
2
100
AcDbEntity
  8
Visible (ANSI)
100
AcDbSpline
210
0.0
220
0.0
230
1.0
 70
     8
 71
     3
 72
    18
 73
    14
 74
     0
 42
0.0000000001
 43
0.0000000001
 40
0.0
 40
0.0
 40
0.0
 40
0.0
 40
0.0622747317458011
 40
0.0622747317458011
 40
0.1873035618635872
 40
0.1873035618635872
 40
0.3165262541972557
 40
0.3165262541972557
 40
0.4253399002484193
 40
0.4253399002484193
 40
0.4882808903669035
 40
0.4882808903669035
 40
0.5794908314706807
 40
0.5794908314706807
 40
0.5794908314706807
 40
0.5794908314706807
 10
2.999287068886177
 20
4.066460152812393
 30
0.0
 10
3.004345861345889
 20
4.072808585001851
 30
0.0
 10
3.009782678143247
 20
4.078833072372861
 30
0.0
 10
3.027270057777954
 20
4.095959431078284
 30
0.0
 10
3.04028850554405
 20
4.105823707686441
 30
0.0
 10
3.067837220447342
 20
4.122009414081699
 30
0.0
 10
3.081507677642553
 20
4.127707049190879
 30
0.0
 10
3.103877932142938
 20
4.13488369052206
 30
0.0
 10
3.113339606622286
 20
4.136972620288702
 30
0.0
 10
3.125347704617507
 20
4.139014318537189
 30
0.0
 10
3.129061932388912
 20
4.139493756287014
 30
0.0
 10
3.135938160916675
 20
4.140271979450913
 30
0.0
 10
3.137276760472957
 20
4.14034863998997
 30
0.0
 10
3.137557081398816
 20
4.140372194828669
 30
0.0
  0
SPLINE
  5
86
330
2
100
AcDbEntity
  8
Visible (ANSI)
100
AcDbSpline
210
0.0
220
0.0
230
1.0
 70
     8
 71
     3
 72
    22
 73
    18
 74
     0
 42
0.0000000001
 43
0.0000000001
 40
0.0
 40
0.0
 40
0.0
 40
0.0
 40
0.0437480072971324
 40
0.0437480072971324
 40
0.0808025339778019
 40
0.0808025339778019
 40
0.1171730747254243
 40
0.1171730747254243
 40
0.1654579191205846
 40
0.1654579191205846
 40
0.2463394784969517
 40
0.2463394784969517
 40
0.3067552553313431
 40
0.3067552553313431
 40
0.3440536859657595
 40
0.3440536859657595
 40
0.3811768346111992
 40
0.3811768346111992
 40
0.3811768346111992
 40
0.3811768346111992
 10
3.145846650974883
 20
4.041719860663462
 30
0.0
 10
3.145728123143979
 20
4.041709900993382
 30
0.0
 10
3.145252137924702
 20
4.041671686193092
 30
0.0
 10
3.143706370244575
 20
4.041519167404349
 30
0.0
 10
3.14273685888123
 20
4.04141692005305
 30
0.0
 10
3.140291088666305
 20
4.041102236355271
 30
0.0
 10
3.138817254142189
 20
4.040891055004491
 30
0.0
 10
3.134771654454866
 20
4.040183441606387
 30
0.0
 10
3.131987418466962
 20
4.039617000387174
 30
0.0
 10
3.123269156096207
 20
4.037301961575475
 30
0.0
 10
3.116925811071818
 20
4.03510780901252
 30
0.0
 10
3.105307882263234
 20
4.029366407174562
 30
0.0
 10
3.100021248205459
 20
4.026233779275684
 30
0.0
 10
3.091435041184481
 20
4.019790100661084
 30
0.0
 10
3.088226773913157
 20
4.017061932367618
 30
0.0
 10
3.08211574295544
 20
4.01112711178557
 30
0.0
 10
3.079280578594369
 20
4.007987672741903
 30
0.0
 10
3.076711644718563
 20
4.004763839655325
 30
0.0
  0
SPLINE
  5
87
330
2
100
AcDbEntity
  8
Visible (ANSI)
100
AcDbSpline
210
0.0
220
0.0
230
1.0
 70
     8
 71
     3
 72
    10
 73
     6
 74
     0
 42
0.0000000001
 43
0.0000000001
 40
0.0
 40
0.0
 40
0.0
 40
0.0
 40
0.1690926950881759
 40
0.1690926950881759
 40
0.3381853901768118
 40
0.3381853901768118
 40
0.3381853901768118
 40
0.3381853901768118
 10
3.13755708139883
 20
4.14037219482867
 30
0.0
 10
3.138620321817189
 20
4.140461536915694
 30
0.0
 10
3.139684267041471
 20
4.140542283117823
 30
0.0
 10
3.141813358557347
 20
4.140686567925149
 30
0.0
 10
3.142878470070091
 20
4.140750104173444
 30
0.0
 10
3.143944042951072
 20
4.140805028039499
 30
0.0
  0
SPLINE
  5
88
330
2
100
AcDbEntity
  8
Visible (ANSI)
100
AcDbSpline
210
0.0
220
0.0
230
1.0
 70
     8
 71
     3
 72
    10
 73
     6
 74
     0
 42
0.0000000001
 43
0.0000000001
 40
0.0
 40
0.0
 40
0.0
 40
0.0
 40
0.1689460311110243
 40
0.1689460311110243
 40
0.3378920622211922
 40
0.3378920622211922
 40
0.3378920622211922
 40
0.3378920622211922
 10
3.14904013175101
 20
4.041936277268877
 30
0.0
 10
3.148507345310417
 20
4.041908815335845
 30
0.0
 10
3.147974789554042
 20
4.041877047211696
 30
0.0
 10
3.146910243796317
 20
4.041804904808047
 30
0.0
 10
3.146378271184172
 20
4.041764531706983
 30
0.0
 10
3.14584665097489
 20
4.041719860663463
 30
0.0
  0
SPLINE
  5
89
330
2
100
AcDbEntity
  8
Visible (ANSI)
100
AcDbSpline
210
0.0
220
0.0
230
1.0
 70
     8
 71
     3
 72
    12
 73
     8
 74
     0
 42
0.0000000001
 43
0.0000000001
 40
-0.1857013206808207
 40
-0.1857013206808207
 40
-0.1857013206808207
 40
-0.1857013206808207
 40
-0.1380057361374432
 40
-0.1380057361374432
 40
-0.0908819866227237
 40
-0.0908819866227237
 40
-0.0000020637256993
 40
-0.0000020637256993
 40
-0.0000020637256993
 40
-0.0000020637256993
 10
2.980920039333034
 20
4.038984962683143
 30
0.0
 10
2.977935246337278
 20
4.033594759764728
 30
0.0
 10
2.97533035149323
 20
4.0283054330679
 30
0.0
 10
2.970714516476257
 20
4.017852087138024
 30
0.0
 10
2.968776744546491
 20
4.012860839263826
 30
0.0
 10
2.963943035604555
 20
3.998964157342667
 30
0.0
 10
2.961932058251702
 20
3.991089731847061
 30
0.0
 10
2.960532939925926
 20
3.984561739702117
 30
0.0
  0
LINE
  5
8A
330
2
100
AcDbEntity
  8
Visible (ANSI)
100
AcDbLine
 10
3.033766518837366
 20
4.038984962683134
 30
0.0
 11
3.05513622055095
 21
4.038984962683134
 31
0.0
  0
LINE
  5
8B
330
2
100
AcDbEntity
  8
Visible (ANSI)
100
AcDbLine
 10
2.956136220550948
 20
3.150093935313835
 30
0.0
 11
2.956136220550949
 21
3.943067526498256
 31
0.0
  0
LINE
  5
8C
330
2
100
AcDbEntity
  8
Visible (ANSI)
100
AcDbLine
 10
3.137136220550948
 20
3.150093935313832
 30
0.0
 11
2.956136220550948
 21
3.150093935313835
 31
0.0
  0
SPLINE
  5
8D
330
2
100
AcDbEntity
  8
Visible (ANSI)
100
AcDbSpline
210
0.0
220
0.0
230
1.0
 70
     8
 71
     3
 72
    12
 73
     8
 74
     0
 42
0.0000000001
 43
0.0000000001
 40
0.0
 40
0.0
 40
0.0
 40
0.0
 40
0.0896498035475179
 40
0.0896498035475179
 40
0.2254219848713026
 40
0.2254219848713026
 40
0.3611941782475752
 40
0.3611941782475752
 40
0.3611941782475752
 40
0.3611941782475752
 10
3.137136220550948
 20
3.951561090768906
 30
0.0
 10
3.125374553602436
 20
3.951843881352845
 30
0.0
 10
3.113640839772398
 20
3.952126003977814
 30
0.0
 10
3.084625755228395
 20
3.952837075134052
 30
0.0
 10
3.067754208831026
 20
3.953263038814457
 30
0.0
 10
3.036312278538386
 20
3.954119598475286
 30
0.0
 10
3.021913420068577
 20
3.954545563369274
 30
0.0
 10
3.009302883056921
 20
3.95497384203056
 30
0.0
  0
SPLINE
  5
8E
330
2
100
AcDbEntity
  8
Visible (ANSI)
100
AcDbSpline
210
0.0
220
0.0
230
1.0
 70
     8
 71
     3
 72
    12
 73
     8
 74
     0
 42
0.0000000001
 43
0.0000000001
 40
0.0
 40
0.0
 40
0.0
 40
0.0
 40
0.1061936356588621
 40
0.1061936356588621
 40
0.2080817692150157
 40
0.2080817692150157
 40
0.2774862605744532
 40
0.2774862605744532
 40
0.2774862605744532
 40
0.2774862605744532
 10
3.009302883056922
 20
3.95497384203056
 30
0.0
 10
2.999436755419438
 20
3.954973146316744
 30
0.0
 10
2.990759678406235
 20
3.956356570885619
 30
0.0
 10
2.976608815091162
 20
3.961927547542133
 30
0.0
 10
2.971098228267757
 20
3.965965643173449
 30
0.0
 10
2.964148618162007
 20
3.975304058561333
 30
0.0
 10
2.962068575849657
 20
3.979660437284877
 30
0.0
 10
2.960532939930422
 20
3.984561739701153
 30
0.0
  0
SPLINE
  5
8F
330
2
100
AcDbEntity
  8
Visible (ANSI)
100
AcDbSpline
210
0.0
220
0.0
230
1.0
 70
     8
 71
     3
 72
    16
 73
    12
 74
     0
 42
0.0000000001
 43
0.0000000001
 40
0.0
 40
0.0
 40
0.0
 40
0.0
 40
0.1106581936239277
 40
0.1106581936239277
 40
0.2023738252481474
 40
0.2023738252481474
 40
0.270187778054069
 40
0.270187778054069
 40
0.3025297610650665
 40
0.3025297610650665
 40
0.3338499317758672
 40
0.3338499317758672
 40
0.3338499317758672
 40
0.3338499317758672
 10
3.05513622055095
 20
4.038984962683134
 30
0.0
 10
3.05513622055095
 20
4.024544546755919
 30
0.0
 10
3.055073763065317
 20
4.009895975682661
 30
0.0
 10
3.056631016884383
 20
3.985852780571893
 30
0.0
 10
3.057992653590728
 20
3.976866610347585
 30
0.0
 10
3.062500345821782
 20
3.964923103537477
 30
0.0
 10
3.06504206366656
 20
3.961139618414764
 30
0.0
 10
3.069766628023786
 20
3.957431504207718
 30
0.0
 10
3.071466037275962
 20
3.956504314501935
 30
0.0
 10
3.075166863105513
 20
3.955280454272354
 30
0.0
 10
3.077132270447061
 20
3.954973065879373
 30
0.0
 10
3.079222774835423
 20
3.954973842030561
 30
0.0
  0
SPLINE
  5
90
330
2
100
AcDbEntity
  8
Visible (ANSI)
100
AcDbSpline
210
0.0
220
0.0
230
1.0
 70
     8
 71
     3
 72
    10
 73
     6
 74
     0
 42
0.0000000001
 43
0.0000000001
 40
0.0
 40
0.0
 40
0.0
 40
0.0
 40
0.0816040135873164
 40
0.0816040135873164
 40
0.1640859097328929
 40
0.1640859097328929
 40
0.1640859097328929
 40
0.1640859097328929
 10
3.079222774835423
 20
3.954973842030561
 30
0.0
 10
3.086793700949975
 20
3.954406288822189
 30
0.0
 10
3.095769544153379
 20
3.953844093038768
 30
0.0
 10
3.115623762865809
 20
3.952702877744059
 30
0.0
 10
3.126327036475311
 20
3.952134749621356
 30
0.0
 10
3.137136220550949
 20
3.951561090768906
 30
0.0
  0
LINE
  5
91
330
2
100
AcDbEntity
  8
Visible (ANSI)
100
AcDbLine
 10
3.079222774835422
 20
3.954973842030561
 30
0.0
 11
3.009302883056921
 21
3.954973842030561
 31
0.0
  0
SPLINE
  5
92
330
2
100
AcDbEntity
  8
Visible (ANSI)
100
AcDbSpline
210
0.0
220
0.0
230
1.0
 70
     8
 71
     3
 72
     8
 73
     4
 74
     0
 42
0.0000000001
 43
0.0000000001
 40
0.0
 40
0.0
 40
0.0
 40
0.0
 40
0.0323030461023968
 40
0.0323030461023968
 40
0.0323030461023968
 40
0.0323030461023968
 10
3.079750021912262
 20
3.955044189235636
 30
0.0
 10
3.076722645644346
 20
3.95494988529148
 30
0.0
 10
3.073605262612097
 20
3.955479017596162
 30
0.0
 10
3.07068252388898
 20
3.957028072850638
 30
0.0
  0
LINE
  5
93
330
2
100
AcDbEntity
  8
Visible (ANSI)
100
AcDbLine
 10
3.079750021912262
 20
3.955044189235633
 30
0.0
 11
3.078422408909845
 21
3.955044189235633
 31
0.0
  0
SPLINE
  5
94
330
2
100
AcDbEntity
  8
Visible (ANSI)
100
AcDbSpline
210
0.0
220
0.0
230
1.0
 70
     8
 71
     3
 72
    10
 73
     6
 74
     0
 42
0.0000000001
 43
0.0000000001
 40
0.0
 40
0.0
 40
0.0
 40
0.0
 40
0.0810911024704592
 40
0.0810911024704592
 40
0.1621822052225667
 40
0.1621822052225667
 40
0.1621822052225667
 40
0.1621822052225667
 10
3.137136220550953
 20
3.951670786148286
 30
0.0
 10
3.126509298836729
 20
3.952234772149902
 30
0.0
 10
3.11598301160967
 20
3.952793500162496
 30
0.0
 10
3.096305649636127
 20
3.953921475217561
 30
0.0
 10
3.087340914797301
 20
3.954480203232058
 30
0.0
 10
3.079750021912262
 20
3.955044189235633
 30
0.0
  0
SPLINE
  5
95
330
2
100
AcDbEntity
  8
Visible (ANSI)
100
AcDbSpline
210
0.0
220
0.0
230
1.0
 70
     8
 71
     3
 72
    12
 73
     8
 74
     0
 42
0.0000000001
 43
0.0000000001
 40
-0.2002842524185862
 40
-0.2002842524185862
 40
-0.2002842524185862
 40
-0.2002842524185862
 40
-0.1352607787114692
 40
-0.1352607787114692
 40
-0.0667903235137919
 40
-0.0667903235137919
 40
0.0
 40
0.0
 40
0.0
 40
0.0
 10
8.313723971661337
 20
3.984946227230113
 30
0.0
 10
8.312698354723178
 20
3.98968557859598
 30
0.0
 10
8.311341989021791
 20
3.99514040584536
 30
0.0
 10
8.307452032704571
 20
4.00778237205688
 30
0.0
 10
8.30490681775198
 20
4.014885092903126
 30
0.0
 10
8.298320108499035
 20
4.029924902030931
 30
0.0
 10
8.294468172138214
 20
4.037469823814613
 30
0.0
 10
8.289983493152979
 20
4.044943689734266
 30
0.0
  0
LINE
  5
96
330
2
100
AcDbEntity
  8
Visible (ANSI)
100
AcDbLine
 10
8.262193476720304
 20
4.044943689734282
 30
0.0
 11
8.28998349315298
 21
4.044943689734266
 31
0.0
  0
LINE
  5
97
330
2
100
AcDbEntity
  8
Visible (ANSI)
100
AcDbLine
 10
8.237627384047195
 20
4.044943689734282
 30
0.0
 11
8.262193476720304
 21
4.044943689734282
 31
0.0
  0
LINE
  5
98
330
2
100
AcDbEntity
  8
Visible (ANSI)
100
AcDbLine
 10
8.21920349620307
 20
4.044943689734282
 30
0.0
 11
8.237627384047195
 21
4.044943689734282
 31
0.0
  0
SPLINE
  5
99
330
2
100
AcDbEntity
  8
Visible (ANSI)
100
AcDbSpline
210
0.0
220
0.0
230
1.0
 70
     8
 71
     3
 72
    16
 73
    12
 74
     0
 42
0.0000000001
 43
0.0000000001
 40
0.0
 40
0.0
 40
0.0
 40
0.0
 40
0.0381722825072784
 40
0.0381722825072784
 40
0.0826673242026451
 40
0.0826673242026451
 40
0.1410446832944492
 40
0.1410446832944492
 40
0.1957838783147813
 40
0.1957838783147813
 40
0.286737049482348
 40
0.286737049482348
 40
0.286737049482348
 40
0.286737049482348
 10
8.194823758107361
 20
3.95497384203056
 30
0.0
 10
8.198370195208791
 20
3.954972384746131
 30
0.0
 10
8.201525334841084
 20
3.955846354380826
 30
0.0
 10
8.20741688476216
 20
3.959446072966636
 30
0.0
 10
8.209879660639984
 20
3.962377703757531
 30
0.0
 10
8.214304818200519
 20
3.970757350495011
 30
0.0
 10
8.21599733535136
 20
3.976953607194218
 30
0.0
 10
8.218135779440162
 20
3.991636291114307
 30
0.0
 10
8.218600168456113
 20
3.99941360280597
 30
0.0
 10
8.21928993304037
 20
4.020798067062965
 30
0.0
 10
8.219203496203068
 20
4.034025297181914
 30
0.0
 10
8.219203496203068
 20
4.044943689734282
 30
0.0
  0
LINE
  5
9A
330
2
100
AcDbEntity
  8
Visible (ANSI)
100
AcDbLine
 10
8.194823758106473
 20
3.95497384203056
 30
0.0
 11
8.264744311461136
 21
3.95497384203056
 31
0.0
  0
SPLINE
  5
9B
330
2
100
AcDbEntity
  8
Visible (ANSI)
100
AcDbSpline
210
0.0
220
0.0
230
1.0
 70
     8
 71
     3
 72
    14
 73
    10
 74
     0
 42
0.0000000001
 43
0.0000000001
 40
0.1876139902735191
 40
0.1876139902735191
 40
0.1876139902735191
 40
0.1876139902735191
 40
0.2333476660456722
 40
0.2333476660456722
 40
0.3308571382255375
 40
0.3308571382255375
 40
0.3863366284462166
 40
0.3863366284462166
 40
0.4417399903912368
 40
0.4417399903912368
 40
0.4417399903912368
 40
0.4417399903912368
 10
8.313723971652903
 20
3.984946227228288
 30
0.0
 10
8.312595589673
 20
3.981320354891046
 30
0.0
 10
8.31117772116257
 20
3.977993840251146
 30
0.0
 10
8.305603898756668
 20
3.968537162525666
 30
0.0
 10
8.30034101896725
 20
3.963803285672485
 30
0.0
 10
8.289617039712052
 20
3.95865053574842
 30
0.0
 10
8.285248176953109
 20
3.957268533956274
 30
0.0
 10
8.275613292592042
 20
3.955428999349705
 30
0.0
 10
8.270365702981225
 20
3.95497339643736
 30
0.0
 10
8.264744311463083
 20
3.95497384203056
 30
0.0
  0
SPLINE
  5
9C
330
2
100
AcDbEntity
  8
Visible (ANSI)
100
AcDbSpline
210
0.0
220
0.0
230
1.0
 70
     8
 71
     3
 72
    10
 73
     6
 74
     0
 42
0.0000000001
 43
0.0000000001
 40
0.0
 40
0.0
 40
0.0
 40
0.0
 40
0.0825972436636151
 40
0.0825972436636151
 40
0.1660870238754128
 40
0.1660870238754128
 40
0.1660870238754128
 40
0.1660870238754128
 10
8.136203496203068
 20
3.951533869120185
 30
0.0
 10
8.147027923286474
 20
3.952105935762666
 30
0.0
 10
8.157748544057735
 20
3.952672602503619
 30
0.0
 10
8.177879845237788
 20
3.953822920738619
 30
0.0
 10
8.187077859561416
 20
3.954395593700121
 30
0.0
 10
8.194823758106473
 20
3.95497384203056
 30
0.0
  0
SPLINE
  5
9D
330
2
100
AcDbEntity
  8
Visible (ANSI)
100
AcDbSpline
210
0.0
220
0.0
230
1.0
 70
     8
 71
     3
 72
     8
 73
     4
 74
     0
 42
0.0000000001
 43
0.0000000001
 40
0.0
 40
0.0
 40
0.0
 40
0.0
 40
0.1427076627852601
 40
0.1427076627852601
 40
0.1427076627852601
 40
0.1427076627852601
 10
8.318203496203068
 20
3.943067526498266
 30
0.0
 10
8.318203496203068
 20
3.956586170108496
 30
0.0
 10
8.316797765860902
 20
3.970742297690167
 30
0.0
 10
8.313723971661337
 20
3.984946227230113
 30
0.0
  0
SPLINE
  5
9E
330
2
100
AcDbEntity
  8
Visible (ANSI)
100
AcDbSpline
210
0.0
220
0.0
230
1.0
 70
     8
 71
     3
 72
    12
 73
     8
 74
     0
 42
0.0000000001
 43
0.0000000001
 40
0.0
 40
0.0
 40
0.0
 40
0.0
 40
0.090145359803846
 40
0.090145359803846
 40
0.2266699858504291
 40
0.2266699858504291
 40
0.3631946240163639
 40
0.3631946240163639
 40
0.3631946240163639
 40
0.3631946240163639
 10
8.264744311461136
 20
3.95497384203056
 30
0.0
 10
8.256371690619404
 20
3.95468879881084
 30
0.0
 10
8.247204800243133
 20
3.954404428872052
 30
0.0
 10
8.222484656239963
 20
3.953687687379208
 30
0.0
 10
8.206206989669295
 20
3.953258324559568
 30
0.0
 10
8.171928616177744
 20
3.952394929509617
 30
0.0
 10
8.154114913823505
 20
3.951965565466161
 30
0.0
 10
8.136203496203068
 20
3.951533869120185
 30
0.0
  0
LINE
  5
9F
330
2
100
AcDbEntity
  8
Visible (ANSI)
100
AcDbLine
 10
8.318203496203068
 20
3.943067526498266
 30
0.0
 11
8.318203496203066
 21
3.149973842030575
 31
0.0
  0
LINE
  5
A0
330
2
100
AcDbEntity
  8
Visible (ANSI)
100
AcDbLine
 10
3.137136220550953
 20
3.951670786148286
 30
0.0
 11
3.232538446067799
 21
3.948364175576228
 31
0.0
  0
LINE
  5
A1
330
2
100
AcDbEntity
  8
Visible (ANSI)
100
AcDbLine
 10
3.99331457231966
 20
3.150093935313839
 30
0.0
 11
3.980144542462776
 21
3.150093935313839
 31
0.0
  0
LINE
  5
A2
330
2
100
AcDbEntity
  8
Visible (ANSI)
100
AcDbLine
 10
3.993314572319661
 20
3.918008078113593
 30
0.0
 11
3.99331457231966
 21
3.150093935313839
 31
0.0
  0
LINE
  5
A3
330
2
100
AcDbEntity
  8
Visible (ANSI)
100
AcDbLine
 10
3.71687177293549
 20
3.92970483078421
 30
0.0
 11
3.719878681063143
 21
3.92957760352146
 31
0.0
  0
LINE
  5
A4
330
2
100
AcDbEntity
  8
Visible (ANSI)
100
AcDbLine
 10
3.749234204858701
 20
3.928335522692739
 30
0.0
 11
3.993314572319661
 21
3.918008078113593
 31
0.0
  0
ELLIPSE
  5
A5
330
2
100
AcDbEntity
  8
Visible (ANSI)
100
AcDbEllipse
 10
3.39507883249099
 20
3.525093935313838
 30
0.0
 11
-0.0000000000000004
 21
-0.1562499999999984
 31
0.0
210
0.0
220
0.0
230
1.0
 40
0.707106781186546
 41
0.3233661065323314
 42
0.6654787600296599
  0
LINE
  5
A6
330
2
100
AcDbEntity
  8
Visible (ANSI)
100
AcDbLine
 10
3.533300067200515
 20
3.936603885436443
 30
0.0
 11
3.372545588742736
 21
3.944483457334347
 31
0.0
  0
ELLIPSE
  5
A7
330
2
100
AcDbEntity
  8
Visible (ANSI)
100
AcDbEllipse
 10
3.395078832490998
 20
3.525093935313848
 30
0.0
 11
-0.0000000000000099
 21
0.1562499999999908
 31
0.0
210
0.0
220
0.0
230
1.0
 40
0.7071067811865241
 41
5.617706547149865
 42
5.959819200647216
  0
LINE
  5
A8
330
2
100
AcDbEntity
  8
Visible (ANSI)
100
AcDbLine
 10
3.232538446067793
 20
3.150093935313835
 30
0.0
 11
3.137136220550948
 21
3.150093935313835
 31
0.0
  0
LINE
  5
A9
330
2
100
AcDbEntity
  8
Visible (ANSI)
100
AcDbLine
 10
3.137136220550948
 20
3.951561090768907
 30
0.0
 11
3.23253844606779
 21
3.948254480196848
 31
0.0
  0
LINE
  5
AA
330
2
100
AcDbEntity
  8
Visible (ANSI)
100
AcDbLine
 10
3.372545588742727
 20
3.944373761954969
 30
0.0
 11
3.529113745126229
 21
3.936699387611053
 31
0.0
  0
ELLIPSE
  5
AB
330
2
100
AcDbEntity
  8
Visible (ANSI)
100
AcDbEllipse
 10
3.465294535862797
 20
3.525093935313838
 30
0.0
 11
-0.0000000000000008
 21
-0.15625
 31
0.0
210
0.0
220
0.0
230
1.0
 40
0.7071067811865462
 41
5.286882491504929
 42
6.899002197701934
  0
ELLIPSE
  5
AC
330
2
100
AcDbEntity
  8
Visible (ANSI)
100
AcDbEllipse
 10
3.39529096452533
 20
3.525093935313836
 30
0.0
 11
-0.0000000000000009
 21
-0.1562499999999976
 31
0.0
210
0.0
220
0.0
230
1.0
 40
0.7071067811865467
 41
0.3223538026650851
 42
0.6158168905223488
  0
LINE
  5
AD
330
2
100
AcDbEntity
  8
Visible (ANSI)
100
AcDbLine
 10
3.52911374512623
 20
3.150093935313836
 30
0.0
 11
3.372545588742729
 21
3.150093935313835
 31
0.0
  0
ELLIPSE
  5
AE
330
2
100
AcDbEntity
  8
Visible (ANSI)
100
AcDbEllipse
 10
3.465294535862797
 20
3.525093935313839
 30
0.0
 11
0.0000000000000004
 21
0.1562500000000001
 31
0.0
210
0.0
220
0.0
230
1.0
 40
0.7071067811865479
 41
5.667368416657242
 42
7.279488122854256
  0
ELLIPSE
  5
AF
330
2
100
AcDbEntity
  8
Visible (ANSI)
100
AcDbEllipse
 10
3.39529096452533
 20
3.525093935313841
 30
0.0
 11
0.0000000000000005
 21
0.1562499999999969
 31
0.0
210
0.0
220
0.0
230
1.0
 40
0.7071067811865471
 41
5.66736841665724
 42
5.960831504514513
  0
LINE
  5
B0
330
2
100
AcDbEntity
  8
Visible (ANSI)
100
AcDbLine
 10
3.980144542462787
 20
3.150093935313838
 30
0.0
 11
3.980144542462788
 21
3.917887984830324
 31
0.0
  0
LINE
  5
B1
330
2
100
AcDbEntity
  8
Visible (ANSI)
100
AcDbLine
 10
3.91650856910382
 20
3.917887984830324
 30
0.0
 11
3.980144542462788
 21
3.917887984830324
 31
0.0
  0
LINE
  5
B2
330
2
100
AcDbEntity
  8
Visible (ANSI)
100
AcDbLine
 10
3.91650856910382
 20
3.917887984830324
 30
0.0
 11
3.916508569103817
 21
3.150093935313838
 31
0.0
  0
LINE
  5
B3
330
2
100
AcDbEntity
  8
Visible (ANSI)
100
AcDbLine
 10
3.916508569103817
 20
3.150093935313838
 30
0.0
 11
3.980144542462786
 21
3.150093935313838
 31
0.0
  0
LINE
  5
B4
330
2
100
AcDbEntity
  8
Visible (ANSI)
100
AcDbLine
 10
3.916508569103817
 20
3.150093935313838
 30
0.0
 11
3.662753289822665
 21
3.150093935313836
 31
0.0
  0
LINE
  5
B5
330
2
100
AcDbEntity
  8
Visible (ANSI)
100
AcDbLine
 10
3.662753289822664
 20
3.929369142043057
 30
0.0
 11
3.91650856910382
 21
3.917887984830324
 31
0.0
  0
LINE
  5
B6
330
2
100
AcDbEntity
  8
Visible (ANSI)
100
AcDbLine
 10
3.980144542462788
 20
3.917887984830324
 30
0.0
 11
3.726389263181633
 21
3.929369142043057
 31
0.0
  0
LINE
  5
B7
330
2
100
AcDbEntity
  8
Visible (ANSI)
100
AcDbLine
 10
8.041586668849619
 20
3.948254480196851
 30
0.0
 11
8.136203496203068
 21
3.951533869120185
 31
0.0
  0
LINE
  5
B8
330
2
100
AcDbEntity
  8
Visible (ANSI)
100
AcDbLine
 10
7.280598410563259
 20
3.917887984830341
 30
0.0
 11
7.280598410563259
 21
3.149973842030573
 31
0.0
  0
LINE
  5
B9
330
2
100
AcDbEntity
  8
Visible (ANSI)
100
AcDbLine
 10
7.55704120994743
 20
3.92958473750095
 30
0.0
 11
7.280598410563261
 21
3.917887984830341
 31
0.0
  0
LINE
  5
BA
330
2
100
AcDbEntity
  8
Visible (ANSI)
100
AcDbLine
 10
7.337382477762014
 20
3.917887984830341
 30
0.0
 11
7.613825277146182
 21
3.92958473750095
 31
0.0
  0
LINE
  5
BB
330
2
100
AcDbEntity
  8
Visible (ANSI)
100
AcDbLine
 10
7.337382477762014
 20
3.149973842030573
 30
0.0
 11
7.337382477762014
 21
3.917887984830341
 31
0.0
  0
LINE
  5
BC
330
2
100
AcDbEntity
  8
Visible (ANSI)
100
AcDbLine
 10
7.337382477762014
 20
3.917887984830341
 30
0.0
 11
7.280598410563259
 21
3.917887984830341
 31
0.0
  0
LINE
  5
BD
330
2
100
AcDbEntity
  8
Visible (ANSI)
100
AcDbLine
 10
7.740612915682405
 20
3.936483792153179
 30
0.0
 11
7.901579526174683
 21
3.944373761954972
 31
0.0
  0
LINE
  5
BE
330
2
100
AcDbEntity
  8
Visible (ANSI)
100
AcDbLine
 10
3.15413622055095
 20
4.042067526498256
 30
0.0
 11
8.120203496203069
 21
4.042067526498265
 31
0.0
  0
LINE
  5
BF
330
2
100
AcDbEntity
  8
Visible (ANSI)
100
AcDbLine
 10
8.120203496203069
 20
4.141067526498265
 30
0.0
 11
3.15413622055095
 21
4.141067526498257
 31
0.0
  0
LINE
  5
C0
330
2
100
AcDbEntity
  8
Visible (ANSI)
100
AcDbLine
 10
7.280598410563246
 20
3.150183888672306
 30
0.0
 11
6.637936236273607
 21
3.150183888672305
 31
0.0
  0
LINE
  5
C1
330
2
100
AcDbEntity
  8
Visible (ANSI)
100
AcDbLine
 10
4.637936236273608
 20
3.1501838886723
 30
0.0
 11
3.993314572319659
 21
3.150183888672299
 31
0.0
  0
SPLINE
  5
C2
330
2
100
AcDbEntity
  8
Visible (ANSI)
100
AcDbSpline
210
0.0
220
0.0
230
1.0
 70
     8
 71
     3
 72
    20
 73
    16
 74
     0
 42
0.0000000001
 43
0.0000000001
 40
0.0
 40
0.0
 40
0.0
 40
0.0
 40
0.2327186793969449
 40
0.2327186793969449
 40
0.5105524648958339
 40
0.5105524648958339
 40
0.7320101449143818
 40
0.7320101449143818
 40
0.8906482771198703
 40
0.8906482771198703
 40
0.9973354835091557
 40
0.9973354835091557
 40
1.222946500343627
 40
1.222946500343627
 40
1.456057154967927
 40
1.456057154967927
 40
1.456057154967927
 40
1.456057154967927
 10
3.463296495863046
 20
3.648003509017899
 30
0.0
 10
3.48204398010442
 20
3.632844803078194
 30
0.0
 10
3.495225833048914
 20
3.618057890674371
 30
0.0
 10
3.512739310239111
 20
3.594429149045428
 30
0.0
 10
3.520838622110703
 20
3.579949892334838
 30
0.0
 10
3.530255774642686
 20
3.551327420013701
 30
0.0
 10
3.532489465556354
 20
3.538044032978495
 30
0.0
 10
3.532375697986161
 20
3.514799650952239
 30
0.0
 10
3.531152956636907
 20
3.505219419947031
 30
0.0
 10
3.527326358491268
 20
3.489598312847986
 30
0.0
 10
3.525317754669273
 20
3.483470525257479
 30
0.0
 10
3.517822175042812
 20
3.464988187597496
 30
0.0
 10
3.511021062633903
 20
3.453458064396395
 30
0.0
 10
3.495312986213472
 20
3.432229620934575
 30
0.0
 10
3.482098374563023
 20
3.41738704942952
 30
0.0
 10
3.463296495863046
 20
3.402184361609781
 30
0.0
  0
SPLINE
  5
C3
330
2
100
AcDbEntity
  8
Visible (ANSI)
100
AcDbSpline
210
0.0
220
0.0
230
1.0
 70
     8
 71
     3
 72
    12
 73
     8
 74
     0
 42
0.0000000001
 43
0.0000000001
 40
0.0
 40
0.0
 40
0.0
 40
0.0
 40
0.098102221178833
 40
0.098102221178833
 40
0.2946952383242759
 40
0.2946952383242759
 40
0.3195860026262696
 40
0.3195860026262696
 40
0.3195860026262696
 40
0.3195860026262696
 10
3.71687177293549
 20
3.92970483078421
 30
0.0
 10
3.7063290398843
 20
3.930025999402007
 30
0.0
 10
3.695091606787779
 20
3.93034642535672
 30
0.0
 10
3.659727325146914
 20
3.931311232618142
 30
0.0
 10
3.634324774319786
 20
3.931948794892086
 30
0.0
 10
3.605277879241508
 20
3.932673913341979
 30
0.0
 10
3.602015351177414
 20
3.932755306294703
 30
0.0
 10
3.59875757428097
 20
3.932836626643404
 30
0.0
  0
SPLINE
  5
C4
330
2
100
AcDbEntity
  8
Visible (ANSI)
100
AcDbSpline
210
0.0
220
0.0
230
1.0
 70
     8
 71
     3
 72
    12
 73
     8
 74
     0
 42
0.0000000001
 43
0.0000000001
 40
0.0
 40
0.0
 40
0.0
 40
0.0
 40
0.0985178616591422
 40
0.0985178616591422
 40
0.19699512308285
 40
0.19699512308285
 40
0.1983622914964042
 40
0.1983622914964042
 40
0.1983622914964042
 40
0.1983622914964042
 10
3.533300067200515
 20
3.936603885436443
 30
0.0
 10
3.542430782416821
 20
3.935959428084679
 30
0.0
 10
3.55326031841528
 20
3.935321022200239
 30
0.0
 10
3.577088990668011
 20
3.934032334804608
 30
0.0
 10
3.589858842109258
 20
3.933394205953468
 30
0.0
 10
3.6029453035042
 20
3.932741051710154
 30
0.0
 10
3.603124480077788
 20
3.932732109007779
 30
0.0
 10
3.603303638536964
 20
3.932723167202455
 30
0.0
  0
SPLINE
  5
C5
330
2
100
AcDbEntity
  8
Visible (ANSI)
100
AcDbSpline
210
0.0
220
0.0
230
1.0
 70
     8
 71
     3
 72
     8
 73
     4
 74
     0
 42
0.0000000001
 43
0.0000000001
 40
0.1871875818671443
 40
0.1871875818671443
 40
0.1871875818671443
 40
0.1871875818671443
 40
0.1983752550424711
 40
0.1983752550424711
 40
0.1983752550424711
 40
0.1983752550424711
 10
3.236931650324701
 20
3.948144837163257
 30
0.0
 10
3.235469573134157
 20
3.948217882314484
 30
0.0
 10
3.234004819424065
 20
3.948290989179252
 30
0.0
 10
3.232538446067799
 20
3.948364175576228
 30
0.0
  0
SPLINE
  5
C6
330
2
100
AcDbEntity
  8
Visible (ANSI)
100
AcDbSpline
210
0.0
220
0.0
230
1.0
 70
     8
 71
     3
 72
    12
 73
     8
 74
     0
 42
0.0000000001
 43
0.0000000001
 40
0.0
 40
0.0
 40
0.0
 40
0.0
 40
0.0980743705453017
 40
0.0980743705453017
 40
0.2469029598690912
 40
0.2469029598690912
 40
0.395731562487356
 40
0.395731562487356
 40
0.395731562487356
 40
0.395731562487356
 10
3.232538446067801
 20
3.948364175576228
 30
0.0
 10
3.245405092661189
 20
3.948043089709909
 30
0.0
 10
3.258241158616454
 20
3.947722762269354
 30
0.0
 10
3.290020419753512
 20
3.946914423961582
 30
0.0
 10
3.308512405882663
 20
3.946429818056244
 30
0.0
 10
3.342966137390273
 20
3.945455314879384
 30
0.0
 10
3.358739163387331
 20
3.944970707576573
 30
0.0
 10
3.372545588742736
 20
3.944483457334347
 30
0.0
  0
SPLINE
  5
C7
330
2
100
AcDbEntity
  8
Visible (ANSI)
100
AcDbSpline
210
0.0
220
0.0
230
1.0
 70
     8
 71
     3
 72
    16
 73
    12
 74
     0
 42
0.0000000001
 43
0.0000000001
 40
0.0
 40
0.0
 40
0.0
 40
0.0
 40
0.0501035659362844
 40
0.0501035659362844
 40
0.0921369275279866
 40
0.0921369275279866
 40
0.1303117336684175
 40
0.1303117336684175
 40
0.1577529591276801
 40
0.1577529591276801
 40
0.1904190663735091
 40
0.1904190663735091
 40
0.1904190663735091
 40
0.1904190663735091
 10
3.372545588742728
 20
3.440186172911117
 30
0.0
 10
3.369451442514415
 20
3.445093994071305
 30
0.0
 10
3.362069567580385
 20
3.456610001876383
 30
0.0
 10
3.350267387200663
 20
3.487600266243469
 30
0.0
 10
3.346802312828198
 20
3.502721402369449
 30
0.0
 10
3.345345741720393
 20
3.532689019016769
 30
0.0
 10
3.346915707917076
 20
3.546802705451578
 30
0.0
 10
3.352951932911194
 20
3.570138246676136
 30
0.0
 10
3.35641248259148
 20
3.579417336877277
 30
0.0
 10
3.365382423614122
 20
3.598597790527471
 30
0.0
 10
3.370029887237347
 20
3.606011384340988
 30
0.0
 10
3.372545588742727
 20
3.61000169771656
 30
0.0
  0
SPLINE
  5
C8
330
2
100
AcDbEntity
  8
Visible (ANSI)
100
AcDbSpline
210
0.0
220
0.0
230
1.0
 70
     8
 71
     3
 72
    12
 73
     8
 74
     0
 42
0.0000000001
 43
0.0000000001
 40
0.0
 40
0.0
 40
0.0
 40
0.0
 40
0.0980743705453013
 40
0.0980743705453013
 40
0.2469029598691134
 40
0.2469029598691134
 40
0.3957315624874065
 40
0.3957315624874065
 40
0.3957315624874065
 40
0.3957315624874065
 10
3.372545588742726
 20
3.944373761954969
 30
0.0
 10
3.36344749568541
 20
3.944694847821282
 30
0.0
 10
3.353484193464955
 20
3.945015175261841
 30
0.0
 10
3.326579332642338
 20
3.945823513569615
 30
0.0
 10
3.308842110881128
 20
3.946308119474949
 30
0.0
 10
3.27148196520025
 20
3.947282622651812
 30
0.0
 10
3.252063680053297
 20
3.947767229954625
 30
0.0
 10
3.232538446067791
 20
3.948254480196848
 30
0.0
  0
LINE
  5
C9
330
2
100
AcDbEntity
  8
Visible (ANSI)
100
AcDbLine
 10
3.372545588742728
 20
3.150093935313841
 30
0.0
 11
3.232538446067793
 21
3.150093935313835
 31
0.0
  0
LINE
  5
CA
330
2
100
AcDbEntity
  8
Visible (ANSI)
100
AcDbLine
 10
3.52911374512623
 20
3.397546769300711
 30
0.0
 11
3.497135745324182
 21
3.397546769300711
 31
0.0
  0
LINE
  5
CB
330
2
100
AcDbEntity
  8
Visible (ANSI)
100
AcDbLine
 10
3.497135745324182
 20
3.397546769300711
 30
0.0
 11
3.459110173788762
 21
3.397546769300711
 31
0.0
  0
LINE
  5
CC
330
2
100
AcDbEntity
  8
Visible (ANSI)
100
AcDbLine
 10
3.529113745126229
 20
3.150093935313835
 30
0.0
 11
3.662753289822664
 21
3.150093935313832
 31
0.0
  0
SPLINE
  5
CD
330
2
100
AcDbEntity
  8
Visible (ANSI)
100
AcDbSpline
210
0.0
220
0.0
230
1.0
 70
     8
 71
     3
 72
    14
 73
    10
 74
     0
 42
0.0000000001
 43
0.0000000001
 40
0.0
 40
0.0
 40
0.0
 40
0.0
 40
0.0985231614237162
 40
0.0985231614237162
 40
0.1970003693307825
 40
0.1970003693307825
 40
0.2857942883180108
 40
0.2857942883180108
 40
0.3745882901851361
 40
0.3745882901851361
 40
0.3745882901851361
 40
0.3745882901851361
 10
3.662753289822665
 20
3.929369142043057
 30
0.0
 10
3.652860993143288
 20
3.930013628896767
 30
0.0
 10
3.641439510282916
 20
3.930652074059127
 30
0.0
 10
3.61683403550941
 20
3.931940794871458
 30
0.0
 10
3.603886702030206
 20
3.93257892437506
 30
0.0
 10
3.579423181398065
 20
3.933803998780327
 30
0.0
 10
3.568082043311376
 20
3.934380395522311
 30
0.0
 10
3.546959815455069
 20
3.935542125162191
 30
0.0
 10
3.537343245305885
 20
3.936118543816867
 30
0.0
 10
3.52911374512623
 20
3.936699387611053
 30
0.0
  0
SPLINE
  5
CE
330
2
100
AcDbEntity
  8
Visible (ANSI)
100
AcDbSpline
210
0.0
220
0.0
230
1.0
 70
     8
 71
     3
 72
    12
 73
     8
 74
     0
 42
0.0000000001
 43
0.0000000001
 40
0.396133827169679
 40
0.396133827169679
 40
0.396133827169679
 40
0.396133827169679
 40
0.4912884221682221
 40
0.4912884221682221
 40
0.6196384101704555
 40
0.6196384101704555
 40
0.7479877099102068
 40
0.7479877099102068
 40
0.7479877099102068
 40
0.7479877099102068
 10
3.599117316482741
 20
3.932818670077532
 30
0.0
 10
3.611542379521556
 20
3.932508608454105
 30
0.0
 10
3.623969219064004
 20
3.932198501420803
 30
0.0
 10
3.652771664462183
 20
3.931466767202791
 30
0.0
 10
3.668841795178438
 20
3.931048260996581
 30
0.0
 10
3.699263013208393
 20
3.930207850656287
 30
0.0
 10
3.713490225180307
 20
3.929789330657387
 30
0.0
 10
3.726389263181633
 20
3.929369142043057
 30
0.0
  0
SPLINE
  5
CF
330
2
100
AcDbEntity
  8
Visible (ANSI)
100
AcDbSpline
210
0.0
220
0.0
230
1.0
 70
     8
 71
     3
 72
    26
 73
    22
 74
     0
 42
0.0000000001
 43
0.0000000001
 40
0.0
 40
0.0
 40
0.0
 40
0.0
 40
0.0146312193843283
 40
0.0146312193843283
 40
0.0430125871595894
 40
0.0430125871595894
 40
0.18603815885455
 40
0.18603815885455
 40
0.2935705533252724
 40
0.2935705533252724
 40
0.3916311086801234
 40
0.3916311086801234
 40
0.486241228727766
 40
0.486241228727766
 40
0.5607558688645465
 40
0.5607558688645465
 40
0.6019832950611805
 40
0.6019832950611805
 40
0.6206979541204536
 40
0.6206979541204536
 40
0.6386012145149432
 40
0.6386012145149432
 40
0.6386012145149432
 40
0.6386012145149432
 10
3.52911374512623
 20
3.652641101326966
 30
0.0
 10
3.530060995534222
 20
3.651265511904657
 30
0.0
 10
3.530999637012626
 20
3.649879377061464
 30
0.0
 10
3.533768305242969
 20
3.645668679264344
 30
0.0
 10
3.535551682446524
 20
3.642794201345751
 30
0.0
 10
3.5459137733195
 20
3.625141544069425
 30
0.0
 10
3.553834568524135
 20
3.607431639135087
 30
0.0
 10
3.563618203729062
 20
3.571893165664846
 30
0.0
 10
3.566265722470011
 20
3.555978248173771
 30
0.0
 10
3.568190167179595
 20
3.52550708592139
 30
0.0
 10
3.567760555125845
 20
3.510733006402054
 30
0.0
 10
3.564265191481923
 20
3.482288849178908
 30
0.0
 10
3.561280809953446
 20
3.468475665392142
 30
0.0
 10
3.553839121218594
 20
3.444801853509911
 30
0.0
 10
3.549806172814611
 20
3.434661646058067
 30
0.0
 10
3.542616005839428
 20
3.419832440750315
 30
0.0
 10
3.539874582932479
 20
3.414731377943571
 30
0.0
 10
3.535698194920662
 20
3.407657268805659
 30
0.0
 10
3.534359474340989
 20
3.405482579345237
 30
0.0
 10
3.531709786850203
 20
3.401362095537022
 30
0.0
 10
3.530424319653872
 20
3.399449975086806
 30
0.0
 10
3.52911374512623
 20
3.397546769300711
 30
0.0
  0
LINE
  5
D0
330
2
100
AcDbEntity
  8
Visible (ANSI)
100
AcDbLine
 10
3.497135745324139
 20
3.652641101326966
 30
0.0
 11
3.52911374512623
 21
3.652641101326966
 31
0.0
  0
LINE
  5
D1
330
2
100
AcDbEntity
  8
Visible (ANSI)
100
AcDbLine
 10
3.459110173788762
 20
3.652641101326966
 30
0.0
 11
3.497135745324139
 21
3.652641101326966
 31
0.0
  0
SPLINE
  5
D2
330
2
100
AcDbEntity
  8
Visible (ANSI)
100
AcDbSpline
210
0.0
220
0.0
230
1.0
 70
     8
 71
     3
 72
    20
 73
    16
 74
     0
 42
0.0000000001
 43
0.0000000001
 40
0.0
 40
0.0
 40
0.0
 40
0.0
 40
0.231282867547586
 40
0.231282867547586
 40
0.5132086547302411
 40
0.5132086547302411
 40
0.7579903019465427
 40
0.7579903019465427
 40
0.922371189496591
 40
0.922371189496591
 40
1.124511672126745
 40
1.124511672126745
 40
1.346942159043792
 40
1.346942159043792
 40
1.565732816886322
 40
1.565732816886322
 40
1.565732816886322
 40
1.565732816886322
 10
3.459110173788763
 20
3.397546769300711
 30
0.0
 10
3.478186078631891
 20
3.411456068784737
 30
0.0
 10
3.492424772025554
 20
3.425676412937411
 30
0.0
 10
3.511732188954508
 20
3.448753469433209
 30
0.0
 10
3.521045088060967
 20
3.463221159245863
 30
0.0
 10
3.533021972939461
 20
3.493485551058813
 30
0.0
 10
3.536177935719316
 20
3.508352062780015
 30
0.0
 10
3.536484645143536
 20
3.533947105435634
 30
0.0
 10
3.535266324777999
 20
3.544120794387266
 30
0.0
 10
3.529810108301041
 20
3.566236640236687
 30
0.0
 10
3.525017537748929
 20
3.577774580542188
 30
0.0
 10
3.512277003366893
 20
3.6003568888865
 30
0.0
 10
3.504209246972104
 20
3.611001984463978
 30
0.0
 10
3.487005483679778
 20
3.629851287395389
 30
0.0
 10
3.474897697380843
 20
3.641129542868308
 30
0.0
 10
3.459110173788762
 20
3.652641101326966
 30
0.0
  0
LINE
  5
D3
330
2
100
AcDbEntity
  8
Visible (ANSI)
100
AcDbLine
 10
3.154136220550953
 20
4.141067526498258
 30
0.0
 11
3.144073232867001
 21
4.141067526498258
 31
0.0
  0
LINE
  5
D4
330
2
100
AcDbEntity
  8
Visible (ANSI)
100
AcDbLine
 10
3.144073232867001
 20
4.141067526498258
 30
0.0
 11
3.144073232867002
 21
4.140811644688592
 31
0.0
  0
SPLINE
  5
D5
330
2
100
AcDbEntity
  8
Visible (ANSI)
100
AcDbSpline
210
0.0
220
0.0
230
1.0
 70
     8
 71
     3
 72
    16
 73
    12
 74
     0
 42
0.0000000001
 43
0.0000000001
 40
0.0244597846733644
 40
0.0244597846733644
 40
0.0244597846733644
 40
0.0244597846733644
 40
0.0985287759112485
 40
0.0985287759112485
 40
0.19700574176185
 40
0.19700574176185
 40
0.2954826816444812
 40
0.2954826816444812
 40
0.3459903279554064
 40
0.3459903279554064
 40
0.3758404372047934
 40
0.3758404372047934
 40
0.3758404372047934
 40
0.3758404372047934
 10
3.144552307644668
 20
4.041602521564661
 30
0.0
 10
3.145035132960437
 20
4.040665975445099
 30
0.0
 10
3.145516246661357
 20
4.038321419471665
 30
0.0
 10
3.146644992918071
 20
4.029720960799529
 30
0.0
 10
3.147283120400742
 20
4.022524863733063
 30
0.0
 10
3.148571538386129
 20
4.004369630089049
 30
0.0
 10
3.149209665668211
 20
3.99358450460181
 30
0.0
 10
3.15018428035167
 20
3.975605227801358
 30
0.0
 10
3.150513858911598
 20
3.969266246874361
 30
0.0
 10
3.151039537091349
 20
3.958944596114814
 30
0.0
 10
3.151234524109096
 20
3.955069987031386
 30
0.0
 10
3.151429559603531
 20
3.951175384003638
 30
0.0
  0
LINE
  5
D6
330
2
100
AcDbEntity
  8
Visible (ANSI)
100
AcDbLine
 10
8.130386577170222
 20
4.14080549670636
 30
0.0
 11
8.130386577170222
 21
4.141067526498267
 31
0.0
  0
SPLINE
  5
D7
330
2
100
AcDbEntity
  8
Visible (ANSI)
100
AcDbSpline
210
0.0
220
0.0
230
1.0
 70
     8
 71
     3
 72
    16
 73
    12
 74
     0
 42
0.0000000001
 43
0.0000000001
 40
0.0204266854039142
 40
0.0204266854039142
 40
0.0204266854039142
 40
0.0204266854039142
 40
0.0985287759112426
 40
0.0985287759112426
 40
0.1970057417618285
 40
0.1970057417618285
 40
0.2954826816444489
 40
0.2954826816444489
 40
0.3459903279553784
 40
0.3459903279553784
 40
0.3717742474821294
 40
0.3717742474821294
 40
0.3717742474821294
 40
0.3717742474821294
 10
8.123025329060553
 20
3.951077117598997
 30
0.0
 10
8.123534657096186
 20
3.961248655716477
 30
0.0
 10
8.124041771099944
 20
3.97124822499458
 30
0.0
 10
8.125196900737526
 20
3.99265365179095
 30
0.0
 10
8.125835028220194
 20
4.003516952104359
 30
0.0
 10
8.127123446205581
 20
4.021868881207636
 30
0.0
 10
8.127761573487658
 20
4.029181615548894
 30
0.0
 10
8.128736188171115
 20
4.036801848854385
 30
0.0
 10
8.129065766731045
 20
4.038767329235978
 30
0.0
 10
8.129564845023864
 20
4.040758274261012
 30
0.0
 10
8.129733304290702
 20
4.041260698415268
 30
0.0
 10
8.129901765921999
 20
4.041591348567105
 30
0.0
  0
LINE
  5
D8
330
2
100
AcDbEntity
  8
Visible (ANSI)
100
AcDbLine
 10
8.130386577170222
 20
4.141067526498267
 30
0.0
 11
8.120203496203071
 21
4.141067526498267
 31
0.0
  0
SPLINE
  5
D9
330
2
100
AcDbEntity
  8
Visible (ANSI)
100
AcDbSpline
210
0.0
220
0.0
230
1.0
 70
     8
 71
     3
 72
    12
 73
     8
 74
     0
 42
0.0000000001
 43
0.0000000001
 40
0.0
 40
0.0
 40
0.0
 40
0.0
 40
0.0980743705452842
 40
0.0980743705452842
 40
0.2469029598690785
 40
0.2469029598690785
 40
0.3957315624873546
 40
0.3957315624873546
 40
0.3957315624873546
 40
0.3957315624873546
 10
8.041586668849619
 20
3.94825448019685
 30
0.0
 10
8.028720022256234
 20
3.947933394330535
 30
0.0
 10
8.015883956300971
 20
3.947613066889977
 30
0.0
 10
7.984104695163912
 20
3.946804728582206
 30
0.0
 10
7.965612709034759
 20
3.94632012267687
 30
0.0
 10
7.931158977527147
 20
3.945345619500006
 30
0.0
 10
7.915385951530089
 20
3.944861012197199
 30
0.0
 10
7.901579526174683
 20
3.944373761954972
 30
0.0
  0
SPLINE
  5
DA
330
2
100
AcDbEntity
  8
Visible (ANSI)
100
AcDbSpline
210
0.0
220
0.0
230
1.0
 70
     8
 71
     3
 72
    12
 73
     8
 74
     0
 42
0.0000000001
 43
0.0000000001
 40
0.0
 40
0.0
 40
0.0
 40
0.0
 40
0.0981022211788545
 40
0.0981022211788545
 40
0.2946952383243757
 40
0.2946952383243757
 40
0.3080151586877821
 40
0.3080151586877821
 40
0.3080151586877821
 40
0.3080151586877821
 10
7.55704120994743
 20
3.92958473750095
 30
0.0
 10
7.567583942998622
 20
3.929905906118748
 30
0.0
 10
7.578821376095143
 20
3.930226332073459
 30
0.0
 10
7.614185657736009
 20
3.931191139334884
 30
0.0
 10
7.639588208563135
 20
3.931828701608824
 30
0.0
 10
7.667117624177882
 20
3.932515938131806
 30
0.0
 10
7.668863969220625
 20
3.932559518539422
 30
0.0
 10
7.670609344321276
 20
3.932603074878008
 30
0.0
  0
SPLINE
  5
DB
330
2
100
AcDbEntity
  8
Visible (ANSI)
100
AcDbSpline
210
0.0
220
0.0
230
1.0
 70
     8
 71
     3
 72
    14
 73
    10
 74
     0
 42
0.0000000001
 43
0.0000000001
 40
0.0
 40
0.0
 40
0.0
 40
0.0
 40
0.0985178616591348
 40
0.0985178616591348
 40
0.1969951230828428
 40
0.1969951230828428
 40
0.2747314595675132
 40
0.2747314595675132
 40
0.3524678281955134
 40
0.3524678281955134
 40
0.3524678281955134
 40
0.3524678281955134
 10
7.740612915682405
 20
3.936483792153179
 30
0.0
 10
7.7314822004661
 20
3.935839334801413
 30
0.0
 10
7.720652664467641
 20
3.935200928916975
 30
0.0
 10
7.696823992214909
 20
3.933912241521345
 30
0.0
 10
7.684054140773662
 20
3.933274112670206
 30
0.0
 10
7.660958085740343
 20
3.932121372758815
 30
0.0
 10
7.650821555729494
 20
3.93161584934432
 30
0.0
 10
7.631370264301328
 20
3.930598790656769
 30
0.0
 10
7.622171569385285
 20
3.930093252133996
 30
0.0
 10
7.613825277146182
 20
3.92958473750095
 30
0.0
  0
SPLINE
  5
DC
330
2
100
AcDbEntity
  8
Visible (ANSI)
100
AcDbSpline
210
0.0
220
0.0
230
1.0
 70
     8
 71
     3
 72
    10
 73
     6
 74
     0
 42
0.0000000001
 43
0.0000000001
 40
0.2826262548156022
 40
0.2826262548156022
 40
0.2826262548156022
 40
0.2826262548156022
 40
0.289878817798502
 40
0.289878817798502
 40
0.318832462445152
 40
0.318832462445152
 40
0.318832462445152
 40
0.318832462445152
 10
8.203407204026369
 20
3.957028567518642
 30
0.0
 10
8.202997030906564
 20
3.956812459756871
 30
0.0
 10
8.202576473601686
 20
3.956612745670104
 30
0.0
 10
8.200424376195268
 20
3.955700168779122
 30
0.0
 10
8.198553842705484
 20
3.955248005733148
 30
0.0
 10
8.196545079691258
 20
3.955093899279443
 30
0.0
  0
SPLINE
  5
DD
330
2
100
AcDbEntity
  8
Visible (ANSI)
100
AcDbSpline
210
0.0
220
0.0
230
1.0
 70
     8
 71
     3
 72
     8
 73
     4
 74
     0
 42
0.0000000001
 43
0.0000000001
 40
0.0
 40
0.0
 40
0.0
 40
0.0
 40
0.0057608779750525
 40
0.0057608779750525
 40
0.0057608779750525
 40
0.0057608779750525
 10
8.196545079691265
 20
3.955093899279443
 30
0.0
 10
8.196026696601798
 20
3.955053999587149
 30
0.0
 10
8.195501171522376
 20
3.955014126160671
 30
0.0
 10
8.194968674945435
 20
3.954974275335517
 30
0.0
  0
ARC
  5
DE
330
2
100
AcDbEntity
  8
Visible (ANSI)
100
AcDbCircle
 10
8.120203496203068
 20
3.943067526498222
 30
0.0
 40
0.0990000000000433
100
AcDbArc
 50
87.00109251126225
 51
89.9999999999992
  0
ARC
  5
DF
330
2
100
AcDbEntity
  8
Visible (ANSI)
100
AcDbCircle
 10
8.120203496203062
 20
3.943067526498263
 30
0.0
 40
0.0990000000000056
100
AcDbArc
 50
17.55044324292949
 51
40.94468424810227
  0
SPLINE
  5
E0
330
2
100
AcDbEntity
  8
Visible (ANSI)
100
AcDbSpline
210
0.0
220
0.0
230
1.0
 70
     8
 71
     3
 72
    18
 73
    14
 74
     0
 42
0.0000000001
 43
0.0000000001
 40
0.0
 40
0.0
 40
0.0
 40
0.0
 40
0.0366537963153634
 40
0.0366537963153634
 40
0.0708439579883169
 40
0.0708439579883169
 40
0.1120242868918696
 40
0.1120242868918696
 40
0.1590359766670063
 40
0.1590359766670063
 40
0.1887148847074666
 40
0.1887148847074666
 40
0.2278673029870126
 40
0.2278673029870126
 40
0.2278673029870126
 40
0.2278673029870126
 10
8.194982415121778
 20
4.007945205906125
 30
0.0
 10
8.191863231289548
 20
4.011540420732114
 30
0.0
 10
8.187829844182088
 20
4.015654855261333
 30
0.0
 10
8.178219329571295
 20
4.023510353553323
 30
0.0
 10
8.173499975053211
 20
4.026662087010464
 30
0.0
 10
8.163424969391215
 20
4.032358584678682
 30
0.0
 10
8.157912455153862
 20
4.034766931249885
 30
0.0
 10
8.146881805777756
 20
4.038608278044486
 30
0.0
 10
8.141616747116479
 20
4.039816161899012
 30
0.0
 10
8.134834697780636
 20
4.0410166583011
 30
0.0
 10
8.132802985011512
 20
4.04127354242534
 30
0.0
 10
8.129409303731094
 20
4.041657725006124
 30
0.0
 10
8.128462162535191
 20
4.041722461541853
 30
0.0
 10
8.128462161753288
 20
4.041722452600081
 30
0.0
  0
SPLINE
  5
E1
330
2
100
AcDbEntity
  8
Visible (ANSI)
100
AcDbSpline
210
0.0
220
0.0
230
1.0
 70
     8
 71
     3
 72
    10
 73
     6
 74
     0
 42
0.0000000001
 43
0.0000000001
 40
0.0
 40
0.0
 40
0.0
 40
0.0
 40
0.1651473637667206
 40
0.1651473637667206
 40
0.3302947275306093
 40
0.3302947275306093
 40
0.3302947275306093
 40
0.3302947275306093
 10
8.128462162024584
 20
4.041722452573188
 30
0.0
 10
8.127949530077632
 20
4.041765366354666
 30
0.0
 10
8.127436571432745
 20
4.041804283867684
 30
0.0
 10
8.126410094233518
 20
4.041874119264103
 30
0.0
 10
8.125896591269304
 20
4.041905036086844
 30
0.0
 10
8.125382870733293
 20
4.041931949216833
 30
0.0
  0
ARC
  5
E2
330
2
100
AcDbEntity
  8
Visible (ANSI)
100
AcDbCircle
 10
8.120203496203068
 20
3.94306752649825
 30
0.0
 40
0.198000000000016
100
AcDbArc
 50
87.00109251126118
 51
90.0
  0
SPLINE
  5
E3
330
2
100
AcDbEntity
  8
Visible (ANSI)
100
AcDbSpline
210
0.0
220
0.0
230
1.0
 70
     8
 71
     3
 72
    10
 73
     6
 74
     0
 42
0.0000000001
 43
0.0000000001
 40
0.0
 40
0.0
 40
0.0
 40
0.0
 40
0.16528686897342
 40
0.16528686897342
 40
0.3305737379475778
 40
0.3305737379475778
 40
0.3305737379475778
 40
0.3305737379475778
 10
8.13056224526352
 20
4.140796371935401
 30
0.0
 10
8.131589686335352
 20
4.140742545675434
 30
0.0
 10
8.13261669226377
 20
4.140680712029956
 30
0.0
 10
8.134669646662608
 20
4.140541041237092
 30
0.0
 10
8.135695563952372
 20
4.140463206211053
 30
0.0
 10
8.136720827846101
 20
4.140377378648111
 30
0.0
  0
SPLINE
  5
E4
330
2
100
AcDbEntity
  8
Visible (ANSI)
100
AcDbSpline
210
0.0
220
0.0
230
1.0
 70
     8
 71
     3
 72
    22
 73
    18
 74
     0
 42
0.0000000001
 43
0.0000000001
 40
0.0000820202062113
 40
0.0000820202062113
 40
0.0000820202062113
 40
0.0000820202062113
 40
0.029626482978677
 40
0.029626482978677
 40
0.0500156311667034
 40
0.0500156311667034
 40
0.0710441815723896
 40
0.0710441815723896
 40
0.1018743484706885
 40
0.1018743484706885
 40
0.1531807504953942
 40
0.1531807504953942
 40
0.2084466758428151
 40
0.2084466758428151
 40
0.234584423121591
 40
0.234584423121591
 40
0.2607105320671684
 40
0.2607105320671684
 40
0.2607105320671684
 40
0.2607105320671684
 10
8.136720819730399
 20
4.140377379506426
 30
0.0
 10
8.13672066914296
 20
4.140377434992474
 30
0.0
 10
8.13701836659669
 20
4.140360232456407
 30
0.0
 10
8.140005589240464
 20
4.14007863822032
 30
0.0
 10
8.141741653186874
 20
4.139904852367001
 30
0.0
 10
8.146171611161694
 20
4.139370326883916
 30
0.0
 10
8.14887963525374
 20
4.139004695105372
 30
0.0
 10
8.156458946536028
 20
4.137773411098935
 30
0.0
 10
8.161712838712951
 20
4.136757300673564
 30
0.0
 10
8.176965322163608
 20
4.133010529727797
 30
0.0
 10
8.188070729937427
 20
4.129525074272049
 30
0.0
 10
8.212741608248418
 20
4.118669542719345
 30
0.0
 10
8.225688750716795
 20
4.111316255544232
 30
0.0
 10
8.243681915250174
 20
4.098014933120975
 30
0.0
 10
8.249271645596914
 20
4.093394621758155
 30
0.0
 10
8.259943102537331
 20
4.083529685632158
 30
0.0
 10
8.265007521090405
 20
4.078302196479141
 30
0.0
 10
8.269761334040486
 20
4.072822885313985
 30
0.0
  0
ARC
  5
E5
330
2
100
AcDbEntity
  8
Visible (ANSI)
100
AcDbCircle
 10
8.120203496203062
 20
3.943067526498261
 30
0.0
 40
0.1980000000000088
100
AcDbArc
 50
30.965782570558
 51
40.94468424810281
  0
LINE
  5
E6
330
2
100
AcDbEntity
  8
Visible (ANSI)
100
AcDbLine
 10
8.125382870733293
 20
4.041931949216833
 30
0.0
 11
8.13056224526352
 21
4.140796371935401
 31
0.0
  0
LINE
  5
E7
330
2
100
AcDbEntity
  8
Visible (ANSI)
100
AcDbLine
 10
8.128462162024584
 20
4.041722452573188
 30
0.0
 11
8.136720827846101
 21
4.140377378648111
 31
0.0
  0
LINE
  5
E8
330
2
100
AcDbEntity
  8
Visible (ANSI)
100
AcDbLine
 10
8.19498241512178
 20
4.007945205906125
 30
0.0
 11
8.219180914965592
 21
4.028939659125284
 31
0.0
  0
LINE
  5
E9
330
2
100
AcDbEntity
  8
Visible (ANSI)
100
AcDbLine
 10
8.237627384047195
 20
4.044943689734282
 30
0.0
 11
8.269761334040486
 21
4.072822885313985
 31
0.0
  0
LINE
  5
EA
330
2
100
AcDbEntity
  8
Visible (ANSI)
100
AcDbLine
 10
4.63793623627362
 20
3.37897384203057
 30
0.0
 11
4.63793623627362
 21
3.14997384203057
 31
0.0
  0
LINE
  5
EB
330
2
100
AcDbEntity
  8
Visible (ANSI)
100
AcDbLine
 10
6.637936236273612
 20
3.378973842030569
 30
0.0
 11
6.637936236273612
 21
3.149973842030569
 31
0.0
  0
LINE
  5
EC
330
2
100
AcDbEntity
  8
Visible (ANSI)
100
AcDbLine
 10
4.63793623627362
 20
3.37897384203057
 30
0.0
 11
6.637936236273612
 21
3.378973842030569
 31
0.0
  0
ENDSEC
  0
SECTION
  2
OBJECTS
  0
DICTIONARY
  5
7
330
0
100
AcDbDictionary
281
     1
  3
ACAD_CIP_PREVIOUS_PRODUCT_INFO
350
124
  3
ACAD_COLOR
350
40
  3
ACAD_GROUP
350
2C
  3
ACAD_LAYOUT
350
15
  3
ACAD_MATERIAL
350
9
  3
ACAD_MLEADERSTYLE
350
43
  3
ACAD_MLINESTYLE
350
2D
  3
ACAD_PLOTSETTINGS
350
2E
  3
ACAD_PLOTSTYLENAME
350
6
  3
ACAD_SCALELIST
350
41
  3
ACAD_TABLESTYLE
350
42
  3
ACAD_VISUALSTYLE
350
26
  3
ACDB_RECOMPOSE_DATA
350
12B
  3
AcDbVariableDictionary
350
FE
  3
DWGPROPS
350
12C
  0
XRECORD
  5
124
102
{ACAD_REACTORS
330
7
102
}
330
7
100
AcDbXrecord
280
     1
300
AMECH_PP
300
2012
300
85794PDSS_2012_0F
  0
DICTIONARY
  5
40
102
{ACAD_REACTORS
330
7
102
}
330
7
100
AcDbDictionary
281
     1
  0
DICTIONARY
  5
2C
102
{ACAD_REACTORS
330
7
102
}
330
7
100
AcDbDictionary
281
     1
  0
DICTIONARY
  5
15
102
{ACAD_REACTORS
330
7
102
}
330
7
100
AcDbDictionary
281
     1
  3
Layout1
350
19
  3
Model
350
14
  0
DICTIONARY
  5
9
102
{ACAD_REACTORS
330
7
102
}
330
7
100
AcDbDictionary
281
     1
  3
ByBlock
350
38
  3
ByLayer
350
2F
  3
Global
350
8
  0
DICTIONARY
  5
43
102
{ACAD_REACTORS
330
7
102
}
330
7
100
AcDbDictionary
281
     1
  3
Standard
350
121
  0
DICTIONARY
  5
2D
102
{ACAD_REACTORS
330
7
102
}
330
7
100
AcDbDictionary
281
     1
  3
Standard
350
44
  0
DICTIONARY
  5
2E
102
{ACAD_REACTORS
330
7
102
}
330
7
100
AcDbDictionary
281
     1
  0
ACDBDICTIONARYWDFLT
  5
6
102
{ACAD_REACTORS
330
7
102
}
330
7
100
AcDbDictionary
281
     1
  3
Normal
350
5
100
AcDbDictionaryWithDefault
340
5
  0
DICTIONARY
  5
41
102
{ACAD_REACTORS
330
7
102
}
330
7
100
AcDbDictionary
281
     1
  3
A0
350
49
  3
A1
350
4A
  3
A2
350
4B
  3
A3
350
4C
  3
A4
350
4D
  3
A5
350
4E
  3
A6
350
4F
  3
A7
350
50
  3
A8
350
51
  3
A9
350
52
  3
B0
350
53
  3
B1
350
54
  3
B2
350
55
  3
B3
350
56
  3
B4
350
57
  3
B5
350
58
  3
B6
350
59
  0
DICTIONARY
  5
42
102
{ACAD_REACTORS
330
7
102
}
330
7
100
AcDbDictionary
281
     1
  3
Standard
350
45
  0
DICTIONARY
  5
26
102
{ACAD_REACTORS
330
7
102
}
330
7
100
AcDbDictionary
281
     1
  3
2dWireframe
350
25
  3
Basic
350
110
  3
Brighten
350
114
  3
ColorChange
350
118
  3
Conceptual
350
112
  3
Dim
350
113
  3
EdgeColorOff
350
120
  3
Facepattern
350
117
  3
Flat
350
10C
  3
FlatWithEdges
350
10D
  3
Gouraud
350
10E
  3
GouraudWithEdges
350
10F
  3
Hidden
350
111
  3
JitterOff
350
11E
  3
Linepattern
350
116
  3
OverhangOff
350
11F
  3
Realistic
350
46
  3
Shaded
350
11D
  3
Shaded with edges
350
11C
  3
Shades of Gray
350
119
  3
Sketchy
350
11A
  3
Thicken
350
115
  3
Wireframe
350
47
  3
X-Ray
350
11B
  0
XRECORD
  5
12B
102
{ACAD_REACTORS
330
7
102
}
330
7
100
AcDbXrecord
280
     1
 90
        1
330
45
  0
DICTIONARY
  5
FE
102
{ACAD_REACTORS
330
7
102
}
330
7
100
AcDbDictionary
281
     1
  3
CANNOSCALE
350
102
  3
CMLEADERSTYLE
350
100
  3
CTABLESTYLE
350
FF
  3
DIMASSOC
350
109
  3
HIDETEXT
350
108
  3
INDEXCTL
350
107
  3
LAYEREVAL
350
104
  3
LAYERNOTIFY
350
105
  3
LIGHTINGUNITS
350
103
  3
MSLTSCALE
350
101
  3
SORTENTS
350
106
  3
XCLIPFRAME
350
127
  0
XRECORD
  5
12C
102
{ACAD_REACTORS
330
7
102
}
330
7
100
AcDbXrecord
280
     1
  1
DWGPROPS COOKIE
  2

  3

  4

  6

  7

  8
jwalls
  9

300
=
301
=
302
=
303
=
304
=
305
=
306
=
307
=
308
=
309
=
 40
0.0121767939814815
 41
2456514.657927396
 42
2456514.673087373
  1

 90
        0
  0
LAYOUT
  5
19
102
{ACAD_XDICTIONARY
360
130
102
}
102
{ACAD_REACTORS
330
15
102
}
330
15
100
AcDbPlotSettings
  1

  2

  4

  6

 40
0.0
 41
0.0
 42
0.0
 43
0.0
 44
0.0
 45
0.0
 46
0.0
 47
0.0
 48
0.0
 49
0.0
140
0.0
141
0.0
142
1.0
143
1.0
 70
   688
 72
     0
 73
     0
 74
     5
  7

 75
    16
147
1.0
148
0.0
149
0.0
100
AcDbLayout
  1
Layout1
 70
     1
 71
     1
 10
0.0
 20
0.0
 11
11.0
 21
8.5
 12
0.0
 22
0.0
 32
0.0
 14
0.0
 24
0.0
 34
0.0
 15
11.0
 25
8.5
 35
0.0
146
0.0
 13
0.0
 23
0.0
 33
0.0
 16
1.0
 26
0.0
 36
0.0
 17
0.0
 27
1.0
 37
0.0
 76
     0
330
16
  0
LAYOUT
  5
14
102
{ACAD_XDICTIONARY
360
12E
102
}
102
{ACAD_REACTORS
330
15
102
}
330
15
100
AcDbPlotSettings
  1

  2

  4

  6

 40
0.0
 41
0.0
 42
0.0
 43
0.0
 44
0.0
 45
0.0
 46
0.0
 47
0.0
 48
0.0
 49
0.0
140
0.0
141
0.0
142
1.0
143
1.0
 70
  1712
 72
     0
 73
     0
 74
     0
  7

 75
     0
147
1.0
148
0.0
149
0.0
100
AcDbLayout
  1
Model
 70
     1
 71
     0
 10
0.0
 20
0.0
 11
12.0
 21
9.0
 12
0.0
 22
0.0
 32
0.0
 14
0.0
 24
0.0
 34
0.0
 15
0.0
 25
0.0
 35
0.0
146
0.0
 13
0.0
 23
0.0
 33
0.0
 16
1.0
 26
0.0
 36
0.0
 17
0.0
 27
1.0
 37
0.0
 76
     0
330
2
331
24
  0
MATERIAL
  5
38
102
{ACAD_XDICTIONARY
360
39
102
}
102
{ACAD_REACTORS
330
9
102
}
330
9
100
AcDbMaterial
  1
ByBlock
 72
     0
 43
0.0208333333333333
 43
0.0
 43
0.0
 43
0.0
 43
0.0
 43
0.0208333333333333
 43
0.0
 43
0.0
 43
0.0
 43
0.0
 43
1.0
 43
0.0
 43
0.0
 43
0.0
 43
0.0
 43
1.0
 77
     0
 47
0.0208333333333333
 47
0.0
 47
0.0
 47
0.0
 47
0.0
 47
0.0208333333333333
 47
0.0
 47
0.0
 47
0.0
 47
0.0
 47
1.0
 47
0.0
 47
0.0
 47
0.0
 47
0.0
 47
1.0
171
     0
 49
0.0208333333333333
 49
0.0
 49
0.0
 49
0.0
 49
0.0
 49
0.0208333333333333
 49
0.0
 49
0.0
 49
0.0
 49
0.0
 49
1.0
 49
0.0
 49
0.0
 49
0.0
 49
0.0
 49
1.0
175
     0
142
0.0208333333333333
142
0.0
142
0.0
142
0.0
142
0.0
142
0.0208333333333333
142
0.0
142
0.0
142
0.0
142
0.0
142
1.0
142
0.0
142
0.0
142
0.0
142
0.0
142
1.0
179
     0
144
0.0208333333333333
144
0.0
144
0.0
144
0.0
144
0.0
144
0.0208333333333333
144
0.0
144
0.0
144
0.0
144
0.0
144
1.0
144
0.0
144
0.0
144
0.0
144
0.0
144
1.0
147
0.0208333333333333
147
0.0
147
0.0
147
0.0
147
0.0
147
0.0208333333333333
147
0.0
147
0.0
147
0.0
147
0.0
147
1.0
147
0.0
147
0.0
147
0.0
147
0.0
147
1.0
  0
MATERIAL
  5
2F
102
{ACAD_XDICTIONARY
360
30
102
}
102
{ACAD_REACTORS
330
9
102
}
330
9
100
AcDbMaterial
  1
ByLayer
 72
     0
 43
0.0208333333333333
 43
0.0
 43
0.0
 43
0.0
 43
0.0
 43
0.0208333333333333
 43
0.0
 43
0.0
 43
0.0
 43
0.0
 43
1.0
 43
0.0
 43
0.0
 43
0.0
 43
0.0
 43
1.0
 77
     0
 47
0.0208333333333333
 47
0.0
 47
0.0
 47
0.0
 47
0.0
 47
0.0208333333333333
 47
0.0
 47
0.0
 47
0.0
 47
0.0
 47
1.0
 47
0.0
 47
0.0
 47
0.0
 47
0.0
 47
1.0
171
     0
 49
0.0208333333333333
 49
0.0
 49
0.0
 49
0.0
 49
0.0
 49
0.0208333333333333
 49
0.0
 49
0.0
 49
0.0
 49
0.0
 49
1.0
 49
0.0
 49
0.0
 49
0.0
 49
0.0
 49
1.0
175
     0
142
0.0208333333333333
142
0.0
142
0.0
142
0.0
142
0.0
142
0.0208333333333333
142
0.0
142
0.0
142
0.0
142
0.0
142
1.0
142
0.0
142
0.0
142
0.0
142
0.0
142
1.0
179
     0
144
0.0208333333333333
144
0.0
144
0.0
144
0.0
144
0.0
144
0.0208333333333333
144
0.0
144
0.0
144
0.0
144
0.0
144
1.0
144
0.0
144
0.0
144
0.0
144
0.0
144
1.0
147
0.0208333333333333
147
0.0
147
0.0
147
0.0
147
0.0
147
0.0208333333333333
147
0.0
147
0.0
147
0.0
147
0.0
147
1.0
147
0.0
147
0.0
147
0.0
147
0.0
147
1.0
  0
MATERIAL
  5
8
102
{ACAD_XDICTIONARY
360
A
102
}
102
{ACAD_REACTORS
330
9
102
}
330
9
100
AcDbMaterial
  1
Global
 72
     0
 43
0.0208333333333333
 43
0.0
 43
0.0
 43
0.0
 43
0.0
 43
0.0208333333333333
 43
0.0
 43
0.0
 43
0.0
 43
0.0
 43
1.0
 43
0.0
 43
0.0
 43
0.0
 43
0.0
 43
1.0
 77
     0
 47
0.0208333333333333
 47
0.0
 47
0.0
 47
0.0
 47
0.0
 47
0.0208333333333333
 47
0.0
 47
0.0
 47
0.0
 47
0.0
 47
1.0
 47
0.0
 47
0.0
 47
0.0
 47
0.0
 47
1.0
171
     0
 49
0.0208333333333333
 49
0.0
 49
0.0
 49
0.0
 49
0.0
 49
0.0208333333333333
 49
0.0
 49
0.0
 49
0.0
 49
0.0
 49
1.0
 49
0.0
 49
0.0
 49
0.0
 49
0.0
 49
1.0
175
     0
142
0.0208333333333333
142
0.0
142
0.0
142
0.0
142
0.0
142
0.0208333333333333
142
0.0
142
0.0
142
0.0
142
0.0
142
1.0
142
0.0
142
0.0
142
0.0
142
0.0
142
1.0
179
     0
144
0.0208333333333333
144
0.0
144
0.0
144
0.0
144
0.0
144
0.0208333333333333
144
0.0
144
0.0
144
0.0
144
0.0
144
1.0
144
0.0
144
0.0
144
0.0
144
0.0
144
1.0
147
0.0208333333333333
147
0.0
147
0.0
147
0.0
147
0.0
147
0.0208333333333333
147
0.0
147
0.0
147
0.0
147
0.0
147
1.0
147
0.0
147
0.0
147
0.0
147
0.0
147
1.0
  0
MLEADERSTYLE
  5
121
102
{ACAD_XDICTIONARY
360
129
102
}
102
{ACAD_REACTORS
330
43
102
}
330
43
100
AcDbMLeaderStyle
170
     2
171
     1
172
     0
 90
        2
 40
0.0
 41
0.0
173
     1
 91
-1056964608
340
1F
 92
       -2
290
     1
 42
0.09
291
     1
 43
0.36
  3
Standard
 44
0.18
300

342
1C
174
     1
178
     6
175
     1
176
     0
 93
-1056964608
 45
0.18
292
     0
297
     0
 46
0.18
 94
-1056964608
 47
1.0
 49
1.0
140
1.0
293
     1
141
0.0
294
     1
177
     0
142
1.0
295
     0
296
     0
143
0.125
1001
ACAD_MLEADERVER
1070
     2
  0
MLINESTYLE
  5
44
102
{ACAD_REACTORS
330
2D
102
}
330
2D
100
AcDbMlineStyle
  2
STANDARD
 70
     0
  3

 62
   256
 51
90.0
 52
90.0
 71
     2
 49
0.5
 62
   256
  6
BYLAYER
 49
-0.5
 62
   256
  6
BYLAYER
  0
ACDBPLACEHOLDER
  5
5
102
{ACAD_REACTORS
330
6
102
}
330
6
  0
SCALE
  5
49
102
{ACAD_REACTORS
330
41
102
}
330
41
100
AcDbScale
 70
     0
300
1:1
140
1.0
141
1.0
290
     1
  0
SCALE
  5
4A
102
{ACAD_REACTORS
330
41
102
}
330
41
100
AcDbScale
 70
     0
300
1/128" = 1'-0"
140
0.0078125
141
12.0
290
     0
  0
SCALE
  5
4B
102
{ACAD_REACTORS
330
41
102
}
330
41
100
AcDbScale
 70
     0
300
1/64" = 1'-0"
140
0.015625
141
12.0
290
     0
  0
SCALE
  5
4C
102
{ACAD_REACTORS
330
41
102
}
330
41
100
AcDbScale
 70
     0
300
1/32" = 1'-0"
140
0.03125
141
12.0
290
     0
  0
SCALE
  5
4D
102
{ACAD_REACTORS
330
41
102
}
330
41
100
AcDbScale
 70
     0
300
1/16" = 1'-0"
140
0.0625
141
12.0
290
     0
  0
SCALE
  5
4E
102
{ACAD_REACTORS
330
41
102
}
330
41
100
AcDbScale
 70
     0
300
3/32" = 1'-0"
140
0.09375
141
12.0
290
     0
  0
SCALE
  5
4F
102
{ACAD_REACTORS
330
41
102
}
330
41
100
AcDbScale
 70
     0
300
1/8" = 1'-0"
140
0.125
141
12.0
290
     0
  0
SCALE
  5
50
102
{ACAD_REACTORS
330
41
102
}
330
41
100
AcDbScale
 70
     0
300
3/16" = 1'-0"
140
0.1875
141
12.0
290
     0
  0
SCALE
  5
51
102
{ACAD_REACTORS
330
41
102
}
330
41
100
AcDbScale
 70
     0
300
1/4" = 1'-0"
140
0.25
141
12.0
290
     0
  0
SCALE
  5
52
102
{ACAD_REACTORS
330
41
102
}
330
41
100
AcDbScale
 70
     0
300
3/8" = 1'-0"
140
0.375
141
12.0
290
     0
  0
SCALE
  5
53
102
{ACAD_REACTORS
330
41
102
}
330
41
100
AcDbScale
 70
     0
300
1/2" = 1'-0"
140
0.5
141
12.0
290
     0
  0
SCALE
  5
54
102
{ACAD_REACTORS
330
41
102
}
330
41
100
AcDbScale
 70
     0
300
3/4" = 1'-0"
140
0.75
141
12.0
290
     0
  0
SCALE
  5
55
102
{ACAD_REACTORS
330
41
102
}
330
41
100
AcDbScale
 70
     0
300
1" = 1'-0"
140
1.0
141
12.0
290
     0
  0
SCALE
  5
56
102
{ACAD_REACTORS
330
41
102
}
330
41
100
AcDbScale
 70
     0
300
1-1/2" = 1'-0"
140
1.5
141
12.0
290
     0
  0
SCALE
  5
57
102
{ACAD_REACTORS
330
41
102
}
330
41
100
AcDbScale
 70
     0
300
3" = 1'-0"
140
3.0
141
12.0
290
     0
  0
SCALE
  5
58
102
{ACAD_REACTORS
330
41
102
}
330
41
100
AcDbScale
 70
     0
300
6" = 1'-0"
140
6.0
141
12.0
290
     0
  0
SCALE
  5
59
102
{ACAD_REACTORS
330
41
102
}
330
41
100
AcDbScale
 70
     0
300
1'-0" = 1'-0"
140
12.0
141
12.0
290
     0
  0
TABLESTYLE
  5
45
102
{ACAD_XDICTIONARY
360
ED
102
}
102
{ACAD_REACTORS
330
42
102
}
330
42
100
AcDbTableStyle
  3
Standard
 70
     0
 71
     0
 40
0.06
 41
0.06
280
     0
281
     0
  7
Standard
140
0.18
170
     2
 62
     0
 63
     7
283
     0
274
    -2
284
     1
 64
     0
275
    -2
285
     1
 65
     0
276
    -2
286
     1
 66
     0
277
    -2
287
     1
 67
     0
278
    -2
288
     1
 68
     0
279
    -2
289
     1
 69
     0
  7
Standard
140
0.25
170
     5
 62
     0
 63
     7
283
     0
274
    -2
284
     1
 64
     0
275
    -2
285
     1
 65
     0
276
    -2
286
     1
 66
     0
277
    -2
287
     1
 67
     0
278
    -2
288
     1
 68
     0
279
    -2
289
     1
 69
     0
  7
Standard
140
0.18
170
     5
 62
     0
 63
     7
283
     0
274
    -2
284
     1
 64
     0
275
    -2
285
     1
 65
     0
276
    -2
286
     1
 66
     0
277
    -2
287
     1
 67
     0
278
    -2
288
     1
 68
     0
279
    -2
289
     1
 69
     0
  0
VISUALSTYLE
  5
25
102
{ACAD_XDICTIONARY
360
132
102
}
102
{ACAD_REACTORS
330
26
102
}
330
26
100
AcDbVisualStyle
  2
2dWireframe
 70
     4
 71
     0
 72
     2
 73
     0
 90
        0
 40
-0.6
 41
-30.0
 62
     5
 63
     7
 74
     1
 91
        4
 64
     7
 65
   257
 75
     1
175
     1
 42
1.0
 92
        0
 66
   257
 43
1.0
 76
     1
 77
     6
 78
     2
 67
     7
 79
     5
170
     0
171
     0
290
     0
174
     0
 93
        1
 44
0.0
173
     0
291
     0
 45
0.0
1001
ACAD
1000
AcDbSavedByObjectVersion
1070
     0
  0
VISUALSTYLE
  5
110
102
{ACAD_XDICTIONARY
360
143
102
}
102
{ACAD_REACTORS
330
26
102
}
330
26
100
AcDbVisualStyle
  2
Basic
 70
     7
 71
     1
 72
     0
 73
     1
 90
        0
 40
-0.6
 41
-30.0
 62
     5
 63
     7
 74
     0
 91
        4
 64
     7
 65
   257
 75
     1
175
     1
 42
1.0
 92
        8
 66
     7
 43
1.0
 76
     1
 77
     6
 78
     2
 67
     7
 79
     5
170
     0
171
     0
290
     0
174
     0
 93
        1
 44
0.0
173
     0
291
     1
 45
0.0
1001
ACAD
1000
AcDbSavedByObjectVersion
1070
     0
  0
VISUALSTYLE
  5
114
102
{ACAD_XDICTIONARY
360
14B
102
}
102
{ACAD_REACTORS
330
26
102
}
330
26
100
AcDbVisualStyle
  2
Brighten
 70
    12
 71
     2
 72
     2
 73
     0
 90
        0
 40
-0.6
 41
-30.0
 62
     5
 63
     7
 74
     1
 91
        4
 64
     7
 65
   257
 75
     1
175
     1
 42
1.0
 92
        8
 66
     7
 43
1.0
 76
     1
 77
     6
 78
     2
 67
     7
 79
     5
170
     0
171
     0
290
     0
174
     0
 93
        1
 44
50.0
173
     0
291
     1
 45
0.0
1001
ACAD
1000
AcDbSavedByObjectVersion
1070
     0
  0
VISUALSTYLE
  5
118
102
{ACAD_XDICTIONARY
360
153
102
}
102
{ACAD_REACTORS
330
26
102
}
330
26
100
AcDbVisualStyle
  2
ColorChange
 70
    16
 71
     2
 72
     2
 73
     3
 90
        0
 40
-0.6
 41
-30.0
 62
     5
 63
     8
 74
     1
 91
        4
 64
     7
 65
   257
 75
     1
175
     1
 42
1.0
 92
        8
 66
     8
 43
1.0
 76
     1
 77
     6
 78
     2
 67
     7
 79
     5
170
     0
171
     0
290
     0
174
     0
 93
        1
 44
0.0
173
     0
291
     1
 45
0.0
1001
ACAD
1000
AcDbSavedByObjectVersion
1070
     0
  0
VISUALSTYLE
  5
112
102
{ACAD_XDICTIONARY
360
147
102
}
102
{ACAD_REACTORS
330
26
102
}
330
26
100
AcDbVisualStyle
  2
Conceptual
 70
     9
 71
     3
 72
     2
 73
     0
 90
        0
 40
-0.6
 41
-30.0
 62
     5
 63
     7
 74
     2
 91
        2
 64
     7
 65
   257
 75
     1
175
     1
 42
179.0
 92
        8
 66
     7
 43
1.0
 76
     1
 77
     6
 78
     2
 67
     7
 79
     3
170
     0
171
     0
290
     0
174
     0
 93
        1
 44
0.0
173
     0
291
     0
 45
0.0
1001
ACAD
1000
AcDbSavedByObjectVersion
1070
     0
  0
VISUALSTYLE
  5
113
102
{ACAD_XDICTIONARY
360
149
102
}
102
{ACAD_REACTORS
330
26
102
}
330
26
100
AcDbVisualStyle
  2
Dim
 70
    11
 71
     2
 72
     2
 73
     0
 90
        0
 40
-0.6
 41
-30.0
 62
     5
 63
     7
 74
     1
 91
        4
 64
     7
 65
   257
 75
     1
175
     1
 42
1.0
 92
        8
 66
     7
 43
1.0
 76
     1
 77
     6
 78
     2
 67
     7
 79
     5
170
     0
171
     0
290
     0
174
     0
 93
        1
 44
-50.0
173
     0
291
     1
 45
0.0
1001
ACAD
1000
AcDbSavedByObjectVersion
1070
     0
  0
VISUALSTYLE
  5
120
102
{ACAD_XDICTIONARY
360
163
102
}
102
{ACAD_REACTORS
330
26
102
}
330
26
100
AcDbVisualStyle
  2
EdgeColorOff
 70
    22
 71
     2
 72
     2
 73
     0
 90
        0
 40
-0.6
 41
-30.0
 62
     5
 63
     7
 74
     1
 91
        4
 64
     7
 65
   257
 75
     1
175
     1
 42
1.0
 92
        8
 66
     7
 43
1.0
 76
     1
 77
     6
 78
     2
 67
     7
 79
     5
170
     0
171
     0
290
     0
174
     0
 93
        1
 44
0.0
173
     0
291
     1
 45
0.0
1001
ACAD
1000
AcDbSavedByObjectVersion
1070
     0
  0
VISUALSTYLE
  5
117
102
{ACAD_XDICTIONARY
360
151
102
}
102
{ACAD_REACTORS
330
26
102
}
330
26
100
AcDbVisualStyle
  2
Facepattern
 70
    15
 71
     2
 72
     2
 73
     0
 90
        0
 40
-0.6
 41
-30.0
 62
     5
 63
     7
 74
     1
 91
        4
 64
     7
 65
   257
 75
     1
175
     1
 42
1.0
 92
        8
 66
     7
 43
1.0
 76
     1
 77
     6
 78
     2
 67
     7
 79
     5
170
     0
171
     0
290
     0
174
     0
 93
        1
 44
0.0
173
     0
291
     1
 45
0.0
1001
ACAD
1000
AcDbSavedByObjectVersion
1070
     0
  0
VISUALSTYLE
  5
10C
102
{ACAD_XDICTIONARY
360
13B
102
}
102
{ACAD_REACTORS
330
26
102
}
330
26
100
AcDbVisualStyle
  2
Flat
 70
     0
 71
     2
 72
     1
 73
     1
 90
        2
 40
-0.6
 41
30.0
 62
     5
 63
     7
 74
     0
 91
        0
 64
     7
 65
   257
 75
     1
175
     1
 42
1.0
 92
        8
 66
     7
 43
1.0
 76
     1
 77
     6
 78
     2
 67
     7
 79
     5
170
     0
171
     0
290
     0
174
     0
 93
       13
 44
0.0
173
     0
291
     1
 45
0.0
1001
ACAD
1000
AcDbSavedByObjectVersion
1070
     0
  0
VISUALSTYLE
  5
10D
102
{ACAD_XDICTIONARY
360
13D
102
}
102
{ACAD_REACTORS
330
26
102
}
330
26
100
AcDbVisualStyle
  2
FlatWithEdges
 70
     1
 71
     2
 72
     1
 73
     1
 90
        2
 40
-0.6
 41
30.0
 62
     5
 63
     7
 74
     1
 91
        0
 64
     7
 65
   257
 75
     1
175
     1
 42
1.0
 92
        0
 66
   257
 43
1.0
 76
     1
 77
     6
 78
     2
 67
     7
 79
     5
170
     0
171
     0
290
     0
174
     0
 93
       13
 44
0.0
173
     0
291
     1
 45
0.0
1001
ACAD
1000
AcDbSavedByObjectVersion
1070
     0
  0
VISUALSTYLE
  5
10E
102
{ACAD_XDICTIONARY
360
13F
102
}
102
{ACAD_REACTORS
330
26
102
}
330
26
100
AcDbVisualStyle
  2
Gouraud
 70
     2
 71
     2
 72
     2
 73
     1
 90
        2
 40
-0.6
 41
30.0
 62
     5
 63
     7
 74
     0
 91
        0
 64
     7
 65
   257
 75
     1
175
     1
 42
1.0
 92
        0
 66
     7
 43
1.0
 76
     1
 77
     6
 78
     2
 67
     7
 79
     5
170
     0
171
     0
290
     0
174
     0
 93
       13
 44
0.0
173
     0
291
     1
 45
0.0
1001
ACAD
1000
AcDbSavedByObjectVersion
1070
     0
  0
VISUALSTYLE
  5
10F
102
{ACAD_XDICTIONARY
360
141
102
}
102
{ACAD_REACTORS
330
26
102
}
330
26
100
AcDbVisualStyle
  2
GouraudWithEdges
 70
     3
 71
     2
 72
     2
 73
     1
 90
        2
 40
-0.6
 41
30.0
 62
     5
 63
     7
 74
     1
 91
        0
 64
     7
 65
   257
 75
     1
175
     1
 42
1.0
 92
        0
 66
   257
 43
1.0
 76
     1
 77
     6
 78
     2
 67
     7
 79
     5
170
     0
171
     0
290
     0
174
     0
 93
       13
 44
0.0
173
     0
291
     1
 45
0.0
1001
ACAD
1000
AcDbSavedByObjectVersion
1070
     0
  0
VISUALSTYLE
  5
111
102
{ACAD_XDICTIONARY
360
145
102
}
102
{ACAD_REACTORS
330
26
102
}
330
26
100
AcDbVisualStyle
  2
Hidden
 70
     6
 71
     1
 72
     2
 73
     2
 90
        0
 40
-0.6
 41
-30.0
 62
     5
 63
     7
 74
     2
 91
        2
 64
     7
 65
   257
 75
     2
175
     1
 42
40.0
 92
        0
 66
   257
 43
1.0
 76
     1
 77
     6
 78
     2
 67
     7
 79
     3
170
     0
171
     0
290
     0
174
     0
 93
        1
 44
0.0
173
     0
291
     0
 45
0.0
1001
ACAD
1000
AcDbSavedByObjectVersion
1070
     0
  0
VISUALSTYLE
  5
11E
102
{ACAD_XDICTIONARY
360
15F
102
}
102
{ACAD_REACTORS
330
26
102
}
330
26
100
AcDbVisualStyle
  2
JitterOff
 70
    20
 71
     2
 72
     2
 73
     0
 90
        0
 40
-0.6
 41
-30.0
 62
     5
 63
     7
 74
     1
 91
        4
 64
     7
 65
   257
 75
     1
175
     1
 42
1.0
 92
       10
 66
     7
 43
1.0
 76
     1
 77
     6
 78
     2
 67
     7
 79
     5
170
     0
171
     0
290
     0
174
     0
 93
        1
 44
0.0
173
     0
291
     1
 45
0.0
1001
ACAD
1000
AcDbSavedByObjectVersion
1070
     0
  0
VISUALSTYLE
  5
116
102
{ACAD_XDICTIONARY
360
14F
102
}
102
{ACAD_REACTORS
330
26
102
}
330
26
100
AcDbVisualStyle
  2
Linepattern
 70
    14
 71
     2
 72
     2
 73
     0
 90
        0
 40
-0.6
 41
-30.0
 62
     5
 63
     7
 74
     1
 91
        4
 64
     7
 65
   257
 75
     7
175
     7
 42
1.0
 92
        8
 66
     7
 43
1.0
 76
     1
 77
     6
 78
     2
 67
     7
 79
     5
170
     0
171
     0
290
     0
174
     0
 93
        1
 44
0.0
173
     0
291
     1
 45
0.0
1001
ACAD
1000
AcDbSavedByObjectVersion
1070
     0
  0
VISUALSTYLE
  5
11F
102
{ACAD_XDICTIONARY
360
161
102
}
102
{ACAD_REACTORS
330
26
102
}
330
26
100
AcDbVisualStyle
  2
OverhangOff
 70
    21
 71
     2
 72
     2
 73
     0
 90
        0
 40
-0.6
 41
-30.0
 62
     5
 63
     7
 74
     1
 91
        4
 64
     7
 65
   257
 75
     1
175
     1
 42
1.0
 92
        9
 66
     7
 43
1.0
 76
     1
 77
     6
 78
     2
 67
     7
 79
     5
170
     0
171
     0
290
     0
174
     0
 93
        1
 44
0.0
173
     0
291
     1
 45
0.0
1001
ACAD
1000
AcDbSavedByObjectVersion
1070
     0
  0
VISUALSTYLE
  5
46
102
{ACAD_XDICTIONARY
360
137
102
}
102
{ACAD_REACTORS
330
26
102
}
330
26
100
AcDbVisualStyle
  2
Realistic
 70
     8
 71
     2
 72
     2
 73
     0
 90
        2
 40
-0.6
 41
30.0
 62
     5
 63
     7
 74
     0
 91
        0
 64
     7
 65
   257
 75
     1
175
     1
 42
1.0
 92
        8
 66
   257
 43
1.0
 76
     1
 77
     6
 78
     2
 67
     7
 79
     3
170
     0
171
     0
290
     0
174
     0
 93
       13
 44
0.0
173
     0
291
     0
 45
0.0
1001
ACAD
1000
AcDbSavedByObjectVersion
1070
     0
  0
VISUALSTYLE
  5
11D
102
{ACAD_XDICTIONARY
360
15D
102
}
102
{ACAD_REACTORS
330
26
102
}
330
26
100
AcDbVisualStyle
  2
Shaded
 70
    27
 71
     2
 72
     2
 73
     1
 90
        2
 40
-0.6
 41
30.0
 62
     5
 63
     7
 74
     0
 91
        4
 64
     7
 65
   257
 75
     1
175
     1
 42
1.0
 92
        8
 66
   257
 43
1.0
 76
     1
 77
     6
 78
     2
 67
     8
 79
     3
170
     0
171
     0
290
     0
174
     0
 93
        5
 44
0.0
173
     0
291
     0
 45
0.0
1001
ACAD
1000
AcDbSavedByObjectVersion
1070
     0
  0
VISUALSTYLE
  5
11C
102
{ACAD_XDICTIONARY
360
15B
102
}
102
{ACAD_REACTORS
330
26
102
}
330
26
100
AcDbVisualStyle
  2
Shaded with edges
 70
    26
 71
     2
 72
     2
 73
     1
 90
        2
 40
-0.6
 41
30.0
 62
     5
 63
     7
 74
     1
 91
       10
 64
     7
 65
   257
 75
     2
175
     1
 42
1.0
 92
        8
 66
   257
 43
1.0
 76
     1
 77
     6
 78
     2
 67
     7
 79
     3
170
     0
171
     0
290
     0
174
     0
 93
        5
 44
0.0
173
     0
291
     0
 45
0.0
1001
ACAD
1000
AcDbSavedByObjectVersion
1070
     0
  0
VISUALSTYLE
  5
119
102
{ACAD_XDICTIONARY
360
155
102
}
102
{ACAD_REACTORS
330
26
102
}
330
26
100
AcDbVisualStyle
  2
Shades of Gray
 70
    23
 71
     2
 72
     2
 73
     3
 90
        0
 40
-0.6
 41
-30.0
 62
     5
 63
     7
 74
     2
 91
        2
 64
     7
 65
     7
 75
     1
175
     1
 42
40.0
 92
        8
 66
     7
 43
1.0
 76
     1
 77
     6
 78
     2
 67
     7
 79
     3
170
     0
171
     0
290
     0
174
     0
 93
        1
 44
0.0
173
     0
291
     0
 45
0.0
1001
ACAD
1000
AcDbSavedByObjectVersion
1070
     0
  0
VISUALSTYLE
  5
11A
102
{ACAD_XDICTIONARY
360
157
102
}
102
{ACAD_REACTORS
330
26
102
}
330
26
100
AcDbVisualStyle
  2
Sketchy
 70
    24
 71
     1
 72
     2
 73
     2
 90
        0
 40
-0.6
 41
-30.0
 62
     5
 63
     7
 74
     2
 91
        2
 64
     7
 65
     7
 75
     1
175
     1
 42
40.0
 92
       11
 66
     7
 43
1.0
 76
     1
 77
     6
 78
     2
 67
     7
 79
     6
170
     0
171
     0
290
     0
174
     0
 93
        1
 44
0.0
173
     0
291
     0
 45
0.0
1001
ACAD
1000
AcDbSavedByObjectVersion
1070
     0
  0
VISUALSTYLE
  5
115
102
{ACAD_XDICTIONARY
360
14D
102
}
102
{ACAD_REACTORS
330
26
102
}
330
26
100
AcDbVisualStyle
  2
Thicken
 70
    13
 71
     2
 72
     2
 73
     0
 90
        0
 40
-0.6
 41
-30.0
 62
     5
 63
     7
 74
     1
 91
        4
 64
     7
 65
   257
 75
     1
175
     1
 42
1.0
 92
       12
 66
     7
 43
1.0
 76
     1
 77
     6
 78
     2
 67
     7
 79
     5
170
     0
171
     0
290
     0
174
     0
 93
        1
 44
0.0
173
     0
291
     1
 45
0.0
1001
ACAD
1000
AcDbSavedByObjectVersion
1070
     0
  0
VISUALSTYLE
  5
47
102
{ACAD_XDICTIONARY
360
139
102
}
102
{ACAD_REACTORS
330
26
102
}
330
26
100
AcDbVisualStyle
  2
Wireframe
 70
     5
 71
     0
 72
     2
 73
     0
 90
        0
 40
-0.6
 41
-30.0
 62
     5
 63
     7
 74
     1
 91
        4
 64
     7
 65
   257
 75
     1
175
     1
 42
1.0
 92
        0
 66
   257
 43
1.0
 76
     1
 77
     6
 78
     2
 67
     7
 79
     3
170
     0
171
     0
290
     0
174
     0
 93
        1
 44
0.0
173
     0
291
     0
 45
0.0
1001
ACAD
1000
AcDbSavedByObjectVersion
1070
     0
  0
VISUALSTYLE
  5
11B
102
{ACAD_XDICTIONARY
360
159
102
}
102
{ACAD_REACTORS
330
26
102
}
330
26
100
AcDbVisualStyle
  2
X-Ray
 70
    25
 71
     2
 72
     2
 73
     1
 90
        1
 40
0.5
 41
-30.0
 62
     5
 63
     7
 74
     1
 91
        0
 64
     7
 65
   257
 75
     1
175
     1
 42
1.0
 92
        8
 66
     7
 43
1.0
 76
     1
 77
     6
 78
     2
 67
     7
 79
     3
170
     0
171
     0
290
     0
174
     0
 93
       13
 44
0.0
173
     0
291
     0
 45
0.0
1001
ACAD
1000
AcDbSavedByObjectVersion
1070
     0
  0
DICTIONARYVAR
  5
102
102
{ACAD_REACTORS
330
FE
102
}
330
FE
100
DictionaryVariables
280
     0
  1
1:1
  0
DICTIONARYVAR
  5
100
102
{ACAD_REACTORS
330
FE
102
}
330
FE
100
DictionaryVariables
280
     0
  1
STANDARD
  0
DICTIONARYVAR
  5
FF
102
{ACAD_REACTORS
330
FE
102
}
330
FE
100
DictionaryVariables
280
     0
  1
STANDARD
  0
DICTIONARYVAR
  5
109
102
{ACAD_REACTORS
330
FE
102
}
330
FE
100
DictionaryVariables
280
     0
  1
1
  0
DICTIONARYVAR
  5
108
102
{ACAD_REACTORS
330
FE
102
}
330
FE
100
DictionaryVariables
280
     0
  1
1
  0
DICTIONARYVAR
  5
107
102
{ACAD_REACTORS
330
FE
102
}
330
FE
100
DictionaryVariables
280
     0
  1
0
  0
DICTIONARYVAR
  5
104
102
{ACAD_REACTORS
330
FE
102
}
330
FE
100
DictionaryVariables
280
     0
  1
0
  0
DICTIONARYVAR
  5
105
102
{ACAD_REACTORS
330
FE
102
}
330
FE
100
DictionaryVariables
280
     0
  1
0
  0
DICTIONARYVAR
  5
103
102
{ACAD_REACTORS
330
FE
102
}
330
FE
100
DictionaryVariables
280
     0
  1
2
  0
DICTIONARYVAR
  5
101
102
{ACAD_REACTORS
330
FE
102
}
330
FE
100
DictionaryVariables
280
     0
  1
1
  0
DICTIONARYVAR
  5
106
102
{ACAD_REACTORS
330
FE
102
}
330
FE
100
DictionaryVariables
280
     0
  1
127
  0
DICTIONARYVAR
  5
127
102
{ACAD_REACTORS
330
FE
102
}
330
FE
100
DictionaryVariables
280
     0
  1
2
  0
DICTIONARY
  5
130
330
19
100
AcDbDictionary
280
     1
281
     1
  3
ACAD_XREC_ROUNDTRIP
360
131
  0
DICTIONARY
  5
12E
330
14
100
AcDbDictionary
280
     1
281
     1
  3
ACAD_XREC_ROUNDTRIP
360
12F
  0
DICTIONARY
  5
39
330
38
100
AcDbDictionary
280
     1
281
     1
  3
ACAD_XREC_ROUNDTRIP
360
135
  3
BUMPTILE
360
3A
  3
DIFFUSETILE
360
3B
  3
OPACITYTILE
360
3C
  3
REFLECTIONTILE
360
3D
  3
REFRACTIONTILE
360
3E
  3
SPECULARTILE
360
3F
  0
DICTIONARY
  5
30
330
2F
100
AcDbDictionary
280
     1
281
     1
  3
ACAD_XREC_ROUNDTRIP
360
134
  3
BUMPTILE
360
31
  3
DIFFUSETILE
360
32
  3
FBXASSET
360
33
  3
OPACITYTILE
360
34
  3
REFLECTIONTILE
360
35
  3
REFRACTIONTILE
360
36
  3
SPECULARTILE
360
37
  0
DICTIONARY
  5
A
330
8
100
AcDbDictionary
280
     1
281
     1
  3
ACAD_XREC_ROUNDTRIP
360
12D
  3
BUMPTILE
360
B
  3
DIFFUSETILE
360
C
  3
FBXASSET
360
D
  3
OPACITYTILE
360
E
  3
REFLECTIONTILE
360
F
  3
REFRACTIONTILE
360
10
  3
SPECULARTILE
360
11
  0
DICTIONARY
  5
129
330
121
100
AcDbDictionary
280
     1
281
     1
  3
ACAD_XREC_ROUNDTRIP
360
12A
  0
DICTIONARY
  5
ED
330
45
100
AcDbDictionary
280
     1
281
     1
  3
ACAD_ROUNDTRIP_2008_TABLESTYLE_CELLSTYLEMAP
360
128
  3
ACAD_XREC_ROUNDTRIP
360
136
  0
DICTIONARY
  5
132
330
25
100
AcDbDictionary
280
     1
281
     1
  3
ACAD_XREC_ROUNDTRIP
360
133
  0
DICTIONARY
  5
143
330
110
100
AcDbDictionary
280
     1
281
     1
  3
ACAD_XREC_ROUNDTRIP
360
144
  0
DICTIONARY
  5
14B
330
114
100
AcDbDictionary
280
     1
281
     1
  3
ACAD_XREC_ROUNDTRIP
360
14C
  0
DICTIONARY
  5
153
330
118
100
AcDbDictionary
280
     1
281
     1
  3
ACAD_XREC_ROUNDTRIP
360
154
  0
DICTIONARY
  5
147
330
112
100
AcDbDictionary
280
     1
281
     1
  3
ACAD_XREC_ROUNDTRIP
360
148
  0
DICTIONARY
  5
149
330
113
100
AcDbDictionary
280
     1
281
     1
  3
ACAD_XREC_ROUNDTRIP
360
14A
  0
DICTIONARY
  5
163
330
120
100
AcDbDictionary
280
     1
281
     1
  3
ACAD_XREC_ROUNDTRIP
360
164
  0
DICTIONARY
  5
151
330
117
100
AcDbDictionary
280
     1
281
     1
  3
ACAD_XREC_ROUNDTRIP
360
152
  0
DICTIONARY
  5
13B
330
10C
100
AcDbDictionary
280
     1
281
     1
  3
ACAD_XREC_ROUNDTRIP
360
13C
  0
DICTIONARY
  5
13D
330
10D
100
AcDbDictionary
280
     1
281
     1
  3
ACAD_XREC_ROUNDTRIP
360
13E
  0
DICTIONARY
  5
13F
330
10E
100
AcDbDictionary
280
     1
281
     1
  3
ACAD_XREC_ROUNDTRIP
360
140
  0
DICTIONARY
  5
141
330
10F
100
AcDbDictionary
280
     1
281
     1
  3
ACAD_XREC_ROUNDTRIP
360
142
  0
DICTIONARY
  5
145
330
111
100
AcDbDictionary
280
     1
281
     1
  3
ACAD_XREC_ROUNDTRIP
360
146
  0
DICTIONARY
  5
15F
330
11E
100
AcDbDictionary
280
     1
281
     1
  3
ACAD_XREC_ROUNDTRIP
360
160
  0
DICTIONARY
  5
14F
330
116
100
AcDbDictionary
280
     1
281
     1
  3
ACAD_XREC_ROUNDTRIP
360
150
  0
DICTIONARY
  5
161
330
11F
100
AcDbDictionary
280
     1
281
     1
  3
ACAD_XREC_ROUNDTRIP
360
162
  0
DICTIONARY
  5
137
330
46
100
AcDbDictionary
280
     1
281
     1
  3
ACAD_XREC_ROUNDTRIP
360
138
  0
DICTIONARY
  5
15D
330
11D
100
AcDbDictionary
280
     1
281
     1
  3
ACAD_XREC_ROUNDTRIP
360
15E
  0
DICTIONARY
  5
15B
330
11C
100
AcDbDictionary
280
     1
281
     1
  3
ACAD_XREC_ROUNDTRIP
360
15C
  0
DICTIONARY
  5
155
330
119
100
AcDbDictionary
280
     1
281
     1
  3
ACAD_XREC_ROUNDTRIP
360
156
  0
DICTIONARY
  5
157
330
11A
100
AcDbDictionary
280
     1
281
     1
  3
ACAD_XREC_ROUNDTRIP
360
158
  0
DICTIONARY
  5
14D
330
115
100
AcDbDictionary
280
     1
281
     1
  3
ACAD_XREC_ROUNDTRIP
360
14E
  0
DICTIONARY
  5
139
330
47
100
AcDbDictionary
280
     1
281
     1
  3
ACAD_XREC_ROUNDTRIP
360
13A
  0
DICTIONARY
  5
159
330
11B
100
AcDbDictionary
280
     1
281
     1
  3
ACAD_XREC_ROUNDTRIP
360
15A
  0
XRECORD
  5
131
102
{ACAD_REACTORS
330
130
102
}
330
130
100
AcDbXrecord
280
     1
102
SHADEPLOT
 70
     0
102
SHADEPLOTRESLEVEL
 70
     2
102
SHADEPLOTCUSTOMDPI
 70
   300
  0
XRECORD
  5
12F
102
{ACAD_REACTORS
330
12E
102
}
330
12E
100
AcDbXrecord
280
     1
102
SHADEPLOT
 70
     0
102
SHADEPLOTRESLEVEL
 70
     2
102
SHADEPLOTCUSTOMDPI
 70
   300
  0
XRECORD
  5
135
102
{ACAD_REACTORS
330
39
102
}
330
39
100
AcDbXrecord
280
     1
102
MATERIAL
148
0.0
149
0.0
149
0.0
 93
        0
 94
      127
282
     0
 72
     0
 77
     0
171
     0
175
     0
179
     0
273
     0
  0
XRECORD
  5
3A
102
{ACAD_REACTORS
330
39
102
}
330
39
100
AcDbXrecord
280
     1
270
     1
271
     1
  0
XRECORD
  5
3B
102
{ACAD_REACTORS
330
39
102
}
330
39
100
AcDbXrecord
280
     1
270
     1
271
     1
  0
XRECORD
  5
3C
102
{ACAD_REACTORS
330
39
102
}
330
39
100
AcDbXrecord
280
     1
270
     1
271
     1
  0
XRECORD
  5
3D
102
{ACAD_REACTORS
330
39
102
}
330
39
100
AcDbXrecord
280
     1
270
     1
271
     1
  0
XRECORD
  5
3E
102
{ACAD_REACTORS
330
39
102
}
330
39
100
AcDbXrecord
280
     1
270
     1
271
     1
  0
XRECORD
  5
3F
102
{ACAD_REACTORS
330
39
102
}
330
39
100
AcDbXrecord
280
     1
270
     1
271
     1
  0
XRECORD
  5
134
102
{ACAD_REACTORS
330
30
102
}
330
30
100
AcDbXrecord
280
     1
102
MATERIAL
148
0.0
149
0.0
149
0.0
 93
        0
 94
      127
282
     0
 72
     0
 77
     0
171
     0
175
     0
179
     0
273
     0
  0
XRECORD
  5
31
102
{ACAD_REACTORS
330
30
102
}
330
30
100
AcDbXrecord
280
     1
270
     1
271
     1
  0
XRECORD
  5
32
102
{ACAD_REACTORS
330
30
102
}
330
30
100
AcDbXrecord
280
     1
270
     1
271
     1
  0
XRECORD
  5
33
102
{ACAD_REACTORS
330
30
102
}
330
30
100
AcDbXrecord
280
     1
 70
     1
 90
1959938040
 71
     1
  1
8D0AA673-488A-4996-A42E-D2433DE89B86
311
504B03040A0000080000EC7D09433DEE336E79000000790000001B0000006175746F6465736B2D64657369676E2D7061636B6167652E786D6C3C3F786D6C2076657273696F6E3D22312E302220656E636F64696E673D227574662D3822203F3E3C666F726D6174733E3C666F726D61743E687474703A2F2F736368656D612E
311
6175746F6465736B2E636F6D2F64657369676E2D7061636B6167652F323030393C2F666F726D61743E3C2F666F726D6174733E504B0304140006080800EC7D0943D486FD9CA0000000F4000000130000005B436F6E74656E745F54797065735D2E786D6C7D8EC10E82300C865F65E91D8A1E8C310C0EEA1BF002731658846E
311
D98AC1B77784ABF1D8FE5FBFBF75BBCE937A534CCEB38643598122B6FEE978D0B0485F9C41B54DDD7D022595594E1A469170414C76A4D9A4D207E29CF43ECE46F218070CC6BECC4078ACAA135ACF422C856C0E68EA1BF5669944DDD7BCDE7B1F8E415D77AECB980613C2E4AC91FC167A2B244592486606FC29C8FD7F045B9A
311
EF7053A7E60B504B0304140006080800EC7D094372FA9B78E90000007C01000008000000636F72652E786D6C8D505B6EC32010BC0ADA7F6CFC6AB0858992A63E412F80803828315806A21CBF3871A4F6AF5F3B3B3BB3BB1AB67F4C3774D78B37CEF650640490B6D22963C71E6238630A68CFD9E25CF8250364C5A47B5869E0
311
6C5C5C9C374A3A1BB40D89B54EE98D14DEEB0048DE12E8C1CB8B9E442662480A7FCD6621AF62D459F146C91CA351E875C4A8B4CF9C8D5E80D3BAADDAE670C4C7533DE07A97D0E1930E78A8DA8FB6A1E4F4454B96AF66CE8299DEF7E5A245D00A78498A0A138A49FB5D345DBDEBCA26B51D212C5FE57F4C7156FF3445634355
311
6EEFBE6C1E78911E790E38CBD72C52790695EA9A1BFF01504B0304140006080800EC7D094355019EA25F0000007C00000007000000636E782E786D6C4DCB3B0E80201045D1AD90E915ED2CF8AC45050C11660C8261F98AB1B07AC9C97D42D718D865D3E909258CFD00CCE24AC6E326A164D74DC0B4128928FF326038472BA1
311
3128B1252AC747C6BAB984FC68F0B87FE8960A5C09FE86CFB69FBA01504B0304140006080800EC7D0943FC2FF1A866010000020300000C0000006662782F636F72652E786D6C8D52ED8E8230107C95A6FFA17C9E604A8D9EE713DC0B54A85C23B4A4B4C4C7BFE5C3705E8C312465D9D9D99D1D4A77B7B6418330BDD4AAC0A1
311
1F602454A92BA9EA023B7BF1328C768C1AADED9F328C146F4581C73466B436DA754BAAD4CA0A6521AB74259624EF7B61312A1B080ADC973FA2E53E77162AFAABDFF1F2CA6BE1873EC050C7686F0D0840F390F1C4EC72BE5132E719754E560B2A2B98262F5218CCB2248FF3747FF00EC7E4E4251B88F69FD9C93BC5F9479E66
311
C1F12B8B2819C98C5AD9DED59546702B2ACCA2208CBD20F382FC3B4CB7C9661BA5F0B90D024AC6F20792EBAA37494E2A1B478BDC99D66316829009F8B72D586451CF07D0431825A389F09A1C7E341A0C01932D3F37F73DAE901A4469B54900A9B45BA181374EC0D4004D0F25330A9DA706B0D9D33ED18B3EAF7BC00FE4AA06
311
69DC427876769C4EE7A98B159D30DE606F4869D3F26615374B5CCF75D0537AA91B6DDE61936555B29849C6DBCB7E01504B0304140006080800EC7D094373FE5E7A7D0000009D0000000B0000006662782F636E782E786D6C4DCCD10AC2201805E05791FFDE36512B411D26ED3D467343DA7498468F9F8B5D74750E1F8723BB
311
CFBAA0B74B2F1F8302726A01B9F088A30FB38292277C05D4699962CC7F334061589D829D41CB39C5B21D34BA69284BAEBAF8F03CD0929E50630436777EC38C32529B3863CE85A0C2DAFEC25A68B46C7E4F35F763FD05504B0304140006080800EC7D0943288B28942B01000015020000310000006662782F43314631334141
311
392D414535422D343334312D414539362D3535393933394343463734302F636F72652E786D6C8D51CB6EC23010FC15CB277A4862930718394614952FE80F18DB500B62477E547C7E374D90DA1B17EF7A776676B4CBF78FE18EBE4D88D6BB1ED39260649CF2DABA6B8F73BA145B8CF68207EFD31F18464E0EA6C753190B7E0D
311
3E8F4B4979978C4B50755E9BA528633409237587A4C7517D994196322740C45B394A75935753D212DA80133CA60006D03C647AB138D213AD0F07561C3EDAF7A2A91B0A19EB8AB665AC66C7E369D3105ECD44C173B67AA15B0D76ECC59AF0AAC844163CD9E1695F052393D158AC09AD0BB22D08FBA4EDAED9ECD62D7C770426
311
4FF07FA43CEA1749D9BA54AF17BB332D624179353704D73E9FEF4F33E631FA90D0346F158D7AC38294846CB61DA959C7AB190B1B00D1AE594463F20136BCBA9D014EDB59B96B04AFA62341F8BD20C4E9A0E207504B0304140006080800EC7D0943AFD0F1AB4D01000033030000300000006662782F43314631334141392D41
311
4535422D343334312D414539362D3535393933394343463734302F636E782E786D6CD593CD6EC23010845FC5F23D7F1028458E917AE813F4D0AB632FC5C5B123FF54E5EDBB0643B970E8B1172B99FD3CB31A256CF73D19F2053E686707DAD52D2560A553DA7E0C34C57DB5A164C799772EDE61945831C140B34C39FBF02ECD
311
4552B017C944548DB6C7227A082E790901E57C931827854103B0554211A6119402456E203EEDC1E32A288E27120F405E5FDE891B3F41C6C09AECC259933338CB6749BA832891468430D0200F30895AA4E8148463AD441475575FB31EECF4EB44F2856B64F29AE4F081E693F2B2518D3DB206879C85E8B1BD02C5D30C948B79
311
365A8A88253767F0C27096B48DEBBEB01A8BF74877EB65DFA3D979C659D41314427A101114E58BB65B56EDA66A9FDFBAD5B67FDA2E56F8BA6D5BD6649CB3D139532EA10D783713E96C041B29EF5893C78FEA2B1C51DA63D7CE9FFE50241650522FEDDC3CFE733FCDF9FBC6BA3CFE05FC07504B0304140006080800EC7D0943
311
ACC264AAA405000081100000340000006662782F43314631334141392D414535422D343334312D414539362D3535393933394343463734302F6F626A656374732E786D6CAD57D96EDB3814FD1541F332F360CB5B537BA0A870ECA430DAB4458D16F360C0A0254AE1845A405289335F3F8722254BAE9D7A067DD1C2E5F2DE73
311
CF5DE8BFDBA7DC79A242B23CBB7687FD81EBD02CCC239625D76EA9E2DED475DE05BEC873D55AE63A1949E9B5AB87DDC04F445E167628A23129B93A1ABDBBF9CB9121CDA8EB849C4879EDCAF081A6A44F4A9547543EF623A2483F89F7FD61DF2CEC8A4D04291E8E841644D04C41538C6790E218A586DDDF81EB05BEA7E7035F
311
3FEDAAF1F9555E654FF77C964945B2F087C38EC48C8793E5EDE8CDACF7663219F72657A361EFE6EE66D91BBE1D0F16578BC56C7E3BC3C1520948B29A081ABBC17B602358E87B662AF04B96A9F1C82EB10EF2047D62DA536E307286BE67D634D659234FA91FE65946C30A2BA051D9674547B4A059049F332AA1590BA141F777
311
A8716C4D8FF5BF3DB23D7C1902ED1D2D41B5EEF5BBAD69BEFB1B26C84B182424D50C34585A430D570707847779CEED1C934E4A14158C7087B39D20E2C50DB0542F09FC8E18CD64A1A3415BE006F08299EED20561F4739E9FD2322E39D73476832A0AB68815AA64A519FB878A83F66D64A0137CA5D930B506A99782BAC1CC50
311
647AC42603A4137392C0E53053EF1C8F8E0C5DE8385D2DDDE0C3DD6EBFD6B17BFAF042E405154AD307D4AA1D57BF354A56A7E1459ED31BDC23550EA07C05F29F10EA0755E037C1F693FDC49EA204C9649C8B14BE71064E6F80C7C019564FFDDDFAF2BD6673D77BE7F084B33554BF00CFAE0D6D5FB6E00CFC27103E17636BDA
311
3A241C69E39E65004893C4E139869087E3DDDE0D56C872C8CAD845783084C950F7099FBE67C520515427B5DE19B03C4A8B172468C05631126A18F25B050F7EFA219D5507DB65E7E07DF34BE83A5FAE3FAC4B119390DEDB985ED298654CA1C41D78D356A88379C7A247FAF29C8B0886FE88F7BA8D776A8F92405B63AE814FEA
311
9CAE7F0E27770E08B12FC975BAF17F72028CD085B525FF9EC990724E329A97F5B9AFD60F940D03B10E76CDE4A6C01C0A0B4863668E6210453A14ACD02036D5AA499AFD33D67D5B7D0223DDE0E6E523796967AFDD21F78639CFC576F7B23569E924D4DFBBDCB618785A0AE85E05491DFF16F46DC4E2B89448822770FDBE5AB4
311
7DA7D30252442DD544CB04F623B888B0A4ADE5A25A0B824A9A675B86BA89B83B79405B3E20B50CA8049ED358521E6F19E765BA8D194735DAA6A43803C7FFD77F57A6C596A47999A933B23BAAA33A7475EFB0573E13153EB8C1BA7AF76E907B231A9D2183AE2527B0EAB876BA1CCCE7576FD13A4DA7F3DE6436BBEACD27A3DB
311
DE7234198F97B7D3D9CDF4AAF693D124F0EB52D38E687809A5CD2F05B3EEFBB642FCD824E006F744C9CD7B139EF5FBDBAA8F5ED8F7B007F5B2D9388F9ED0F7D1E8E7020E2B4F0A5AA505A729CD14D13174AF3FF857823EA3A38C195FA524A11748F9FC7E7D640C462ED8F745C73B7D3EDA6B47173A204F0A510F65BACB08E3
311
471B138364BFC8128B5FED93E66D0A4DFDABFFAC63D099CA9CB308793072129AA754211B5E5084444A25A8D7EEE9237BF7B860F793E91015D9715A6BF240D0247389B000B5CA5075C79DDFD0D4E9BEEADA45B9ED3FE2613385EB8033D72E9A74C5422AFB3B1468DD0A55C2C1A576278FC69F640947AF6D3635FFCD2E8D4DA7
311
24374B2EE99FAC5D26855B0390460AF40D6888E09D4A99C0AF74B3F3E17F32BC56C7210A9FBB5235B61C061A63AA6310A2C6287B5B4013F3688FDE23505F376BD8AFD67410B9E896F52A098CD49E2222A96E0A5A3FABD27CF9C54387E2AC3E3B052F13F8F272493D4141E652073858045658990551A0EAE2CFCD1791E3269B
311
3A770C14707EDF4FAFFED82CF234CD3333B499DBFBB0B37EC0ED36DA2039507D2D919BD16038DA54D7017B43D9EE88A47D12C9470CC0B382354077DC0F5E9A3B23EA909968D679DA15470C5D2D1D5BD826106AE9D2CEAD1A1C341E19751043FA4AA923A6BDA078F546E0554BA182402F1FFC0B504B0304140006080000EC7D
311
0943000000000000000000000000350000006662782F43314631334141392D414535422D343334312D414539362D3535393933394343463734302F76657274696365732E62696E504B0304140006080800EC7D0943F270F1330600000004000000360000006662782F43314631334141392D414535422D343334312D414539
311
362D3535393933394343463734302F747269616E676C65732E62696E636660600000504B0304140006080000EC7D0943000000000000000000000000370000006662782F43314631334141392D414535422D343334312D414539362D3535393933394343463734302F617474726962757465732E62696E504B030414000608
311
0800EC7D0943D5987DFC8F00000041010000360000006662782F43314631334141392D414535422D343334312D414539362D3535393933394343463734302F6469726563746F72792E786D6C858F410EC2201045AF4266AF15DDB800BA74E7C21B903225242D6328188F2FA5C4183471359997F9FF81E89FF3C41E1816475E
311
02DF1F80A11FC8386F25A438EECEC07A250251FC3803E6F58C12560C4AD840E95E91C151A72936F496F35732D860FE635F62C8F2DA16B505C545B74125BAA2FA9E05D7CC053D063734D5C7665FD55B6B8D15D5E9BFEAFD8490FFA45E504B0304140006080800EC7D09431A10C649FC000000A00100003B0000006662782F43
311
314631334141392D414535422D343334312D414539362D3535393933394343463734302F7265736F75726365732F636F72652E786D6C8D50596E833010BD0A9A7F83D91A40C61169CA097A01CB4CA89560232F558F5F13A8D4FEF5C7E3798BE6E9B1F3D7F2483ED13A65740F794A21412DCDA4F4DC43F037D24072E6CC1AE3
311
7FC920D162C11E3618389BAD09EB0149A33D6A1F516D263C40E11C7A48E4237E7A70F20317918AE0A3C2DDD355C8BB9831CDD348471D67CEDB1820D98F6C2F708BCE042BD1B16C67390B414D87464DF1A6BA29B4C09BAA2DDB7A18C8E55A8DA43A0D1732BC362319CBF6A5AD1B7A7D6B0A966D66CEBC5A7E324A8BC2E304BC
311
A07949684368FB9ED75D75EA8A3AAE1DA52CDBE47F4C619DFE690A4AFBB238E2EE36073C8F419E0467D9D6571CCF32E3DCBAE5DF504B010214000A0000080000EC7D09433DEE336E79000000790000001B00000000000000000000000000000000006175746F6465736B2D64657369676E2D7061636B6167652E786D6C504B
311
01021400140006080800EC7D0943D486FD9CA0000000F40000001300000000000000000000000000B20000005B436F6E74656E745F54797065735D2E786D6C504B01021400140006080800EC7D094372FA9B78E90000007C010000080000000000000000000000000083010000636F72652E786D6C504B0102140014000608
311
0800EC7D094355019EA25F0000007C000000070000000000000000000000000092020000636E782E786D6C504B01021400140006080800EC7D0943FC2FF1A866010000020300000C00000000000000000000000000160300006662782F636F72652E786D6C504B01021400140006080800EC7D094373FE5E7A7D0000009D00
311
00000B00000000000000000000000000A60400006662782F636E782E786D6C504B01021400140006080800EC7D0943288B28942B0100001502000031000000000000000000000000004C0500006662782F43314631334141392D414535422D343334312D414539362D3535393933394343463734302F636F72652E786D6C50
311
4B01021400140006080800EC7D0943AFD0F1AB4D010000330300003000000000000000000000000000C60600006662782F43314631334141392D414535422D343334312D414539362D3535393933394343463734302F636E782E786D6C504B01021400140006080800EC7D0943ACC264AAA405000081100000340000000000
311
0000000000000000610800006662782F43314631334141392D414535422D343334312D414539362D3535393933394343463734302F6F626A656374732E786D6C504B01021400140006080000EC7D09430000000000000000000000003500000000000000000000000000570E00006662782F43314631334141392D41453542
311
2D343334312D414539362D3535393933394343463734302F76657274696365732E62696E504B01021400140006080800EC7D0943F270F13306000000040000003600000000000000000000000000AA0E00006662782F43314631334141392D414535422D343334312D414539362D3535393933394343463734302F74726961
311
6E676C65732E62696E504B01021400140006080000EC7D09430000000000000000000000003700000000000000000000000000040F00006662782F43314631334141392D414535422D343334312D414539362D3535393933394343463734302F617474726962757465732E62696E504B01021400140006080800EC7D0943D5
311
987DFC8F000000410100003600000000000000000000000000590F00006662782F43314631334141392D414535422D343334312D414539362D3535393933394343463734302F6469726563746F72792E786D6C504B01021400140006080800EC7D09431A10C649FC000000A00100003B000000000000000000000000003C10
311
00006662782F43314631334141392D414535422D343334312D414539362D3535393933394343463734302F7265736F75726365732F636F72652E786D6C504B0506000000000E000E0080040000911100000000
310
504B03040A0000080000EC7D09433DEE336E79000000790000001B0000006175746F6465736B2D64657369676E2D7061636B6167652E786D6C3C3F786D6C2076657273696F6E3D22312E302220656E636F64696E673D227574662D3822203F3E3C666F726D6174733E3C666F726D61743E687474703A2F2F736368656D612E
310
6175746F6465736B2E636F6D2F64657369676E2D7061636B6167652F323030393C2F666F726D61743E3C2F666F726D6174733E504B0304140006080800EC7D0943D486FD9CA0000000F4000000130000005B436F6E74656E745F54797065735D2E786D6C7D8EC10E82300C865F65E91D8A1E8C310C0EEA1BF002731658846E
310
D98AC1B77784ABF1D8FE5FBFBF75BBCE937A534CCEB38643598122B6FEE978D0B0485F9C41B54DDD7D022595594E1A469170414C76A4D9A4D207E29CF43ECE46F218070CC6BECC4078ACAA135ACF422C856C0E68EA1BF5669944DDD7BCDE7B1F8E415D77AECB980613C2E4AC91FC167A2B244592486606FC29C8FD7F045B9A
310
EF7053A7E60B504B0304140006080800EC7D09430FE30DBCE90000007C01000008000000636F72652E786D6C8D904D6EC3201085AF82668F0DFE0BB13051E53427E8051010172506CB40D5E317278ED4EEBA9AE1F1BE99D1E3A7EFF98EBECC1AAC7703D08200324E796DDD34408A57CC009D045FBD8FBF6C809C9CCD009B0C
310
824FAB4FCB2E29EFA27131ABCE6BB38B32041301A97B6E0608EAD3CCB290296647B8158B5437399982BEBA0CA764357A2EB13ACFB3576B561007DA3597B6697045588D9BF399E263DDBDE1B11D59C7E8FB855D465E6EB0E0D1CEAFFD6A35321A0DA222B4C6846172FCA06DDF1CFAAACDCF9E105E6EF63F505AF43FA1645DAC
310
ABFDDC271640D07CC8E343F072CB22974750B96EB9891F504B0304140006080800EC7D094355019EA25F0000007C00000007000000636E782E786D6C4DCB3B0E80201045D1AD90E915ED2CF8AC45050C11660C8261F98AB1B07AC9C97D42D718D865D3E909258CFD00CCE24AC6E326A164D74DC0B4128928FF326038472BA1
310
3128B1252AC747C6BAB984FC68F0B87FE8960A5C09FE86CFB69FBA01504B0304140006080800EC7D0943CEA22C1F66010000020300000C0000006662782F636F72652E786D6C8D525B6E833010BC8AE57F30E691D0C838AA92E604BD80030E45011BF98172FC2E8F88A68AA20809CCCECECEEC00DBDFBA160DD2D846AB02D3
310
30C248AA52578DAA0BECDD25C831DA7366B4767FDA3052A293051ECB98B3DA68DF2FA5522B279583AAD2955C8AC25AE9302A5B3814D8963FB213A1F00E3AEC35EC457915B50C690830F471669D0103681619EF985FCE3746E63A67DE37D5823615A83597461ACCB774939EB2340DE2284F82F478A4C147B2F90C0ED921DFE4
310
F4EB949F0E8C8C64CE5CD3DDDD95460A272BCCE38826419407D1C737CD76E9761767F0BA8B2246C6F60792EFAB3749BE512E8917BB33CD624EC1C804FCDB162272C88A01FC10CEC818223CA6841F838640206427CEED7D8F2B9406593A6D52402AED576810AD97A01AA1E962644661F23400367B3A277E31E7F50CF88042D5
310
604D38389EBD1BD5D9ACBA44D14B130CEE8694369D685773B3C5F5BE0A3DA597BAD5E61D365956254B9864FC7BF92F504B0304140006080800EC7D0943EC50406A7E0000009D0000000B0000006662782F636E782E786D6C4DCCDF0A83201C86E15B91DFB9FD5DCE408D9AF33E6259C84C87E9D8E5AF46073BFAE0E1E365DD
310
67B5E8ADC366BCE350660520ED1E7E326EE190E28C29A04EB0E07DFCBB0172E3AA391C0C822DC1A7D749939EC764E3AED6B8E789B427C3BD52121352537C51F28A87A6AF3091B4B8B5B52A65DB402E58FE2BED7B84C517504B0304140006080800EC7D094339BA7AB72B01000015020000310000006662782F384136424532
310
46442D363633382D344644372D423541322D3644383043393346314439352F636F72652E786D6C8D51CB6EC32010FC15C4293D60E367EC08132575F305FD0162931425068B4795CFEF523B527BCB8585616676B4CBF68FE98EBEA575CAE80E6709C548EAC18C4A5F3B1CFC853418ED39B3C6F83F348CB4986487238C39BB5A
310
13E6151A8CF6527B40B519E50A0AE7A4C768B8C3A5C36EF892934844F0C070B76416C34D5C659225F00D3CCE9CB710002D4DE2897973A88F1FF9A927755D34A43CF55B72AC0E39A9FB86BEB7C529EBDB8AA58B90B310D4B8CAD50871D44549FBAA491473E6D5F48C3F5829BC1C31CF695610DA10DA7E66D5AEDCEEF20A9E3B
310
4A591AE9FF44611E5F1405A57D91AF711799C33C63E9F2C1D968C2F9FE0C231FB3B11EC57E1B278737CC69426903D1F2A265E9C2850980695DAEA6CE1B0B13DEDCCE402F56E7BAE42C8D4B82F2BB41A871A1FC07504B0304140006080800EC7D0943C9773EBC5501000033030000300000006662782F38413642453246442D
310
363633382D344644372D423541322D3644383043393346314439352F636E782E786D6CBD93CD6EC32010845F0571F75FE2A46E8489D4439FA0875E316C121A0C16E0AA79FB2E094973C9A152D50BB2678799D5279B6DBF46433EC107ED6C4F9BB2A604AC744ADB7D4FE7B82B3A4AB69C79E7E29D8D122B46E8699229677BEF
310
E6294B0A7662361155A3ED318B1E829BBD848072BA498C93C26000D8624611C6019402456E467CDA81C755501C4E241E80BCBEBC13377C808C81552985B32A757096CEDC7467A2441A11424F833CC0284A3147A7201C4B25A2289BF2DAF560A79F24922E5C2B67AF492AEF693A29CF1B95C8915538E42C448FF4B2299E26A0
310
5C4C93D15244845C9D8D170F67B3B671DD66AF46F01EDDCBC5BAEB30EC3CE32CEA11B2437A101114E58BBA59167557D4CF6FCD6AD33E6D162B7CDDD435AB929DB3C139932F610C783711E96C041B296F5895C68FF0651F51DA236BE74FBF00890072EB85CE2DE32FF934EB65DBFE239FEAFC7D232E8F7F01FF06504B030414
310
0006080800EC7D0943EC005EED640700009A1B0000340000006662782F38413642453246442D363633382D344644372D423541322D3644383043393346314439352F6F626A656374732E786D6CED59DD73A33610FF5718FAD23E181BDB499D0EA1E3C477379E6BDA9BBA77D307CF3032C8448D108C247271FFFAAE3EC0404C
310
827BE95B1F6C4048ABDDDF7E6A097E7ECAA8F388B92039BB767D6FE23A98C57942587AED96723F5AB8CECF61C0F35C36A6B90E4319BE76D5B01B0629CFCBC20E25788F4A2A3BA3EF6FFE74448C19769D982221AE5D11DFE30C79A8947982C583972089BC74FFE4F99E99D8269B7254DC7788168863268153186740C5314CF9
310
EDC7893B0E83B17A1F06EADFCE9A0D9A35EF9F35D652B7B9244C48C4E2672C75C8CC06B134F3E7AB77D38BABD1C57C3E1BCD2FA7FEE8E6FDCD6AE4FF389BDC5EDEDE5E2DDF5D017BBB3CA756A604179825A0BF831BFAC158BDA945B7089CE23ACE19C3B10612A0D2627509122C60AB067C93F6A3AF246ABCD612369EE7EABD
310
65A1313C6B53E99B350C88165D10C46E57495C5D9BF2E5BBBF407031C428B9C012B8159283762D3C1CBCC20D27C1D88C86C1EEA80B229C0C49CC09A20E253B8E382805A6AA296160165832CA3938907294045A73E675DBB6C0335F779D535CEE4B4A9567B8A176AC08DC0F4BA139237F637EE4BE890CF004D29684C985E552
310
1E0AEC8657C1580F8681BACCA6F6A501D2D953940A8D8879DB11F456B9FE7AE5861FDFEF9E362A1C9CDEBCE07981B95446A7F4A8F90243B6578592DDD61FA439B5008431A0DA9547507E07E47F85E8716405F4C6C9D3FC696EE74A8E98D8E73C03DD3813673481BF89E3EB7F75DFB80BC6F5E2B6F6FAF0043755502DBE1DCF
310
B60C1A2BCB7F03CE30780483CFF9CCBEDAC488823DDF110600292371680E4310DAF7BB27375C43E084400FAB100D7D1019D87D84DB606CC91CB552B997F53A0688DA3D66439404B0698B04367AF4F401B20727F1514D4D11FBE0BD7813735DAE361F3725DFA318DF599F5EE13D614442D63CCD500BF396440FF8F035E70908
310
FA1CEF4D13EFCC6E25006D85B9023EAD40500FC79D5B1BC4B02ECD55B8095ED9018450B9BA41FF8E8818538A18CECB6ADF3ABA2943AD3DDED60C6E383510CFA61D13E6F891A8AA029CE638A3C528E4FD98934281E8861F8C6475D0F47AA4FBBCFE152CB29EDF336BCD20F43244FFD041EB040E2DCBAE90B640D402EF8EE13C
310
CE69CEA3DD213291CE855A02D8687BCB97165188F546498A0A7890F6BB2AA4A446DA2821FB7D2920AE9E60F1CBFAB6690E136FE65F38CDFF8E33CE21DA82EF226EFDAEB347443294E2688F92BEED9ABBD5B48526D9439AE33D05B9C823918708C96892E0F41C68CE227EF5A6D4539A0B41181690AF4E82DF4463E2412031DA
310
AC58565AED004D44946189E8390828323DE0EAB4A36BDC184A87D779ACADF7258D3589FE4716C111D492398B0894A290435E65DCF72E2086B4D1352877F0056BAB686B31680925447C88BE6292DECB735037E47B708FE14852CA282F500C663D80EC335F514AEDF0BE43F183CA1F515CD2B7321081E93E22949659043FC2E0
310
E431C4B5EBC0F4220A0DE226F6499C41518664C9876C72793179B68FA919BA21B0B1D19E5008DB51868A1ED45B0151D7234E0DBEA5DEA3D45D991511CAF2920D32146FD6F5264BBEAB56457620BFAA5484B2B1226C09860161B2CEAA55CC0653D78115DC4807AA4324505650730A7B25F1F8B53769CABD1B70EBA76FBB4106
310
855F8FF69A11755EC160796C1506E22B92F1BD1B6EF4757403F577829363AAAF6ACD66050888A9485E726255F4790DE58DADD1DCF00E49B1FD60B26E75FDBCF6A0FB118C610DD42EF5C2B5023AC34C225599DCA91BFA3B8210DCA261C6D72AA79E43659924BA6A44F43DE95367AB8C686D9A11AFB8C72CCFE0C7B684C5B44C
310
F01625E221BA9334DA10C5BA95D2CB4885F18B02FEF661D38107460688F4491578F86B67AD1DBD55E5D24922F2BECC760C1108822DD152A31BAF60A9D548A5E5FAAACE14507781815915CFFF3F5934DB11FF9F2C526B18DF74B2B839FC820ECDBE48239DC7CAAECF3A06D4F94951798B63806E3BD454EB2C6292B995DF3A53
310
0441B18AF283ABB12A6818827D1CFFEBACDD9705CD761DFECFCBDAFEB38AE3ACACD29AACBA54272AD77533872D5693E5F2F247E8CD2E16CBD1FCEAEA72B49C4FDF8D56D3F96CB67AB7B8BA595CD6686A470D833A98E9DC05CF26A855C3EAC962005D59915392C0693E71520C315FC2997E40FB9C675840F26C36BB13DB941F
310
B0FAD1F43925DA515C71728FA0414C05A475C0A88C657BDCF90E5A93120EDAD72E348DBC07F8B356E93A9079AE5D6815481263E1EDA0CDA41A7A9A38A45C9DFB2D31C007B154A544B3A87EAE57296C5AE1BF9E32240D58B95A3D0C28DC0AE87EB53A149A37CB537C96E0153B0E9270BB2B25546B4696E3402D8CDEE6A87E23
310
1B25ECC16EFD04AEFBB258BEA7E7B41019F4C9E0452330544712F154F7BB156396A5E5EAD318FA6CCEFA37A7A0650ABA1C4E69C4311873A90A2AB022B00A4BB340124CF5F6A7ED279EC3279ECCD15591F3FDD3E2F287ED6D9E65393343DB259CCA12F850E46CEEE1B34FB285E201ABE6BAD84E27FE74AB9BDAB6CF1EED90C0
310
9EAA8A60A02A2694201D9303BB7CD6A0B2EDCBB1524567FA7AE5D8200ACD006347CF7ABCE62397033EA43EA7288FD17E5E49FB625F7BACA7824D70E84887FF00504B0304140006080000EC7D0943000000000000000000000000350000006662782F38413642453246442D363633382D344644372D423541322D3644383043
310
393346314439352F76657274696365732E62696E504B0304140006080800EC7D0943F270F1330600000004000000360000006662782F38413642453246442D363633382D344644372D423541322D3644383043393346314439352F747269616E676C65732E62696E636660600000504B0304140006080000EC7D0943000000
310
000000000000000000370000006662782F38413642453246442D363633382D344644372D423541322D3644383043393346314439352F617474726962757465732E62696E504B0304140006080800EC7D0943D5987DFC8F00000041010000360000006662782F38413642453246442D363633382D344644372D423541322D36
310
44383043393346314439352F6469726563746F72792E786D6C858F410EC2201045AF4266AF15DDB800BA74E7C21B903225242D6328188F2FA5C4183471359997F9FF81E89FF3C41E1816475E02DF1F80A11FC8386F25A438EECEC07A250251FC3803E6F58C12560C4AD840E95E91C151A72936F496F35732D860FE635F62C8
310
F2DA16B505C545B74125BAA2FA9E05D7CC053D063734D5C7665FD55B6B8D15D5E9BFEAFD8490FFA45E504B0304140006080800EC7D0943D08DC704FC000000A00100003B0000006662782F38413642453246442D363633382D344644372D423541322D3644383043393346314439352F7265736F75726365732F636F72652E
310
786D6C8D50596EC32010BD0A9A7F6CF092381126AA92FA04BD00C21307258688A5EAF18B63576AFFFAC3306FD13C3D71FA9A1FE4137D30CEF6C00B0604AD76A3B1530F295E6907E42485772EFE9201B16AC61E1618A498BC4BCF0DD2CE46B431A3D68DB8812A048C40F4237F7A08FA86B32A548A5911EEC553E9BB9AB0E045
310
A6B34E8A107D0E40D623CB0BD26370C96B0CA25C59295232E3A63163BE69AE063DC83DDF3543DBD4B4625D4D9BCB85D343BD7BA3E7F6DCED3AFE3E74C359948B598A68E69F8CDAA38A3882AC18AF29EB283B7CF0F6D8EC8F559BD72363A25CE47F4CE939FED3948C8D75B5C55D6D0124CF415E8414E5D2571EAF32F35CBA95
310
DF504B010214000A0000080000EC7D09433DEE336E79000000790000001B00000000000000000000000000000000006175746F6465736B2D64657369676E2D7061636B6167652E786D6C504B01021400140006080800EC7D0943D486FD9CA0000000F40000001300000000000000000000000000B20000005B436F6E74656E
310
745F54797065735D2E786D6C504B01021400140006080800EC7D09430FE30DBCE90000007C010000080000000000000000000000000083010000636F72652E786D6C504B01021400140006080800EC7D094355019EA25F0000007C000000070000000000000000000000000092020000636E782E786D6C504B010214001400
310
06080800EC7D0943CEA22C1F66010000020300000C00000000000000000000000000160300006662782F636F72652E786D6C504B01021400140006080800EC7D0943EC50406A7E0000009D0000000B00000000000000000000000000A60400006662782F636E782E786D6C504B01021400140006080800EC7D094339BA7AB7
310
2B0100001502000031000000000000000000000000004D0500006662782F38413642453246442D363633382D344644372D423541322D3644383043393346314439352F636F72652E786D6C504B01021400140006080800EC7D0943C9773EBC55010000330300003000000000000000000000000000C70600006662782F3841
310
3642453246442D363633382D344644372D423541322D3644383043393346314439352F636E782E786D6C504B01021400140006080800EC7D0943EC005EED640700009A1B000034000000000000000000000000006A0800006662782F38413642453246442D363633382D344644372D423541322D3644383043393346314439
310
352F6F626A656374732E786D6C504B01021400140006080000EC7D09430000000000000000000000003500000000000000000000000000201000006662782F38413642453246442D363633382D344644372D423541322D3644383043393346314439352F76657274696365732E62696E504B01021400140006080800EC7D09
310
43F270F13306000000040000003600000000000000000000000000731000006662782F38413642453246442D363633382D344644372D423541322D3644383043393346314439352F747269616E676C65732E62696E504B01021400140006080000EC7D09430000000000000000000000003700000000000000000000000000
310
CD1000006662782F38413642453246442D363633382D344644372D423541322D3644383043393346314439352F617474726962757465732E62696E504B01021400140006080800EC7D0943D5987DFC8F000000410100003600000000000000000000000000221100006662782F38413642453246442D363633382D34464437
310
2D423541322D3644383043393346314439352F6469726563746F72792E786D6C504B01021400140006080800EC7D0943D08DC704FC000000A00100003B00000000000000000000000000051200006662782F38413642453246442D363633382D344644372D423541322D3644383043393346314439352F7265736F75726365
310
732F636F72652E786D6C504B0506000000000E000E00800400005A1300000000
  0
XRECORD
  5
34
102
{ACAD_REACTORS
330
30
102
}
330
30
100
AcDbXrecord
280
     1
270
     1
271
     1
  0
XRECORD
  5
35
102
{ACAD_REACTORS
330
30
102
}
330
30
100
AcDbXrecord
280
     1
270
     1
271
     1
  0
XRECORD
  5
36
102
{ACAD_REACTORS
330
30
102
}
330
30
100
AcDbXrecord
280
     1
270
     1
271
     1
  0
XRECORD
  5
37
102
{ACAD_REACTORS
330
30
102
}
330
30
100
AcDbXrecord
280
     1
270
     1
271
     1
  0
XRECORD
  5
12D
102
{ACAD_REACTORS
330
A
102
}
330
A
100
AcDbXrecord
280
     1
102
MATERIAL
148
0.0
149
0.0
149
0.0
 93
        0
 94
      127
282
     0
 72
     0
 77
     0
171
     0
175
     0
179
     0
273
     0
  0
XRECORD
  5
B
102
{ACAD_REACTORS
330
A
102
}
330
A
100
AcDbXrecord
280
     1
270
     1
271
     1
  0
XRECORD
  5
C
102
{ACAD_REACTORS
330
A
102
}
330
A
100
AcDbXrecord
280
     1
270
     1
271
     1
  0
XRECORD
  5
D
102
{ACAD_REACTORS
330
A
102
}
330
A
100
AcDbXrecord
280
     1
 70
     1
 90
1959938040
 71
     1
  1
BBF9F5D5-B697-4C97-8F54-449A48600947
311
504B03040A0000080000EC7D09433DEE336E79000000790000001B0000006175746F6465736B2D64657369676E2D7061636B6167652E786D6C3C3F786D6C2076657273696F6E3D22312E302220656E636F64696E673D227574662D3822203F3E3C666F726D6174733E3C666F726D61743E687474703A2F2F736368656D612E
311
6175746F6465736B2E636F6D2F64657369676E2D7061636B6167652F323030393C2F666F726D61743E3C2F666F726D6174733E504B0304140006080800EC7D0943D486FD9CA0000000F4000000130000005B436F6E74656E745F54797065735D2E786D6C7D8EC10E82300C865F65E91D8A1E8C310C0EEA1BF002731658846E
311
D98AC1B77784ABF1D8FE5FBFBF75BBCE937A534CCEB38643598122B6FEE978D0B0485F9C41B54DDD7D022595594E1A469170414C76A4D9A4D207E29CF43ECE46F218070CC6BECC4078ACAA135ACF422C856C0E68EA1BF5669944DDD7BCDE7B1F8E415D77AECB980613C2E4AC91FC167A2B244592486606FC29C8FD7F045B9A
311
EF7053A7E60B504B0304140006080800EC7D0943A52A2C8CE80000007C01000008000000636F72652E786D6C8D90D18E832010457F85CC3B0A2AA91AA431DBF805FB0304A84B5AC10834FBF98BAD4D76DFF66986CB3D3393CBCFDFCB1D3DCC16AC7703D08200324E796DDD3C408A57DC023A0BBE791F7FD90039B998017619
311
049F379FD64352DE45E362569DD7E6106508260252F7DC0C10D49759642153CC8E702B56A96E7236057D77194EC96AF45A62759E67AFD66C204E0D65DD48289E2EE305375353E38E9211B7AC26F4636ABB8E315EEEB0E0D12EEFFD6A33321A0DA222B4C6A4C5A4FBA4AC6F4E7DC5F2B3278497BBFD0F9456FD4F285917EBEA
311
38F7850510341FF2FC10BCDCB3C8E51954AE7B6EE207504B0304140006080800EC7D094355019EA25F0000007C00000007000000636E782E786D6C4DCB3B0E80201045D1AD90E915ED2CF8AC45050C11660C8261F98AB1B07AC9C97D42D718D865D3E909258CFD00CCE24AC6E326A164D74DC0B4128928FF326038472BA131
311
28B1252AC747C6BAB984FC68F0B87FE8960A5C09FE86CFB69FBA01504B0304140006080800EC7D0943DBDD637964010000020300000C0000006662782F636F72652E786D6C8D52ED8A8330107C9590FF9AC40FAA25A6942B7D827B8154534FAA89C444FAF8B77E14AF472945D0B8B3B3333BCA0FF7AE45A3B2436374815948
311
3152BA3455A3EB027B770D328C0E825B63DC9F368CB4EC5481A73216BCB6C6F76BA934DA29EDA0AA4DA5D6A21C06E5302A5B381478287F542743E91D740CB7B097E54DD62A6421C0D027F8E02C18408BC874C7E27AB973B2D405F7BEA956B4A940ADB936CA62B14B589A1F290BCEA7E32948CE491CE48C1E832C8D29FB3A67
311
799EA69C4C64C15DD33DDC955649A72A2C22CAE2806601CDBF59BA4F76FB2885D73DA59C4CED4F24DF571F927CA35D1CAD7617DA8005032333F06F5B88C8A1418EE087084EA610E13127FC1C340402213B79691F7BDCA034AAD2199B005219BF41A36CBD02558AE68B930585C9F300D8ECE59CE8CD9CF733E0034A5D8335E9
311
E078F16E52E78BEA1A45AF6C30BA3BD2C676B2DDCC2D16B7FB26F4925E9AD6D84FD8645D95AC6192E9EF15BF504B0304140006080800EC7D094387C313CD7C0000009D0000000B0000006662782F636E782E786D6C4DCCD10AC2201886E15B91FFDC3669C6027538B5FB18CD0DC9699846979F8B1D74F4C1C3C7CB86CFE6D1
311
DBA6978B810339B5806CB8C7D9859543C90BEE010D82A518F3DF0D509836CB6167106C4DB13C0F9AED32159FAB7A171E07EA9612624689B5E935EE9432F82A95C4F4DC551909BD910B348235BF52DD3D2CBE504B0304140006080800EC7D09434834E3BE2A01000014020000310000006662782F44303531314542412D4445
311
38442D344343452D394143412D3533344445384231354631362F636F72652E786D6C8D51CB6EC32010FC158B537AC086C44EED0813E5D52FE80F1020294A0C168F2A9FDFA576A4F6960B0BC3CCEC68976D1FC3BDF8D63E18677B444B820A6DA553C65E7B94E205B7A8D872E69D8B7F68A8B062D03DCA30E2ECEA5D1A67483A
311
1BB58D805AA7F40C8A10744485BCC3A547417EE94194224560845B390A7913575DD212BE81C759881E021453937C227E240DA5A7FD0E1F4FED11D787C30977BBC30E37AB1A903D6D3EE89A559390B3948C9AE546411C7331DABF6A92C59C45333CE34BAF45D40AF125A12B4C5A4CBA4FDA6CEAF7CDB281E786105665FA3F51
311
1AD58BA2646C5C2DE7B8932C204E59357D70A65C3ADF9F61F463743E16B9DF2268F986382909E9DA96743080890A0300CF753D7B86E83C0C78713B039B3693F1BAE6ACCA3B82F2BB40A8799FFC07504B0304140006080800EC7D0943AFD0F1AB4D01000033030000300000006662782F44303531314542412D444538442D34
311
4343452D394143412D3533344445384231354631362F636E782E786D6CD593CD6EC23010845FC5F23D7F1028458E917AE813F4D0AB632FC5C5B123FF54E5EDBB0643B970E8B1172B99FD3CB31A256CF73D19F2053E686707DAD52D2560A553DA7E0C34C57DB5A164C799772EDE61945831C140B34C39FBF02ECD4552B017C9
311
44548DB6C7227A082E790901E57C931827854103B0554211A6119402456E203EEDC1E32A288E27120F405E5FDE891B3F41C6C09AECC259933338CB6749BA832891468430D0200F30895AA4E8148463AD441475575FB31EECF4EB44F2856B64F29AE4F081E693F2B2518D3DB206879C85E8B1BD02C5D30C948B79365A8A8825
311
3767F0C27096B48DEBBEB01A8BF74877EB65DFA3D979C659D41314427A101114E58BB65B56EDA66A9FDFBAD5B67FDA2E56F8BA6D5BD6649CB3D139532EA10D783713E96C041B29EF5893C78FEA2B1C51DA63D7CE9FFE50241650522FEDDC3CFE733FCDF9FBC6BA3CFE05FC07504B0304140006080800EC7D094312E1AD37A2
311
05000080100000340000006662782F44303531314542412D444538442D344343452D394143412D3533344445384231354631362F6F626A656374732E786D6CAD57DB6EDB3810FD1541FBB2FBE0BB92C60B45456C378551A42D6AB4D807030625510A3794285054EAECD7EFA148C9926BA7DE455F74E1653873E6CC85FEDB7D
311
C69D672A4B26F25B77321CBB0ECD2311B33CBD752B950C6E5CE76DE04B21546799EBE424A3B7AE1E76033F95A22AEC504C13527175347ABFF8CB29239A53D7893829CB5BB78C1E694686A45222A6E5D330268A0CD3643F9C0CCDC2BED85492E2F148684124CD1534C5780E298E516AD2FF1DBBA3C01FE9F9C0D74FBB6A767E
311
D5A8B6A77F3ECB4B45F2E887C38EC4CC26DEEADDF46A3EB8F2BCD9C0BB9E4E068BFBC56A3079331B2FAF97CBF9DDBB390E2E958424AB89A4891BBC07369245FEC84C057EC572359BDA25D64123499F99F6941B4C9D893F326B5AEBAC91A7D48F449ED3A8C60A68D4F659D1312D681EC3E78C96D0AC83D0B8FF3BD13876A667
311
FADF1ED91DBE0C81EE8E8EA046F7E6DDD554847FC384F21206C9926A061A2CADA186ABE303C2A110DCCEB1D2C988A29211EE70164A225FDC004BF592C0EF89D14C963A1AB4056E002F98E93E5D10463FE7F9292D938A734D6337A8A3608758A1AAAC3563FF5079D0BE8B0C7482AF341B6EAC41EAA5A06E303714B939629301
311
D2493849E17298A977CEA647862E759CAE576EF0E13EDC6F74EC9E3EBC90A2A05269FA805A8DE39AB746C9EA34B9C8737A837BA4CA01942F40FE2342FDA00AFC26D9DEDB7BF61425495E264266F08D337606633CC6CEA47EEAEFCE973F6A37F7BD770E4F385B43F50BF0ECDBD0F56507CEC07F06E1859C59D33611E1481B0F
311
2C07409A240E1718421E4EC2BD1BAC91E59095B18BF0600293A1EE333EFD91158344519FD479E7C0F2282D5E90A0015BCD48A861C86F153CF8E98774561F6C979D83F7EA97D0F56EB5F9B0A9644222FA60637A45139633851277E04D57A11EE63D8B9EE8CB77216318FA23DE9B2EDE993DAA04DA1A730D7CDAE474FD7338B9
311
7740847DA9D0E9C6FFC909304217D68EFC075646947392535135E7BE5A3F50360CC43AD83593DB0273282C208D99398A4114E948B24283D856AB36690ECF58F775FD118CC47A2E42C20F8BC243EA8D04177217BEEC4C563A89F4B73EB52D04232D056CAF63A4097F8BF92E66495295C8812760FDB65E765DA7B302324423D5
311
048B07F3115B445ACE367251AC25412115F98EA16C22EC4E1ED0950F442D016A81E7342E294F768CF32ADB258CA318ED32529C81E3FFEB1F5659B12399A8727546764F751487BEEE3DF296DF898A1EDD6053BF070BA4DE98C60737F716EB527202AB9E6B178BFBF9FDD5EA6AB0B89EBF19784B3C6EEEAFBC81E7CDEFBC9BEB
311
F178EEBD69FC6484077E5369BA010D2FA1B2F99564D67D5FD7081F9B03DCE081A872FBDE4467F3FEBA1EA215F647D88372D96EBC8B9FD1F6D1F8E7020E2B4F0A5A6705A719CD15D121F4A03FF8178236A3A78C195F6724A51748F9F47E73640C462ED8F759873BFD7EB4D78E2E75409E14A21EAB2CCC09E3471B5383E4B0C8
311
538B5FE393F66DEA4CF3ABFFAC63D0989682B318693076522A32AA900C2FA84132A325A8D76DE9637BF5B860F7B369101509396D347924E8917989B000B5AA48F5C79DDFD0D3E9B6EAD645B51D3EE1613385EB8033B72E7A74C5225A0E43D467DD09D5C2C1A56E238FBE9FE42947AB6D36B5FFED2E8D4DAF22B74B2E699FAC
311
5D26835B0390460AB40DE887E09D5A99C0AF75B3F3D17F32BC51C7210A9F61A55A5B0E03AD31F53108516394BD2CA08779B247EF11A8AF9B3519D66B7A885C74C97A950446EA401199D61705AD9F55E96EF5798406C5597F720A5EA5F0E5E592069282CC950E70B008ACB0320BA240D5E59FDBCF52E0229B39F70C14707EDF
311
DF5CFFB15D8A2C13B919DADED9EBB0B379C4E536DE2239507D2B29B7D3F164BAAD6F03F682B20B494987242E9F3000CF4AD602DD733F7869AE8CA84366A25D37D2AE3862E87AE5D8C2E641A8A54B37B76A70D077E4D4410CE91BA58E98EE82E2D50BC1A85E0A15245AF9E05F504B0304140006080000EC7D09430000000000
311
00000000000000350000006662782F44303531314542412D444538442D344343452D394143412D3533344445384231354631362F76657274696365732E62696E504B0304140006080800EC7D0943F270F1330600000004000000360000006662782F44303531314542412D444538442D344343452D394143412D3533344445
311
384231354631362F747269616E676C65732E62696E636660600000504B0304140006080000EC7D0943000000000000000000000000370000006662782F44303531314542412D444538442D344343452D394143412D3533344445384231354631362F617474726962757465732E62696E504B0304140006080800EC7D0943D5
311
987DFC8F00000041010000360000006662782F44303531314542412D444538442D344343452D394143412D3533344445384231354631362F6469726563746F72792E786D6C858F410EC2201045AF4266AF15DDB800BA74E7C21B903225242D6328188F2FA5C4183471359997F9FF81E89FF3C41E1816475E02DF1F80A11FC8
311
386F25A438EECEC07A250251FC3803E6F58C12560C4AD840E95E91C151A72936F496F35732D860FE635F62C8F2DA16B505C545B74125BAA2FA9E05D7CC053D063734D5C7665FD55B6B8D15D5E9BFEAFD8490FFA45E504B0304140006080800EC7D0943B6810214FB000000A00100003B0000006662782F4430353131454241
311
2D444538442D344343452D394143412D3533344445384231354631362F7265736F75726365732F636F72652E786D6C8D50596E833010BD0A9A7F83CDA200328E50234ED00B586642AD041B79A97AFC9A40A5F6AF3F1ECF5B344F8F5FBFD667F689CE6B6B066039850C8DB2B336CB0031DC490BD95570676DF82583CCC81507
311
D861107C71366E27A4AC096842428D9DF104A5F7182053CFF419C0AB0F5C652E63480AFFC837A91E72C19CE5894E3AC17D702940761CD95F100EBD8D4EA1E7C5C10A1EA39E4F8D9ED34D7DD7E8405C6AD67423A564BA8D37524F75453A4647D23615656F53DB754DC38BDD2C78D0EB4F46E550069C4194945584B68476EFAC
311
E9EB4B5F3669ED29E5C52EFF638ADBFC4F53D42654E519F7B079102C05791182177B5F69BCCA4C73EF567C03504B010214000A0000080000EC7D09433DEE336E79000000790000001B00000000000000000000000000000000006175746F6465736B2D64657369676E2D7061636B6167652E786D6C504B0102140014000608
311
0800EC7D0943D486FD9CA0000000F40000001300000000000000000000000000B20000005B436F6E74656E745F54797065735D2E786D6C504B01021400140006080800EC7D0943A52A2C8CE80000007C010000080000000000000000000000000083010000636F72652E786D6C504B01021400140006080800EC7D09435501
311
9EA25F0000007C000000070000000000000000000000000091020000636E782E786D6C504B01021400140006080800EC7D0943DBDD637964010000020300000C00000000000000000000000000150300006662782F636F72652E786D6C504B01021400140006080800EC7D094387C313CD7C0000009D0000000B0000000000
311
0000000000000000A30400006662782F636E782E786D6C504B01021400140006080800EC7D09434834E3BE2A010000140200003100000000000000000000000000480500006662782F44303531314542412D444538442D344343452D394143412D3533344445384231354631362F636F72652E786D6C504B01021400140006
311
080800EC7D0943AFD0F1AB4D010000330300003000000000000000000000000000C10600006662782F44303531314542412D444538442D344343452D394143412D3533344445384231354631362F636E782E786D6C504B01021400140006080800EC7D094312E1AD37A2050000801000003400000000000000000000000000
311
5C0800006662782F44303531314542412D444538442D344343452D394143412D3533344445384231354631362F6F626A656374732E786D6C504B01021400140006080000EC7D09430000000000000000000000003500000000000000000000000000500E00006662782F44303531314542412D444538442D344343452D3941
311
43412D3533344445384231354631362F76657274696365732E62696E504B01021400140006080800EC7D0943F270F13306000000040000003600000000000000000000000000A30E00006662782F44303531314542412D444538442D344343452D394143412D3533344445384231354631362F747269616E676C65732E6269
311
6E504B01021400140006080000EC7D09430000000000000000000000003700000000000000000000000000FD0E00006662782F44303531314542412D444538442D344343452D394143412D3533344445384231354631362F617474726962757465732E62696E504B01021400140006080800EC7D0943D5987DFC8F00000041
311
0100003600000000000000000000000000520F00006662782F44303531314542412D444538442D344343452D394143412D3533344445384231354631362F6469726563746F72792E786D6C504B01021400140006080800EC7D0943B6810214FB000000A00100003B00000000000000000000000000351000006662782F4430
311
3531314542412D444538442D344343452D394143412D3533344445384231354631362F7265736F75726365732F636F72652E786D6C504B0506000000000E000E0080040000891100000000
310
504B03040A0000080000EC7D09433DEE336E79000000790000001B0000006175746F6465736B2D64657369676E2D7061636B6167652E786D6C3C3F786D6C2076657273696F6E3D22312E302220656E636F64696E673D227574662D3822203F3E3C666F726D6174733E3C666F726D61743E687474703A2F2F736368656D612E
310
6175746F6465736B2E636F6D2F64657369676E2D7061636B6167652F323030393C2F666F726D61743E3C2F666F726D6174733E504B0304140006080800EC7D0943D486FD9CA0000000F4000000130000005B436F6E74656E745F54797065735D2E786D6C7D8EC10E82300C865F65E91D8A1E8C310C0EEA1BF002731658846E
310
D98AC1B77784ABF1D8FE5FBFBF75BBCE937A534CCEB38643598122B6FEE978D0B0485F9C41B54DDD7D022595594E1A469170414C76A4D9A4D207E29CF43ECE46F218070CC6BECC4078ACAA135ACF422C856C0E68EA1BF5669944DDD7BCDE7B1F8E415D77AECB980613C2E4AC91FC167A2B244592486606FC29C8FD7F045B9A
310
EF7053A7E60B504B0304140006080800EC7D09434F5873DFE80000007C01000008000000636F72652E786D6C8D904D6EC3201085AF82668F0DFEA51626521BDFA01740401C94182C03558F5F9C3852BBEB6A86C7FB66468F9FBE973BFA325BB0DE8D400B02C838E5B575F308295E300374127CF33EFEB20172723123EC3208
310
3E6F3EAD87A4BC8BC6C5AC3AAFCD21CA104C04A4EEB91921A8AB59642153CC8E702B56A96E7236057D75194EC96AF45C62759E672FD66C20A6BEAB29EB0966F5478B9BA9E9F07B3531CCAA8EB5E7336DBABEE7E50E0B1EEDF2DAAF3623A3D1202A426B4C18266F9FB41D9A7EA8DAFC1C08E1E56EFF03A555FF134AD6C5BA3A
310
CE7D620104CD873C3E042FF72C72790495EB9E9BF801504B0304140006080800EC7D094355019EA25F0000007C00000007000000636E782E786D6C4DCB3B0E80201045D1AD90E915ED2CF8AC45050C11660C8261F98AB1B07AC9C97D42D718D865D3E909258CFD00CCE24AC6E326A164D74DC0B4128928FF326038472BA131
310
28B1252AC747C6BAB984FC68F0B87FE8960A5C09FE86CFB69FBA01504B0304140006080800EC7D09439A8CF53064010000020300000C0000006662782F636F72652E786D6C8D525B6E833010BC8AE57F306F68641CA94D6ED00B38C6A12860233F508EDFE511A5A9A2284202B3B3B3333B40F7D7A1479334B6D3AAC6711861
310
2495D04DA7DA1A7B770E2A8CF68C1AADDD9F368C141F648DE73266B435DA8F5B4968E5A4725055BA915B915B2B1D46A287438DADF891030FB977D0612FE1C8C585B7328C4380A18F51EB0C1840ABC87CC7EC7CBA52B2D619F5BE6B36B46B40AD3B77D260762C8B34AECA28A8D2AF3CC88E59117C26C72AA892A2CA0F87382B
310
CA929299CCA8EB869B3B612477B2C12C89E23488AA20FAF88EF35D56EE921C5E775144C9DCFE40F263F326C977CAA5C96677A559CC6230B200FFB685881CB27C023F84513287088F25E1C7A0211008D9F1537FDBE302A5490AA74D0648A3FD1D9A78EF25A84668B928595198BC0C80CD9ECE495ECC793D033E20572D58E30E
310
8E27EF6675BAAA6E518CD20493BB22A5CDC0FBBBB9D5E2FD7E177A4A17BAD7E61D36D956255B9864FE7BD92F504B0304140006080800EC7D09433B3787967D0000009D0000000B0000006662782F636E782E786D6C4DCCDF0A83201C86E15B91DFB9CBD61F27A8A17623B12C64A6C3E9D8E5AF46073BFAE0E1E3E5C367F3E8
310
6DD3CBC520A0BE104036DCE3ECC22AA0E405DF000D92A718F3DF0D5098362BE060907C4DB13C4F9AED32159F77F52E3C4E64ACE98D2604EBA6A3B8654A63DD51837BDA2AA3583D5ED50895E4D5AFB4EF11965F504B0304140006080800EC7D09434194D6602A01000015020000310000006662782F39393336434230302D42
310
3335372D343941422D423537432D3637344143413931443241442F636F72652E786D6C8D51CB6E833010FC15E4537A30983744C611249FD01F70C0A156828DFCA8F2F95D1722B5B75CBCF6786676B44B4FCFE5117D0B63A5561D4A638222A1463D493577C8BB1B6E507462D468EDFED050A4F8223A1460C4E86CB45F7768D4
310
CA09E500557A123BC8AD150E45E3032E1DB2E3975878CCBD0386BDC72B1FEF7C16711AC337F018B5CE4080686B124EC4DA36AFCE032178C8CB1A176D3FE0A1ACCFB8AA8BFEDCB7E925EB2F34D9848C7A2FA75D2E2788236F5298774D829851279757FCD108EEC4845846D21C930693F6332D8F457DCC4A781E09A149A0FF13
310
F9757A53E4A57279B6C7DD6416B19426DB07A393F6D7C72B8C78AEDAB828F43B58317E204662429ABCA9F2B2A1C9C68509806955ECA6D66903133EDCAF40CF77E7AA6034094B82F2BB41A861A1EC07504B0304140006080800EC7D0943C9773EBC5501000033030000300000006662782F39393336434230302D423335372D
310
343941422D423537432D3637344143413931443241442F636E782E786D6CBD93CD6EC32010845F0571F75FE2A46E8489D4439FA0875E316C121A0C16E0AA79FB2E094973C9A152D50BB2678799D5279B6DBF46433EC107ED6C4F9BB2A604AC744ADB7D4FE7B82B3A4AB69C79E7E29D8D122B46E8699229677BEFE6294B0A76
310
62361155A3ED318B1E829BBD848072BA498C93C26000D8624611C6019402456E467CDA81C755501C4E241E80BCBEBC13377C808C81552985B32A757096CEDC7467A2441A11424F833CC0284A3147A7201C4B25A2289BF2DAF560A79F24922E5C2B67AF492AEF693A29CF1B95C8915538E42C448FF4B2299E26A05C4C93D152
310
44845C9D8D170F67B3B671DD66AF46F01EDDCBC5BAEB30EC3CE32CEA11B2437A101114E58BBA59167557D4CF6FCD6AD33E6D162B7CDDD435AB929DB3C139932F610C783711E96C041B296F5895C68FF0651F51DA236BE74FBF00890072EB85CE2DE32FF934EB65DBFE239FEAFC7D232E8F7F01FF06504B0304140006080800
310
EC7D0943B6D5291260070000991B0000340000006662782F39393336434230302D423335372D343941422D423537432D3637344143413931443241442F6F626A656374732E786D6CED59DD73A33610FF5718FAD23E189B18E7E20EA19338CD8DA793F6A6EEDDF4C1338C0C3251230423895CD2BFBEAB0F301093E05EFAD607
310
8311D26AF7B79F5AC29F9E72EA3C622E48C12E5DDF9BB90E66499112965DBA95DC4F2E5CE7A728E445215BD35C87A11C5FBA6AD88DC28C1755698752BC471595BDD1DBEB3F1D9160865D27A148884B5724F738471EAA649162F1E0A548222FDB3F79BE672676C9661C95F73DA225E29849E014C61950710C537EF771E64EA3
310
70AADE47A1BADA59F351B382E159532D75974BC284442C79C1528FCC7C144B733FB8F9F96CB19C2C82603E09CECFFCC9F5EDF5CDC4FF309FADCE57ABE5D5CF4B606F5714D4CA94E212B314F4F7EC467E38556F1AD12D02C7B84E0AC670A28104A8B4587D82040BD8AA05DFACFBE82B895AAFB584ADE740BDB72CB486E75D2A
310
43B3C601D1A10B82D8ED6A89EB7B5BBE62F717082EC61825175802B74272D0AE85878357B8D12C9C9AD128DC1D7441849323893941D4A164C71107A5C05435250ACD024B46390707528E92406BCEBCEEDA1678E6DBAE738CCB7D45A9F20C37D28E1583FB61293467E46FCC0FDCB791019E40DA8A307961B994CF2576A36538
310
D58351A86EF333FBD200E9EC29CA8446C4BCED09BA52AEBFBE71A35F6E774F1B150E8E6F5EF2A2C45C2AA3537AD47C8121DBBB42C96EEB8FD29C5A00C21850EDCA0328BF03F2BF42F438B0027AE3E429780AEC5CC91113FB82E7A01B67E64C66709939BEBEAAFFAD7FE1B459DCD5DE109EE0A60AAA8B6FC7B32B83C6CAF2DF
310
82330A1FC1E00B3EB7AF3609A260CF77840140CA481C5AC01084F6FDEEC98DD6103821D0C32A44231F4406761FE16F38B5640E5AA9DDCB7A1D0344ED1EF3314A02D8B445021B037AFA08D98393E4A0A6B68843F02EDEC55CAF6E36BF6C2ABE4709BEB33E7D83F784110959F338431DCC3B123DE0E7AF054F41D097786FDA78
310
E7762B01682BCC15F0590D827A38ECDCD920817559A1C24DF8C60E2084CAD52DFA7744249852C47051D5FB36D14D196AE3F1B66670A33303F1FCAC67C21C3F12555580D31C66741885BC9F70522A10DDE8A391AC099ADE80749FD7BF824536F30766AD19845E86E81F3A681DC1A163D935D2168846E0DD219C27052D78BC7B
310
8E4DA473A1960036BADEF2A5431462BD5192A2021EA4FDAE0E299991364EC97E5F0988AB4758FCB25EB5CD61E6CDFD85D3BEF69C3180680BBE8BB8F5BBDE1E31C95186E33D4A87B66BEFD6D0169AE400698EF714E4228F443EC748C6B31467A7407312F1E5BB52CF682104615840BE3A0A7E1B8D990781C468B3665969B507
310
3411718E25A2A720A0C80C80ABD38EAE7113281DDEE6B1B1DED734D626FA1F590447504B162C26508A420E799371DF5B400CE9A26B50EEE10BD656D3D662D00A4A88E439FE8A49762F4F41DD901FC03D81234925E3A2440998F508B22F7C4529B5C7FB0E250F2A7FC44945DFCB4004A6FB98505AE531FC088393C718D76E02
310
D3AB28B4889BD827710E451992151FB3C9F962F6621F5333F443606BA33DA110B6E31C9503A87702A2AE479C067C4B7D40A9BB2A2F639417151B6528DEBCEF4D967C5FAD8AEC487E55A90865634DD8128C42C2649355EB980DA6AE032BB8910E54CFB1407949CD29EC8DC4E337DEA4290F6EC0AD9FBEEF0639147E03DA6B47
310
D4A086C1F2D8290CC45724937B37DAE8FBE41AEAEF14A787545FD79AED0A10105391BCE2C4AAE8F31ACA1B5BA3B9D11D9262FBD164DDFAFE79ED41F7239CC21AA85D9A856B05748E9944AA32B9537FE8EF0842708786195FAB9C7A0A95AB34D55523A2B764489D9D32A2B3694EBCF21EB322871FDB1296D02AC55B948A87F8
310
4ED2784314EB564A2F2735C6AF0AF8DBC74D0F1E181921D22755E0E1AFBDB57674A5CAA5A344E47D95EF182210043BA26546375EC932AB915ACBCD5D9D29A0EE0203B32A0EFE3F59B4DB11FF9F2C326B18DF76B2A0C50ED143B46965F34499F549A780263D292AEF710AD05D87866A93444C2EB7E25B5F8A2126D6417E7431
310
56C70C437088E37F9DB48792A0D9AEC7FF6949DB7F51709C94543A935593EA48E1BA6EA7B0EBEBDBE5EDE26631B93E5F7E98042BB85CDC2E8249102CAF828BF3D96C197C68D0D47E1A854D2CD3A90B9E4D4CAB87D593C5009AB2A2A02485C37CEA641842BE8423FD88EE39CFB180DCD9EE75A7B6273F62F5A369734AB4A3B8
310
E6E41E417F980AC8EA805195C8EEB8F31D7426259CB32F5DE819790F70B156E93A90782E5DE814489260E1EDA0CBA4FA799A38645C9DFA2D31C007B14C6544B3A8796E56296C3AD1BF9932260B58B93A2D0CA8DB4A687E751A149A37CB537292E0353B0E92F077574928D68C2C87814618BDCD41FD46364AD883DDFA095CF7
310
75B17C4FCFE92032EA8BC1AB4660A84E24E2996E772BC62C4B57379FA6D06673D6BF3925AD32D0E5784A138EC1982B554F81158155589A259260AAAB1FB79F78015F7872471745CEF74F17E73F6C57459E17CC0C6DAFE05096C2772267730F5F7DD22DD40E58F5D6C5F66CE69F6D754FDBB6D9E31D12D85345110CD4B58412
310
A4677260972FFA53B67B3955AAE84D5FDF383688422FC0D8D18B16AFF9C6E5800FA9AF29CA63B49FD7D2BEDAD69EEAA960131C1AD2D13F504B0304140006080000EC7D0943000000000000000000000000350000006662782F39393336434230302D423335372D343941422D423537432D3637344143413931443241442F76
310
657274696365732E62696E504B0304140006080800EC7D0943F270F1330600000004000000360000006662782F39393336434230302D423335372D343941422D423537432D3637344143413931443241442F747269616E676C65732E62696E636660600000504B0304140006080000EC7D0943000000000000000000000000
310
370000006662782F39393336434230302D423335372D343941422D423537432D3637344143413931443241442F617474726962757465732E62696E504B0304140006080800EC7D0943D5987DFC8F00000041010000360000006662782F39393336434230302D423335372D343941422D423537432D36373441434139314432
310
41442F6469726563746F72792E786D6C858F410EC2201045AF4266AF15DDB800BA74E7C21B903225242D6328188F2FA5C4183471359997F9FF81E89FF3C41E1816475E02DF1F80A11FC8386F25A438EECEC07A250251FC3803E6F58C12560C4AD840E95E91C151A72936F496F35732D860FE635F62C8F2DA16B505C545B741
310
25BAA2FA9E05D7CC053D063734D5C7665FD55B6B8D15D5E9BFEAFD8490FFA45E504B0304140006080800EC7D0943CBB5AD78FC000000A00100003B0000006662782F39393336434230302D423335372D343941422D423537432D3637344143413931443241442F7265736F75726365732F636F72652E786D6C8D50596E8330
310
10BD0A9A7F0366759171A436F404BD806526C44AB09197AAC7AF49A8D4FEF5C7E3798BE6E9F1D3D77ACF3ED1796DCD08342F2143A3ECACCD32420C17C2203B09EEAC0DBF649019B9E2083B0C822FCEC6ED809435014D48A8B1331EA0F41E0364EA9E3E237875C555E63286A4F0B77C93EA2617CC699EE8A413DC07970264CF
310
23FB0BC2A1B7D129F4BC78B282C7A8E743A3E774535F343A1053DFD59475EF84D56F2D69A6A623AFD5C408AB3AD69ECFB4E9FA9E17BB59F0A0D79F8CCAA10C3883A84A5A939291F2E583B643D30F559BD6A12C79B1CBFF98E236FFD314B5097575C47DDA3C089A823C08C18BBDAF341E65A6B9772BBE01504B010214000A00
310
00080000EC7D09433DEE336E79000000790000001B00000000000000000000000000000000006175746F6465736B2D64657369676E2D7061636B6167652E786D6C504B01021400140006080800EC7D0943D486FD9CA0000000F40000001300000000000000000000000000B20000005B436F6E74656E745F54797065735D2E
310
786D6C504B01021400140006080800EC7D09434F5873DFE80000007C010000080000000000000000000000000083010000636F72652E786D6C504B01021400140006080800EC7D094355019EA25F0000007C000000070000000000000000000000000091020000636E782E786D6C504B01021400140006080800EC7D09439A
310
8CF53064010000020300000C00000000000000000000000000150300006662782F636F72652E786D6C504B01021400140006080800EC7D09433B3787967D0000009D0000000B00000000000000000000000000A30400006662782F636E782E786D6C504B01021400140006080800EC7D09434194D6602A0100001502000031
310
00000000000000000000000000490500006662782F39393336434230302D423335372D343941422D423537432D3637344143413931443241442F636F72652E786D6C504B01021400140006080800EC7D0943C9773EBC55010000330300003000000000000000000000000000C20600006662782F39393336434230302D4233
310
35372D343941422D423537432D3637344143413931443241442F636E782E786D6C504B01021400140006080800EC7D0943B6D5291260070000991B00003400000000000000000000000000650800006662782F39393336434230302D423335372D343941422D423537432D3637344143413931443241442F6F626A65637473
310
2E786D6C504B01021400140006080000EC7D09430000000000000000000000003500000000000000000000000000171000006662782F39393336434230302D423335372D343941422D423537432D3637344143413931443241442F76657274696365732E62696E504B01021400140006080800EC7D0943F270F13306000000
310
0400000036000000000000000000000000006A1000006662782F39393336434230302D423335372D343941422D423537432D3637344143413931443241442F747269616E676C65732E62696E504B01021400140006080000EC7D09430000000000000000000000003700000000000000000000000000C41000006662782F39
310
393336434230302D423335372D343941422D423537432D3637344143413931443241442F617474726962757465732E62696E504B01021400140006080800EC7D0943D5987DFC8F000000410100003600000000000000000000000000191100006662782F39393336434230302D423335372D343941422D423537432D363734
310
4143413931443241442F6469726563746F72792E786D6C504B01021400140006080800EC7D0943CBB5AD78FC000000A00100003B00000000000000000000000000FC1100006662782F39393336434230302D423335372D343941422D423537432D3637344143413931443241442F7265736F75726365732F636F72652E786D
310
6C504B0506000000000E000E0080040000511300000000
  0
XRECORD
  5
E
102
{ACAD_REACTORS
330
A
102
}
330
A
100
AcDbXrecord
280
     1
270
     1
271
     1
  0
XRECORD
  5
F
102
{ACAD_REACTORS
330
A
102
}
330
A
100
AcDbXrecord
280
     1
270
     1
271
     1
  0
XRECORD
  5
10
102
{ACAD_REACTORS
330
A
102
}
330
A
100
AcDbXrecord
280
     1
270
     1
271
     1
  0
XRECORD
  5
11
102
{ACAD_REACTORS
330
A
102
}
330
A
100
AcDbXrecord
280
     1
270
     1
271
     1
  0
XRECORD
  5
12A
102
{ACAD_REACTORS
330
129
102
}
330
129
100
AcDbXrecord
280
     1
102
ACAD_ROUNDTRIP_2012_MLEADER_STYLE
298
     1
  0
CELLSTYLEMAP
  5
128
102
{ACAD_REACTORS
330
ED
102
}
330
ED
100
AcDbCellStyleMap
 90
        3
300
CELLSTYLE
  1
TABLEFORMAT_BEGIN
 90
        5
170
     1
 91
        0
 92
    32768
 62
   257
 93
        1
300
CONTENTFORMAT
  1
CONTENTFORMAT_BEGIN
 90
        0
 91
        0
 92
      512
 93
        0
300

 40
0.0
140
1.0
 94
        5
 62
     0
340
1C
144
0.25
309
CONTENTFORMAT_END
171
     0
 94
        0
309
TABLEFORMAT_END
  1
CELLSTYLE_BEGIN
 90
        1
 91
        1
300
_TITLE
309
CELLSTYLE_END
300
CELLSTYLE
  1
TABLEFORMAT_BEGIN
 90
        5
170
     1
 91
        0
 92
        0
 62
   257
 93
        1
300
CONTENTFORMAT
  1
CONTENTFORMAT_BEGIN
 90
        0
 91
        0
 92
      512
 93
        0
300

 40
0.0
140
1.0
 94
        5
 62
     0
340
1C
144
0.18
309
CONTENTFORMAT_END
171
     0
 94
        0
309
TABLEFORMAT_END
  1
CELLSTYLE_BEGIN
 90
        2
 91
        1
300
_HEADER
309
CELLSTYLE_END
300
CELLSTYLE
  1
TABLEFORMAT_BEGIN
 90
        5
170
     1
 91
        0
 92
        0
 62
   257
 93
        1
300
CONTENTFORMAT
  1
CONTENTFORMAT_BEGIN
 90
        0
 91
        0
 92
      512
 93
        0
300

 40
0.0
140
1.0
 94
        2
 62
     0
340
1C
144
0.18
309
CONTENTFORMAT_END
171
     0
 94
        0
309
TABLEFORMAT_END
  1
CELLSTYLE_BEGIN
 90
        3
 91
        2
300
_DATA
309
CELLSTYLE_END
  0
XRECORD
  5
136
102
{ACAD_REACTORS
330
ED
102
}
330
ED
100
AcDbXrecord
280
     1
102
ACAD_ROUNDTRIP_PRE2007_TABLESTYLE
 90
      512
 91
        0
  1

 92
      512
 93
        0
  2

 94
      512
 95
        0
  3

  0
XRECORD
  5
133
102
{ACAD_REACTORS
330
132
102
}
330
132
100
AcDbXrecord
280
     1
102
RTVSPropertyOp0
 70
     1
102
RTVSPropertyOp1
 70
     1
102
RTVSPropertyOp2
 70
     1
102
RTVSPropertyOp3
 70
     1
102
RTVSPropertyOp4
 70
     1
102
RTVSPropertyOp5
 70
     1
102
RTVSPropertyOp6
 70
     1
102
RTVSPropertyOp7
 70
     1
102
RTVSPropertyOp8
 70
     1
102
RTVSPropertyOp9
 70
     1
102
RTVSPropertyOp10
 70
     1
102
RTVSPropertyOp11
 70
     1
102
RTVSPropertyOp12
 70
     1
102
RTVSPropertyOp13
 70
     1
102
RTVSPropertyOp14
 70
     1
102
RTVSPropertyOp15
 70
     1
102
RTVSPropertyOp16
 70
     1
102
RTVSPropertyOp17
 70
     1
102
RTVSPropertyOp18
 70
     1
102
RTVSPropertyOp19
 70
     1
102
RTVSPropertyOp20
 70
     1
102
RTVSPropertyOp21
 70
     1
102
RTVSPropertyOp22
 70
     1
102
RTVSPropertyOp23
 70
     1
102
RTVSPropertyOp24
 70
     1
102
RTVSPropertyOp25
 70
     1
102
RTVSPropertyOp26
 70
     1
102
RTVSPropertyOp27
 70
     1
102
RTVSPropertyOp28
 70
     1
102
RTVSPropertyOp29
 70
     1
102
RTVSPropertyOp30
 70
     1
102
RTVSPropertyOp31
 70
     1
102
RTVSPropertyOp32
 70
     1
  0
XRECORD
  5
144
102
{ACAD_REACTORS
330
143
102
}
330
143
100
AcDbXrecord
280
     1
102
RTVSPropertyOp0
 70
     1
102
RTVSPropertyOp1
 70
     1
102
RTVSPropertyOp2
 70
     1
102
RTVSPropertyOp3
 70
     1
102
RTVSPropertyOp4
 70
     1
102
RTVSPropertyOp5
 70
     1
102
RTVSPropertyOp6
 70
     1
102
RTVSPropertyOp7
 70
     1
102
RTVSPropertyOp8
 70
     1
102
RTVSPropertyOp9
 70
     1
102
RTVSPropertyOp10
 70
     1
102
RTVSPropertyOp11
 70
     1
102
RTVSPropertyOp12
 70
     1
102
RTVSPropertyOp13
 70
     1
102
RTVSPropertyOp14
 70
     1
102
RTVSPropertyOp15
 70
     1
102
RTVSPropertyOp16
 70
     1
102
RTVSPropertyOp17
 70
     1
102
RTVSPropertyOp18
 70
     1
102
RTVSPropertyOp19
 70
     1
102
RTVSPropertyOp20
 70
     1
102
RTVSPropertyOp21
 70
     1
102
RTVSPropertyOp22
 70
     1
102
RTVSPropertyOp23
 70
     1
102
RTVSPropertyOp24
 70
     1
102
RTVSPropertyOp25
 70
     1
102
RTVSPropertyOp26
 70
     1
102
RTVSPropertyOp27
 70
     1
102
RTVSPropertyOp28
 70
     1
102
RTVSPropertyOp29
 70
     1
102
RTVSPropertyOp30
 70
     1
102
RTVSPropertyOp31
 70
     1
102
RTVSPropertyOp32
 70
     1
  0
XRECORD
  5
14C
102
{ACAD_REACTORS
330
14B
102
}
330
14B
100
AcDbXrecord
280
     1
102
RTVSPropertyOp0
 70
     1
102
RTVSPropertyOp1
 70
     1
102
RTVSPropertyOp2
 70
     1
102
RTVSPropertyOp3
 70
     1
102
RTVSPropertyOp4
 70
     1
102
RTVSPropertyOp5
 70
     1
102
RTVSPropertyOp6
 70
     1
102
RTVSPropertyOp7
 70
     1
102
RTVSPropertyOp8
 70
     1
102
RTVSPropertyOp9
 70
     1
102
RTVSPropertyOp10
 70
     1
102
RTVSPropertyOp11
 70
     1
102
RTVSPropertyOp12
 70
     1
102
RTVSPropertyOp13
 70
     1
102
RTVSPropertyOp14
 70
     1
102
RTVSPropertyOp15
 70
     1
102
RTVSPropertyOp16
 70
     1
102
RTVSPropertyOp17
 70
     1
102
RTVSPropertyOp18
 70
     1
102
RTVSPropertyOp19
 70
     1
102
RTVSPropertyOp20
 70
     1
102
RTVSPropertyOp21
 70
     1
102
RTVSPropertyOp22
 70
     1
102
RTVSPropertyOp23
 70
     1
102
RTVSPropertyOp24
 70
     1
102
RTVSPropertyOp25
 70
     1
102
RTVSPropertyOp26
 70
     1
102
RTVSPropertyOp27
 70
     1
102
RTVSPropertyOp28
 70
     1
102
RTVSPropertyOp29
 70
     1
102
RTVSPropertyOp30
 70
     1
102
RTVSPropertyOp31
 70
     1
102
RTVSPropertyOp32
 70
     1
  0
XRECORD
  5
154
102
{ACAD_REACTORS
330
153
102
}
330
153
100
AcDbXrecord
280
     1
102
RTVSPropertyOp0
 70
     1
102
RTVSPropertyOp1
 70
     1
102
RTVSPropertyOp2
 70
     1
102
RTVSPropertyOp3
 70
     1
102
RTVSPropertyOp4
 70
     1
102
RTVSPropertyOp5
 70
     1
102
RTVSPropertyOp6
 70
     1
102
RTVSPropertyOp7
 70
     1
102
RTVSPropertyOp8
 70
     1
102
RTVSPropertyOp9
 70
     1
102
RTVSPropertyOp10
 70
     1
102
RTVSPropertyOp11
 70
     1
102
RTVSPropertyOp12
 70
     1
102
RTVSPropertyOp13
 70
     1
102
RTVSPropertyOp14
 70
     1
102
RTVSPropertyOp15
 70
     1
102
RTVSPropertyOp16
 70
     1
102
RTVSPropertyOp17
 70
     1
102
RTVSPropertyOp18
 70
     1
102
RTVSPropertyOp19
 70
     1
102
RTVSPropertyOp20
 70
     1
102
RTVSPropertyOp21
 70
     1
102
RTVSPropertyOp22
 70
     1
102
RTVSPropertyOp23
 70
     1
102
RTVSPropertyOp24
 70
     1
102
RTVSPropertyOp25
 70
     1
102
RTVSPropertyOp26
 70
     1
102
RTVSPropertyOp27
 70
     1
102
RTVSPropertyOp28
 70
     1
102
RTVSPropertyOp29
 70
     1
102
RTVSPropertyOp30
 70
     1
102
RTVSPropertyOp31
 70
     1
102
RTVSPropertyOp32
 70
     1
  0
XRECORD
  5
148
102
{ACAD_REACTORS
330
147
102
}
330
147
100
AcDbXrecord
280
     1
102
RTVSPropertyOp0
 70
     1
102
RTVSPropertyOp1
 70
     1
102
RTVSPropertyOp2
 70
     1
102
RTVSPropertyOp3
 70
     1
102
RTVSPropertyOp4
 70
     1
102
RTVSPropertyOp5
 70
     1
102
RTVSPropertyOp6
 70
     1
102
RTVSPropertyOp7
 70
     1
102
RTVSPropertyOp8
 70
     1
102
RTVSPropertyOp9
 70
     1
102
RTVSPropertyOp10
 70
     1
102
RTVSPropertyOp11
 70
     1
102
RTVSPropertyOp12
 70
     1
102
RTVSPropertyOp13
 70
     1
102
RTVSPropertyOp14
 70
     1
102
RTVSPropertyOp15
 70
     1
102
RTVSPropertyOp16
 70
     1
102
RTVSPropertyOp17
 70
     1
102
RTVSPropertyOp18
 70
     1
102
RTVSPropertyOp19
 70
     1
102
RTVSPropertyOp20
 70
     1
102
RTVSPropertyOp21
 70
     1
102
RTVSPropertyOp22
 70
     1
102
RTVSPropertyOp23
 70
     1
102
RTVSPropertyOp24
 70
     1
102
RTVSPropertyOp25
 70
     1
102
RTVSPropertyOp26
 70
     1
102
RTVSPropertyOp27
 70
     1
102
RTVSPropertyOp28
 70
     1
102
RTVSPropertyOp29
 70
     1
102
RTVSPropertyOp30
 70
     1
102
RTVSPropertyOp31
 70
     1
102
RTVSPropertyOp32
 70
     1
  0
XRECORD
  5
14A
102
{ACAD_REACTORS
330
149
102
}
330
149
100
AcDbXrecord
280
     1
102
RTVSPropertyOp0
 70
     1
102
RTVSPropertyOp1
 70
     1
102
RTVSPropertyOp2
 70
     1
102
RTVSPropertyOp3
 70
     1
102
RTVSPropertyOp4
 70
     1
102
RTVSPropertyOp5
 70
     1
102
RTVSPropertyOp6
 70
     1
102
RTVSPropertyOp7
 70
     1
102
RTVSPropertyOp8
 70
     1
102
RTVSPropertyOp9
 70
     1
102
RTVSPropertyOp10
 70
     1
102
RTVSPropertyOp11
 70
     1
102
RTVSPropertyOp12
 70
     1
102
RTVSPropertyOp13
 70
     1
102
RTVSPropertyOp14
 70
     1
102
RTVSPropertyOp15
 70
     1
102
RTVSPropertyOp16
 70
     1
102
RTVSPropertyOp17
 70
     1
102
RTVSPropertyOp18
 70
     1
102
RTVSPropertyOp19
 70
     1
102
RTVSPropertyOp20
 70
     1
102
RTVSPropertyOp21
 70
     1
102
RTVSPropertyOp22
 70
     1
102
RTVSPropertyOp23
 70
     1
102
RTVSPropertyOp24
 70
     1
102
RTVSPropertyOp25
 70
     1
102
RTVSPropertyOp26
 70
     1
102
RTVSPropertyOp27
 70
     1
102
RTVSPropertyOp28
 70
     1
102
RTVSPropertyOp29
 70
     1
102
RTVSPropertyOp30
 70
     1
102
RTVSPropertyOp31
 70
     1
102
RTVSPropertyOp32
 70
     1
  0
XRECORD
  5
164
102
{ACAD_REACTORS
330
163
102
}
330
163
100
AcDbXrecord
280
     1
102
RTVSPropertyOp0
 70
     0
102
RTVSPropertyOp1
 70
     0
102
RTVSPropertyOp2
 70
     0
102
RTVSPropertyOp3
 70
     0
102
RTVSPropertyOp4
 70
     0
102
RTVSPropertyOp5
 70
     0
102
RTVSPropertyOp6
 70
     0
102
RTVSPropertyOp7
 70
     0
102
RTVSPropertyOp8
 70
     0
102
RTVSPropertyOp9
 70
     0
102
RTVSPropertyOp10
 70
     0
102
RTVSPropertyOp11
 70
     0
102
RTVSPropertyOp12
 70
     0
102
RTVSPropertyOp13
 70
     0
102
RTVSPropertyOp14
 70
     2
102
RTVSPropertyOp15
 70
     0
102
RTVSPropertyOp16
 70
     0
102
RTVSPropertyOp17
 70
     0
102
RTVSPropertyOp18
 70
     0
102
RTVSPropertyOp19
 70
     0
102
RTVSPropertyOp20
 70
     0
102
RTVSPropertyOp21
 70
     0
102
RTVSPropertyOp22
 70
     0
102
RTVSPropertyOp23
 70
     0
102
RTVSPropertyOp24
 70
     0
102
RTVSPropertyOp25
 70
     0
102
RTVSPropertyOp26
 70
     0
102
RTVSPropertyOp27
 70
     0
102
RTVSPropertyOp28
 70
     0
102
RTVSPropertyOp29
 70
     0
102
RTVSPropertyOp30
 70
     0
102
RTVSPropertyOp31
 70
     0
102
RTVSPropertyOp32
 70
     0
  0
XRECORD
  5
152
102
{ACAD_REACTORS
330
151
102
}
330
151
100
AcDbXrecord
280
     1
102
RTVSPropertyOp0
 70
     1
102
RTVSPropertyOp1
 70
     1
102
RTVSPropertyOp2
 70
     1
102
RTVSPropertyOp3
 70
     1
102
RTVSPropertyOp4
 70
     1
102
RTVSPropertyOp5
 70
     1
102
RTVSPropertyOp6
 70
     1
102
RTVSPropertyOp7
 70
     1
102
RTVSPropertyOp8
 70
     1
102
RTVSPropertyOp9
 70
     1
102
RTVSPropertyOp10
 70
     1
102
RTVSPropertyOp11
 70
     1
102
RTVSPropertyOp12
 70
     1
102
RTVSPropertyOp13
 70
     1
102
RTVSPropertyOp14
 70
     1
102
RTVSPropertyOp15
 70
     1
102
RTVSPropertyOp16
 70
     1
102
RTVSPropertyOp17
 70
     1
102
RTVSPropertyOp18
 70
     1
102
RTVSPropertyOp19
 70
     1
102
RTVSPropertyOp20
 70
     1
102
RTVSPropertyOp21
 70
     1
102
RTVSPropertyOp22
 70
     1
102
RTVSPropertyOp23
 70
     1
102
RTVSPropertyOp24
 70
     1
102
RTVSPropertyOp25
 70
     1
102
RTVSPropertyOp26
 70
     1
102
RTVSPropertyOp27
 70
     1
102
RTVSPropertyOp28
 70
     1
102
RTVSPropertyOp29
 70
     1
102
RTVSPropertyOp30
 70
     1
102
RTVSPropertyOp31
 70
     1
102
RTVSPropertyOp32
 70
     1
  0
XRECORD
  5
13C
102
{ACAD_REACTORS
330
13B
102
}
330
13B
100
AcDbXrecord
280
     1
102
RTVSPropertyOp0
 70
     1
102
RTVSPropertyOp1
 70
     1
102
RTVSPropertyOp2
 70
     1
102
RTVSPropertyOp3
 70
     1
102
RTVSPropertyOp4
 70
     1
102
RTVSPropertyOp5
 70
     1
102
RTVSPropertyOp6
 70
     1
102
RTVSPropertyOp7
 70
     1
102
RTVSPropertyOp8
 70
     1
102
RTVSPropertyOp9
 70
     1
102
RTVSPropertyOp10
 70
     1
102
RTVSPropertyOp11
 70
     1
102
RTVSPropertyOp12
 70
     1
102
RTVSPropertyOp13
 70
     1
102
RTVSPropertyOp14
 70
     1
102
RTVSPropertyOp15
 70
     1
102
RTVSPropertyOp16
 70
     1
102
RTVSPropertyOp17
 70
     1
102
RTVSPropertyOp18
 70
     1
102
RTVSPropertyOp19
 70
     1
102
RTVSPropertyOp20
 70
     1
102
RTVSPropertyOp21
 70
     1
102
RTVSPropertyOp22
 70
     1
102
RTVSPropertyOp23
 70
     1
102
RTVSPropertyOp24
 70
     1
102
RTVSPropertyOp25
 70
     1
102
RTVSPropertyOp26
 70
     1
102
RTVSPropertyOp27
 70
     1
102
RTVSPropertyOp28
 70
     1
102
RTVSPropertyOp29
 70
     1
102
RTVSPropertyOp30
 70
     1
102
RTVSPropertyOp31
 70
     1
102
RTVSPropertyOp32
 70
     1
  0
XRECORD
  5
13E
102
{ACAD_REACTORS
330
13D
102
}
330
13D
100
AcDbXrecord
280
     1
102
RTVSPropertyOp0
 70
     1
102
RTVSPropertyOp1
 70
     1
102
RTVSPropertyOp2
 70
     1
102
RTVSPropertyOp3
 70
     1
102
RTVSPropertyOp4
 70
     1
102
RTVSPropertyOp5
 70
     1
102
RTVSPropertyOp6
 70
     1
102
RTVSPropertyOp7
 70
     1
102
RTVSPropertyOp8
 70
     1
102
RTVSPropertyOp9
 70
     1
102
RTVSPropertyOp10
 70
     1
102
RTVSPropertyOp11
 70
     1
102
RTVSPropertyOp12
 70
     1
102
RTVSPropertyOp13
 70
     1
102
RTVSPropertyOp14
 70
     1
102
RTVSPropertyOp15
 70
     1
102
RTVSPropertyOp16
 70
     1
102
RTVSPropertyOp17
 70
     1
102
RTVSPropertyOp18
 70
     1
102
RTVSPropertyOp19
 70
     1
102
RTVSPropertyOp20
 70
     1
102
RTVSPropertyOp21
 70
     1
102
RTVSPropertyOp22
 70
     1
102
RTVSPropertyOp23
 70
     1
102
RTVSPropertyOp24
 70
     1
102
RTVSPropertyOp25
 70
     1
102
RTVSPropertyOp26
 70
     1
102
RTVSPropertyOp27
 70
     1
102
RTVSPropertyOp28
 70
     1
102
RTVSPropertyOp29
 70
     1
102
RTVSPropertyOp30
 70
     1
102
RTVSPropertyOp31
 70
     1
102
RTVSPropertyOp32
 70
     1
  0
XRECORD
  5
140
102
{ACAD_REACTORS
330
13F
102
}
330
13F
100
AcDbXrecord
280
     1
102
RTVSPropertyOp0
 70
     1
102
RTVSPropertyOp1
 70
     1
102
RTVSPropertyOp2
 70
     1
102
RTVSPropertyOp3
 70
     1
102
RTVSPropertyOp4
 70
     1
102
RTVSPropertyOp5
 70
     1
102
RTVSPropertyOp6
 70
     1
102
RTVSPropertyOp7
 70
     1
102
RTVSPropertyOp8
 70
     1
102
RTVSPropertyOp9
 70
     1
102
RTVSPropertyOp10
 70
     1
102
RTVSPropertyOp11
 70
     1
102
RTVSPropertyOp12
 70
     1
102
RTVSPropertyOp13
 70
     1
102
RTVSPropertyOp14
 70
     1
102
RTVSPropertyOp15
 70
     1
102
RTVSPropertyOp16
 70
     1
102
RTVSPropertyOp17
 70
     1
102
RTVSPropertyOp18
 70
     1
102
RTVSPropertyOp19
 70
     1
102
RTVSPropertyOp20
 70
     1
102
RTVSPropertyOp21
 70
     1
102
RTVSPropertyOp22
 70
     1
102
RTVSPropertyOp23
 70
     1
102
RTVSPropertyOp24
 70
     1
102
RTVSPropertyOp25
 70
     1
102
RTVSPropertyOp26
 70
     1
102
RTVSPropertyOp27
 70
     1
102
RTVSPropertyOp28
 70
     1
102
RTVSPropertyOp29
 70
     1
102
RTVSPropertyOp30
 70
     1
102
RTVSPropertyOp31
 70
     1
102
RTVSPropertyOp32
 70
     1
  0
XRECORD
  5
142
102
{ACAD_REACTORS
330
141
102
}
330
141
100
AcDbXrecord
280
     1
102
RTVSPropertyOp0
 70
     1
102
RTVSPropertyOp1
 70
     1
102
RTVSPropertyOp2
 70
     1
102
RTVSPropertyOp3
 70
     1
102
RTVSPropertyOp4
 70
     1
102
RTVSPropertyOp5
 70
     1
102
RTVSPropertyOp6
 70
     1
102
RTVSPropertyOp7
 70
     1
102
RTVSPropertyOp8
 70
     1
102
RTVSPropertyOp9
 70
     1
102
RTVSPropertyOp10
 70
     1
102
RTVSPropertyOp11
 70
     1
102
RTVSPropertyOp12
 70
     1
102
RTVSPropertyOp13
 70
     1
102
RTVSPropertyOp14
 70
     1
102
RTVSPropertyOp15
 70
     1
102
RTVSPropertyOp16
 70
     1
102
RTVSPropertyOp17
 70
     1
102
RTVSPropertyOp18
 70
     1
102
RTVSPropertyOp19
 70
     1
102
RTVSPropertyOp20
 70
     1
102
RTVSPropertyOp21
 70
     1
102
RTVSPropertyOp22
 70
     1
102
RTVSPropertyOp23
 70
     1
102
RTVSPropertyOp24
 70
     1
102
RTVSPropertyOp25
 70
     1
102
RTVSPropertyOp26
 70
     1
102
RTVSPropertyOp27
 70
     1
102
RTVSPropertyOp28
 70
     1
102
RTVSPropertyOp29
 70
     1
102
RTVSPropertyOp30
 70
     1
102
RTVSPropertyOp31
 70
     1
102
RTVSPropertyOp32
 70
     1
  0
XRECORD
  5
146
102
{ACAD_REACTORS
330
145
102
}
330
145
100
AcDbXrecord
280
     1
102
RTVSPropertyOp0
 70
     1
102
RTVSPropertyOp1
 70
     1
102
RTVSPropertyOp2
 70
     1
102
RTVSPropertyOp3
 70
     1
102
RTVSPropertyOp4
 70
     1
102
RTVSPropertyOp5
 70
     1
102
RTVSPropertyOp6
 70
     1
102
RTVSPropertyOp7
 70
     1
102
RTVSPropertyOp8
 70
     1
102
RTVSPropertyOp9
 70
     1
102
RTVSPropertyOp10
 70
     1
102
RTVSPropertyOp11
 70
     1
102
RTVSPropertyOp12
 70
     1
102
RTVSPropertyOp13
 70
     1
102
RTVSPropertyOp14
 70
     1
102
RTVSPropertyOp15
 70
     1
102
RTVSPropertyOp16
 70
     1
102
RTVSPropertyOp17
 70
     1
102
RTVSPropertyOp18
 70
     1
102
RTVSPropertyOp19
 70
     1
102
RTVSPropertyOp20
 70
     1
102
RTVSPropertyOp21
 70
     1
102
RTVSPropertyOp22
 70
     1
102
RTVSPropertyOp23
 70
     1
102
RTVSPropertyOp24
 70
     1
102
RTVSPropertyOp25
 70
     1
102
RTVSPropertyOp26
 70
     1
102
RTVSPropertyOp27
 70
     1
102
RTVSPropertyOp28
 70
     1
102
RTVSPropertyOp29
 70
     1
102
RTVSPropertyOp30
 70
     1
102
RTVSPropertyOp31
 70
     1
102
RTVSPropertyOp32
 70
     1
  0
XRECORD
  5
160
102
{ACAD_REACTORS
330
15F
102
}
330
15F
100
AcDbXrecord
280
     1
102
RTVSPropertyOp0
 70
     0
102
RTVSPropertyOp1
 70
     0
102
RTVSPropertyOp2
 70
     0
102
RTVSPropertyOp3
 70
     0
102
RTVSPropertyOp4
 70
     0
102
RTVSPropertyOp5
 70
     0
102
RTVSPropertyOp6
 70
     0
102
RTVSPropertyOp7
 70
     0
102
RTVSPropertyOp8
 70
     0
102
RTVSPropertyOp9
 70
     0
102
RTVSPropertyOp10
 70
     0
102
RTVSPropertyOp11
 70
     0
102
RTVSPropertyOp12
 70
     0
102
RTVSPropertyOp13
 70
     0
102
RTVSPropertyOp14
 70
     2
102
RTVSPropertyOp15
 70
     0
102
RTVSPropertyOp16
 70
     0
102
RTVSPropertyOp17
 70
     0
102
RTVSPropertyOp18
 70
     0
102
RTVSPropertyOp19
 70
     0
102
RTVSPropertyOp20
 70
     0
102
RTVSPropertyOp21
 70
     0
102
RTVSPropertyOp22
 70
     0
102
RTVSPropertyOp23
 70
     0
102
RTVSPropertyOp24
 70
     0
102
RTVSPropertyOp25
 70
     0
102
RTVSPropertyOp26
 70
     0
102
RTVSPropertyOp27
 70
     0
102
RTVSPropertyOp28
 70
     0
102
RTVSPropertyOp29
 70
     0
102
RTVSPropertyOp30
 70
     0
102
RTVSPropertyOp31
 70
     0
102
RTVSPropertyOp32
 70
     0
  0
XRECORD
  5
150
102
{ACAD_REACTORS
330
14F
102
}
330
14F
100
AcDbXrecord
280
     1
102
RTVSPropertyOp0
 70
     1
102
RTVSPropertyOp1
 70
     1
102
RTVSPropertyOp2
 70
     1
102
RTVSPropertyOp3
 70
     1
102
RTVSPropertyOp4
 70
     1
102
RTVSPropertyOp5
 70
     1
102
RTVSPropertyOp6
 70
     1
102
RTVSPropertyOp7
 70
     1
102
RTVSPropertyOp8
 70
     1
102
RTVSPropertyOp9
 70
     1
102
RTVSPropertyOp10
 70
     1
102
RTVSPropertyOp11
 70
     1
102
RTVSPropertyOp12
 70
     1
102
RTVSPropertyOp13
 70
     1
102
RTVSPropertyOp14
 70
     1
102
RTVSPropertyOp15
 70
     1
102
RTVSPropertyOp16
 70
     1
102
RTVSPropertyOp17
 70
     1
102
RTVSPropertyOp18
 70
     1
102
RTVSPropertyOp19
 70
     1
102
RTVSPropertyOp20
 70
     1
102
RTVSPropertyOp21
 70
     1
102
RTVSPropertyOp22
 70
     1
102
RTVSPropertyOp23
 70
     1
102
RTVSPropertyOp24
 70
     1
102
RTVSPropertyOp25
 70
     1
102
RTVSPropertyOp26
 70
     1
102
RTVSPropertyOp27
 70
     1
102
RTVSPropertyOp28
 70
     1
102
RTVSPropertyOp29
 70
     1
102
RTVSPropertyOp30
 70
     1
102
RTVSPropertyOp31
 70
     1
102
RTVSPropertyOp32
 70
     1
  0
XRECORD
  5
162
102
{ACAD_REACTORS
330
161
102
}
330
161
100
AcDbXrecord
280
     1
102
RTVSPropertyOp0
 70
     0
102
RTVSPropertyOp1
 70
     0
102
RTVSPropertyOp2
 70
     0
102
RTVSPropertyOp3
 70
     0
102
RTVSPropertyOp4
 70
     0
102
RTVSPropertyOp5
 70
     0
102
RTVSPropertyOp6
 70
     0
102
RTVSPropertyOp7
 70
     0
102
RTVSPropertyOp8
 70
     0
102
RTVSPropertyOp9
 70
     0
102
RTVSPropertyOp10
 70
     0
102
RTVSPropertyOp11
 70
     0
102
RTVSPropertyOp12
 70
     0
102
RTVSPropertyOp13
 70
     0
102
RTVSPropertyOp14
 70
     2
102
RTVSPropertyOp15
 70
     0
102
RTVSPropertyOp16
 70
     0
102
RTVSPropertyOp17
 70
     0
102
RTVSPropertyOp18
 70
     0
102
RTVSPropertyOp19
 70
     0
102
RTVSPropertyOp20
 70
     0
102
RTVSPropertyOp21
 70
     0
102
RTVSPropertyOp22
 70
     0
102
RTVSPropertyOp23
 70
     0
102
RTVSPropertyOp24
 70
     0
102
RTVSPropertyOp25
 70
     0
102
RTVSPropertyOp26
 70
     0
102
RTVSPropertyOp27
 70
     0
102
RTVSPropertyOp28
 70
     0
102
RTVSPropertyOp29
 70
     0
102
RTVSPropertyOp30
 70
     0
102
RTVSPropertyOp31
 70
     0
102
RTVSPropertyOp32
 70
     0
  0
XRECORD
  5
138
102
{ACAD_REACTORS
330
137
102
}
330
137
100
AcDbXrecord
280
     1
102
RTVSPropertyOp0
 70
     1
102
RTVSPropertyOp1
 70
     1
102
RTVSPropertyOp2
 70
     1
102
RTVSPropertyOp3
 70
     1
102
RTVSPropertyOp4
 70
     1
102
RTVSPropertyOp5
 70
     1
102
RTVSPropertyOp6
 70
     1
102
RTVSPropertyOp7
 70
     1
102
RTVSPropertyOp8
 70
     1
102
RTVSPropertyOp9
 70
     1
102
RTVSPropertyOp10
 70
     1
102
RTVSPropertyOp11
 70
     1
102
RTVSPropertyOp12
 70
     1
102
RTVSPropertyOp13
 70
     1
102
RTVSPropertyOp14
 70
     1
102
RTVSPropertyOp15
 70
     1
102
RTVSPropertyOp16
 70
     1
102
RTVSPropertyOp17
 70
     1
102
RTVSPropertyOp18
 70
     1
102
RTVSPropertyOp19
 70
     1
102
RTVSPropertyOp20
 70
     1
102
RTVSPropertyOp21
 70
     1
102
RTVSPropertyOp22
 70
     1
102
RTVSPropertyOp23
 70
     1
102
RTVSPropertyOp24
 70
     1
102
RTVSPropertyOp25
 70
     1
102
RTVSPropertyOp26
 70
     1
102
RTVSPropertyOp27
 70
     1
102
RTVSPropertyOp28
 70
     1
102
RTVSPropertyOp29
 70
     1
102
RTVSPropertyOp30
 70
     1
102
RTVSPropertyOp31
 70
     1
102
RTVSPropertyOp32
 70
     1
  0
XRECORD
  5
15E
102
{ACAD_REACTORS
330
15D
102
}
330
15D
100
AcDbXrecord
280
     1
102
RTVSPropertyOp0
 70
     1
102
RTVSPropertyOp1
 70
     1
102
RTVSPropertyOp2
 70
     1
102
RTVSPropertyOp3
 70
     1
102
RTVSPropertyOp4
 70
     1
102
RTVSPropertyOp5
 70
     1
102
RTVSPropertyOp6
 70
     1
102
RTVSPropertyOp7
 70
     1
102
RTVSPropertyOp8
 70
     1
102
RTVSPropertyOp9
 70
     1
102
RTVSPropertyOp10
 70
     1
102
RTVSPropertyOp11
 70
     1
102
RTVSPropertyOp12
 70
     1
102
RTVSPropertyOp13
 70
     1
102
RTVSPropertyOp14
 70
     1
102
RTVSPropertyOp15
 70
     1
102
RTVSPropertyOp16
 70
     1
102
RTVSPropertyOp17
 70
     1
102
RTVSPropertyOp18
 70
     1
102
RTVSPropertyOp19
 70
     1
102
RTVSPropertyOp20
 70
     1
102
RTVSPropertyOp21
 70
     1
102
RTVSPropertyOp22
 70
     1
102
RTVSPropertyOp23
 70
     1
102
RTVSPropertyOp24
 70
     1
102
RTVSPropertyOp25
 70
     1
102
RTVSPropertyOp26
 70
     1
102
RTVSPropertyOp27
 70
     1
102
RTVSPropertyOp28
 70
     1
102
RTVSPropertyOp29
 70
     1
102
RTVSPropertyOp30
 70
     1
102
RTVSPropertyOp31
 70
     1
102
RTVSPropertyOp32
 70
     1
  0
XRECORD
  5
15C
102
{ACAD_REACTORS
330
15B
102
}
330
15B
100
AcDbXrecord
280
     1
102
RTVSPropertyOp0
 70
     1
102
RTVSPropertyOp1
 70
     1
102
RTVSPropertyOp2
 70
     1
102
RTVSPropertyOp3
 70
     1
102
RTVSPropertyOp4
 70
     1
102
RTVSPropertyOp5
 70
     1
102
RTVSPropertyOp6
 70
     1
102
RTVSPropertyOp7
 70
     1
102
RTVSPropertyOp8
 70
     1
102
RTVSPropertyOp9
 70
     1
102
RTVSPropertyOp10
 70
     1
102
RTVSPropertyOp11
 70
     1
102
RTVSPropertyOp12
 70
     1
102
RTVSPropertyOp13
 70
     1
102
RTVSPropertyOp14
 70
     1
102
RTVSPropertyOp15
 70
     1
102
RTVSPropertyOp16
 70
     1
102
RTVSPropertyOp17
 70
     1
102
RTVSPropertyOp18
 70
     1
102
RTVSPropertyOp19
 70
     1
102
RTVSPropertyOp20
 70
     1
102
RTVSPropertyOp21
 70
     1
102
RTVSPropertyOp22
 70
     1
102
RTVSPropertyOp23
 70
     1
102
RTVSPropertyOp24
 70
     1
102
RTVSPropertyOp25
 70
     1
102
RTVSPropertyOp26
 70
     1
102
RTVSPropertyOp27
 70
     1
102
RTVSPropertyOp28
 70
     1
102
RTVSPropertyOp29
 70
     1
102
RTVSPropertyOp30
 70
     1
102
RTVSPropertyOp31
 70
     1
102
RTVSPropertyOp32
 70
     1
  0
XRECORD
  5
156
102
{ACAD_REACTORS
330
155
102
}
330
155
100
AcDbXrecord
280
     1
102
RTVSPropertyOp0
 70
     1
102
RTVSPropertyOp1
 70
     1
102
RTVSPropertyOp2
 70
     1
102
RTVSPropertyOp3
 70
     1
102
RTVSPropertyOp4
 70
     1
102
RTVSPropertyOp5
 70
     1
102
RTVSPropertyOp6
 70
     1
102
RTVSPropertyOp7
 70
     1
102
RTVSPropertyOp8
 70
     1
102
RTVSPropertyOp9
 70
     1
102
RTVSPropertyOp10
 70
     1
102
RTVSPropertyOp11
 70
     1
102
RTVSPropertyOp12
 70
     1
102
RTVSPropertyOp13
 70
     1
102
RTVSPropertyOp14
 70
     1
102
RTVSPropertyOp15
 70
     1
102
RTVSPropertyOp16
 70
     1
102
RTVSPropertyOp17
 70
     1
102
RTVSPropertyOp18
 70
     1
102
RTVSPropertyOp19
 70
     1
102
RTVSPropertyOp20
 70
     1
102
RTVSPropertyOp21
 70
     1
102
RTVSPropertyOp22
 70
     1
102
RTVSPropertyOp23
 70
     1
102
RTVSPropertyOp24
 70
     1
102
RTVSPropertyOp25
 70
     1
102
RTVSPropertyOp26
 70
     1
102
RTVSPropertyOp27
 70
     1
102
RTVSPropertyOp28
 70
     1
102
RTVSPropertyOp29
 70
     1
102
RTVSPropertyOp30
 70
     1
102
RTVSPropertyOp31
 70
     1
102
RTVSPropertyOp32
 70
     1
  0
XRECORD
  5
158
102
{ACAD_REACTORS
330
157
102
}
330
157
100
AcDbXrecord
280
     1
102
RTVSPropertyOp0
 70
     1
102
RTVSPropertyOp1
 70
     1
102
RTVSPropertyOp2
 70
     1
102
RTVSPropertyOp3
 70
     1
102
RTVSPropertyOp4
 70
     1
102
RTVSPropertyOp5
 70
     1
102
RTVSPropertyOp6
 70
     1
102
RTVSPropertyOp7
 70
     1
102
RTVSPropertyOp8
 70
     1
102
RTVSPropertyOp9
 70
     1
102
RTVSPropertyOp10
 70
     1
102
RTVSPropertyOp11
 70
     1
102
RTVSPropertyOp12
 70
     1
102
RTVSPropertyOp13
 70
     1
102
RTVSPropertyOp14
 70
     1
102
RTVSPropertyOp15
 70
     1
102
RTVSPropertyOp16
 70
     1
102
RTVSPropertyOp17
 70
     1
102
RTVSPropertyOp18
 70
     1
102
RTVSPropertyOp19
 70
     1
102
RTVSPropertyOp20
 70
     1
102
RTVSPropertyOp21
 70
     1
102
RTVSPropertyOp22
 70
     1
102
RTVSPropertyOp23
 70
     1
102
RTVSPropertyOp24
 70
     1
102
RTVSPropertyOp25
 70
     1
102
RTVSPropertyOp26
 70
     1
102
RTVSPropertyOp27
 70
     1
102
RTVSPropertyOp28
 70
     1
102
RTVSPropertyOp29
 70
     1
102
RTVSPropertyOp30
 70
     1
102
RTVSPropertyOp31
 70
     1
102
RTVSPropertyOp32
 70
     1
  0
XRECORD
  5
14E
102
{ACAD_REACTORS
330
14D
102
}
330
14D
100
AcDbXrecord
280
     1
102
RTVSPropertyOp0
 70
     1
102
RTVSPropertyOp1
 70
     1
102
RTVSPropertyOp2
 70
     1
102
RTVSPropertyOp3
 70
     1
102
RTVSPropertyOp4
 70
     1
102
RTVSPropertyOp5
 70
     1
102
RTVSPropertyOp6
 70
     1
102
RTVSPropertyOp7
 70
     1
102
RTVSPropertyOp8
 70
     1
102
RTVSPropertyOp9
 70
     1
102
RTVSPropertyOp10
 70
     1
102
RTVSPropertyOp11
 70
     1
102
RTVSPropertyOp12
 70
     1
102
RTVSPropertyOp13
 70
     1
102
RTVSPropertyOp14
 70
     1
102
RTVSPropertyOp15
 70
     1
102
RTVSPropertyOp16
 70
     1
102
RTVSPropertyOp17
 70
     1
102
RTVSPropertyOp18
 70
     1
102
RTVSPropertyOp19
 70
     1
102
RTVSPropertyOp20
 70
     1
102
RTVSPropertyOp21
 70
     1
102
RTVSPropertyOp22
 70
     1
102
RTVSPropertyOp23
 70
     1
102
RTVSPropertyOp24
 70
     1
102
RTVSPropertyOp25
 70
     1
102
RTVSPropertyOp26
 70
     1
102
RTVSPropertyOp27
 70
     1
102
RTVSPropertyOp28
 70
     1
102
RTVSPropertyOp29
 70
     1
102
RTVSPropertyOp30
 70
     1
102
RTVSPropertyOp31
 70
     1
102
RTVSPropertyOp32
 70
     1
  0
XRECORD
  5
13A
102
{ACAD_REACTORS
330
139
102
}
330
139
100
AcDbXrecord
280
     1
102
RTVSPropertyOp0
 70
     1
102
RTVSPropertyOp1
 70
     1
102
RTVSPropertyOp2
 70
     1
102
RTVSPropertyOp3
 70
     1
102
RTVSPropertyOp4
 70
     1
102
RTVSPropertyOp5
 70
     1
102
RTVSPropertyOp6
 70
     1
102
RTVSPropertyOp7
 70
     1
102
RTVSPropertyOp8
 70
     1
102
RTVSPropertyOp9
 70
     1
102
RTVSPropertyOp10
 70
     1
102
RTVSPropertyOp11
 70
     1
102
RTVSPropertyOp12
 70
     1
102
RTVSPropertyOp13
 70
     1
102
RTVSPropertyOp14
 70
     1
102
RTVSPropertyOp15
 70
     1
102
RTVSPropertyOp16
 70
     1
102
RTVSPropertyOp17
 70
     1
102
RTVSPropertyOp18
 70
     1
102
RTVSPropertyOp19
 70
     1
102
RTVSPropertyOp20
 70
     1
102
RTVSPropertyOp21
 70
     1
102
RTVSPropertyOp22
 70
     1
102
RTVSPropertyOp23
 70
     1
102
RTVSPropertyOp24
 70
     1
102
RTVSPropertyOp25
 70
     1
102
RTVSPropertyOp26
 70
     1
102
RTVSPropertyOp27
 70
     1
102
RTVSPropertyOp28
 70
     1
102
RTVSPropertyOp29
 70
     1
102
RTVSPropertyOp30
 70
     1
102
RTVSPropertyOp31
 70
     1
102
RTVSPropertyOp32
 70
     1
  0
XRECORD
  5
15A
102
{ACAD_REACTORS
330
159
102
}
330
159
100
AcDbXrecord
280
     1
102
RTVSPropertyOp0
 70
     1
102
RTVSPropertyOp1
 70
     1
102
RTVSPropertyOp2
 70
     1
102
RTVSPropertyOp3
 70
     1
102
RTVSPropertyOp4
 70
     1
102
RTVSPropertyOp5
 70
     1
102
RTVSPropertyOp6
 70
     1
102
RTVSPropertyOp7
 70
     1
102
RTVSPropertyOp8
 70
     1
102
RTVSPropertyOp9
 70
     1
102
RTVSPropertyOp10
 70
     1
102
RTVSPropertyOp11
 70
     1
102
RTVSPropertyOp12
 70
     1
102
RTVSPropertyOp13
 70
     1
102
RTVSPropertyOp14
 70
     1
102
RTVSPropertyOp15
 70
     1
102
RTVSPropertyOp16
 70
     1
102
RTVSPropertyOp17
 70
     1
102
RTVSPropertyOp18
 70
     1
102
RTVSPropertyOp19
 70
     1
102
RTVSPropertyOp20
 70
     1
102
RTVSPropertyOp21
 70
     1
102
RTVSPropertyOp22
 70
     1
102
RTVSPropertyOp23
 70
     1
102
RTVSPropertyOp24
 70
     1
102
RTVSPropertyOp25
 70
     1
102
RTVSPropertyOp26
 70
     1
102
RTVSPropertyOp27
 70
     1
102
RTVSPropertyOp28
 70
     1
102
RTVSPropertyOp29
 70
     1
102
RTVSPropertyOp30
 70
     1
102
RTVSPropertyOp31
 70
     1
102
RTVSPropertyOp32
 70
     1
  0
ENDSEC
  0
EOF
