  0
SECTION
  2
HEADER
  9
$ACADVER
  1
AC1015
  9
$ACADMAINTVER
 70
    20
  9
$DWGCODEPAGE
  3
ANSI_1252
  9
$INSBASE
 10
2.560765446992027
 20
2.953614531811192
 30
0.0
  9
$EXTMIN
 10
2.508983081779242
 20
2.916918989220227
 30
0.0
  9
$EXTMAX
 10
8.199350245056139
 20
6.012002570858684
 30
0.0
  9
$LIMMIN
 10
0.0
 20
0.0
  9
$LIMMAX
 10
11.0
 20
8.5
  9
$ORTHOMODE
 70
     0
  9
$REGENMODE
 70
     1
  9
$FILLMODE
 70
     1
  9
$QTEXTMODE
 70
     0
  9
$MIRRTEXT
 70
     0
  9
$LTSCALE
 40
1.0
  9
$ATTMODE
 70
     1
  9
$TEXTSIZE
 40
0.2
  9
$TRACEWID
 40
0.05
  9
$TEXTSTYLE
  7
Standard
  9
$CLAYER
  8
0
  9
$CELTYPE
  6
ByLayer
  9
$CECOLOR
 62
   256
  9
$CELTSCALE
 40
1.0
  9
$DISPSILH
 70
     0
  9
$DIMSCALE
 40
1.0
  9
$DIMASZ
 40
0.0708661417322835
  9
$DIMEXO
 40
0.0625
  9
$DIMDLI
 40
0.38
  9
$DIMRND
 40
0.0
  9
$DIMDLE
 40
0.0
  9
$DIMEXE
 40
0.18
  9
$DIMTP
 40
0.0
  9
$DIMTM
 40
0.0
  9
$DIMTXT
 40
0.0708661417322835
  9
$DIMCEN
 40
0.09
  9
$DIMTSZ
 40
0.0
  9
$DIMTOL
 70
     0
  9
$DIMLIM
 70
     0
  9
$DIMTIH
 70
     1
  9
$DIMTOH
 70
     1
  9
$DIMSE1
 70
     0
  9
$DIMSE2
 70
     0
  9
$DIMTAD
 70
     0
  9
$DIMZIN
 70
     0
  9
$DIMBLK
  1

  9
$DIMASO
 70
     1
  9
$DIMSHO
 70
     1
  9
$DIMPOST
  1

  9
$DIMAPOST
  1

  9
$DIMALT
 70
     0
  9
$DIMALTD
 70
     2
  9
$DIMALTF
 40
25.4
  9
$DIMLFAC
 40
1.0
  9
$DIMTOFL
 70
     0
  9
$DIMTVP
 40
0.0
  9
$DIMTIX
 70
     0
  9
$DIMSOXD
 70
     0
  9
$DIMSAH
 70
     0
  9
$DIMBLK1
  1

  9
$DIMBLK2
  1

  9
$DIMSTYLE
  2
Standard
  9
$DIMCLRD
 70
     0
  9
$DIMCLRE
 70
     0
  9
$DIMCLRT
 70
     0
  9
$DIMTFAC
 40
1.0
  9
$DIMGAP
 40
0.09
  9
$DIMJUST
 70
     0
  9
$DIMSD1
 70
     0
  9
$DIMSD2
 70
     0
  9
$DIMTOLJ
 70
     1
  9
$DIMTZIN
 70
     0
  9
$DIMALTZ
 70
     0
  9
$DIMALTTZ
 70
     0
  9
$DIMUPT
 70
     0
  9
$DIMDEC
 70
     4
  9
$DIMTDEC
 70
     4
  9
$DIMALTU
 70
     2
  9
$DIMALTTD
 70
     2
  9
$DIMTXSTY
  7
Standard
  9
$DIMAUNIT
 70
     0
  9
$DIMADEC
 70
     0
  9
$DIMALTRND
 40
0.0
  9
$DIMAZIN
 70
     0
  9
$DIMDSEP
 70
    46
  9
$DIMATFIT
 70
     3
  9
$DIMFRAC
 70
     0
  9
$DIMLDRBLK
  1

  9
$DIMLUNIT
 70
     2
  9
$DIMLWD
 70
    -2
  9
$DIMLWE
 70
    -2
  9
$DIMTMOVE
 70
     0
  9
$LUNITS
 70
     2
  9
$LUPREC
 70
     4
  9
$SKETCHINC
 40
0.1
  9
$FILLETRAD
 40
0.0
  9
$AUNITS
 70
     0
  9
$AUPREC
 70
     0
  9
$MENU
  1
.
  9
$ELEVATION
 40
0.0
  9
$PELEVATION
 40
0.0
  9
$THICKNESS
 40
0.0
  9
$LIMCHECK
 70
     0
  9
$CHAMFERA
 40
0.0
  9
$CHAMFERB
 40
0.0
  9
$CHAMFERC
 40
0.0
  9
$CHAMFERD
 40
0.0
  9
$SKPOLY
 70
     0
  9
$TDCREATE
 40
2456514.568162836
  9
$TDUCREATE
 40
2456514.859829502
  9
$TDUPDATE
 40
2456514.574341586
  9
$TDUUPDATE
 40
2456514.866008252
  9
$TDINDWG
 40
0.0018998611
  9
$TDUSRTIMER
 40
0.0018998611
  9
$USRTIMER
 70
     1
  9
$ANGBASE
 50
0.0
  9
$ANGDIR
 70
     0
  9
$PDMODE
 70
     0
  9
$PDSIZE
 40
0.0
  9
$PLINEWID
 40
0.0
  9
$SPLFRAME
 70
     0
  9
$SPLINETYPE
 70
     6
  9
$SPLINESEGS
 70
     8
  9
$HANDSEED
  5
165
  9
$SURFTAB1
 70
     6
  9
$SURFTAB2
 70
     6
  9
$SURFTYPE
 70
     6
  9
$SURFU
 70
     6
  9
$SURFV
 70
     6
  9
$UCSBASE
  2

  9
$UCSNAME
  2

  9
$UCSORG
 10
0.0
 20
0.0
 30
0.0
  9
$UCSXDIR
 10
1.0
 20
0.0
 30
0.0
  9
$UCSYDIR
 10
0.0
 20
1.0
 30
0.0
  9
$UCSORTHOREF
  2

  9
$UCSORTHOVIEW
 70
     0
  9
$UCSORGTOP
 10
0.0
 20
0.0
 30
0.0
  9
$UCSORGBOTTOM
 10
0.0
 20
0.0
 30
0.0
  9
$UCSORGLEFT
 10
0.0
 20
0.0
 30
0.0
  9
$UCSORGRIGHT
 10
0.0
 20
0.0
 30
0.0
  9
$UCSORGFRONT
 10
0.0
 20
0.0
 30
0.0
  9
$UCSORGBACK
 10
0.0
 20
0.0
 30
0.0
  9
$PUCSBASE
  2

  9
$PUCSNAME
  2

  9
$PUCSORG
 10
0.0
 20
0.0
 30
0.0
  9
$PUCSXDIR
 10
1.0
 20
0.0
 30
0.0
  9
$PUCSYDIR
 10
0.0
 20
1.0
 30
0.0
  9
$PUCSORTHOREF
  2

  9
$PUCSORTHOVIEW
 70
     0
  9
$PUCSORGTOP
 10
0.0
 20
0.0
 30
0.0
  9
$PUCSORGBOTTOM
 10
0.0
 20
0.0
 30
0.0
  9
$PUCSORGLEFT
 10
0.0
 20
0.0
 30
0.0
  9
$PUCSORGRIGHT
 10
0.0
 20
0.0
 30
0.0
  9
$PUCSORGFRONT
 10
0.0
 20
0.0
 30
0.0
  9
$PUCSORGBACK
 10
0.0
 20
0.0
 30
0.0
  9
$USERI1
 70
     0
  9
$USERI2
 70
     0
  9
$USERI3
 70
     0
  9
$USERI4
 70
     0
  9
$USERI5
 70
     0
  9
$USERR1
 40
0.0
  9
$USERR2
 40
0.0
  9
$USERR3
 40
0.0
  9
$USERR4
 40
0.0
  9
$USERR5
 40
0.0
  9
$WORLDVIEW
 70
     1
  9
$SHADEDGE
 70
     3
  9
$SHADEDIF
 70
    70
  9
$TILEMODE
 70
     1
  9
$MAXACTVP
 70
    64
  9
$PINSBASE
 10
0.0
 20
0.0
 30
0.0
  9
$PLIMCHECK
 70
     0
  9
$PEXTMIN
 10
0.0
 20
0.0
 30
0.0
  9
$PEXTMAX
 10
11.0
 20
8.5
 30
0.0
  9
$PLIMMIN
 10
0.0
 20
0.0
  9
$PLIMMAX
 10
11.0
 20
8.5
  9
$UNITMODE
 70
     0
  9
$VISRETAIN
 70
     1
  9
$PLINEGEN
 70
     0
  9
$PSLTSCALE
 70
     1
  9
$TREEDEPTH
 70
  3020
  9
$CMLSTYLE
  2
Standard
  9
$CMLJUST
 70
     0
  9
$CMLSCALE
 40
1.0
  9
$PROXYGRAPHICS
 70
     1
  9
$MEASUREMENT
 70
     0
  9
$CELWEIGHT
370
    -1
  9
$ENDCAPS
280
     0
  9
$JOINSTYLE
280
     0
  9
$LWDISPLAY
290
     0
  9
$INSUNITS
 70
     1
  9
$HYPERLINKBASE
  1

  9
$STYLESHEET
  1

  9
$XEDIT
290
     1
  9
$CEPSNTYPE
380
     0
  9
$PSTYLEMODE
290
     1
  9
$FINGERPRINTGUID
  2
{9B4B12E3-C381-4D38-B1DF-354BA6F26EAC}
  9
$VERSIONGUID
  2
{05C9CF8D-A8CD-420E-821E-12E9F2513DCB}
  9
$EXTNAMES
290
     1
  9
$PSVPSCALE
 40
0.0
  9
$OLESTARTUP
290
     0
  0
ENDSEC
  0
SECTION
  2
CLASSES
  0
CLASS
  1
ACDBDICTIONARYWDFLT
  2
AcDbDictionaryWithDefault
  3
ObjectDBX Classes
 90
        0
280
     0
281
     0
  0
CLASS
  1
MATERIAL
  2
AcDbMaterial
  3
ObjectDBX Classes
 90
     1153
280
     0
281
     0
  0
CLASS
  1
VISUALSTYLE
  2
AcDbVisualStyle
  3
ObjectDBX Classes
 90
     4095
280
     0
281
     0
  0
CLASS
  1
SCALE
  2
AcDbScale
  3
ObjectDBX Classes
 90
     1153
280
     0
281
     0
  0
CLASS
  1
TABLESTYLE
  2
AcDbTableStyle
  3
ObjectDBX Classes
 90
     4095
280
     0
281
     0
  0
CLASS
  1
MLEADERSTYLE
  2
AcDbMLeaderStyle
  3
ACDB_MLEADERSTYLE_CLASS
 90
     4095
280
     0
281
     0
  0
CLASS
  1
DICTIONARYVAR
  2
AcDbDictionaryVar
  3
ObjectDBX Classes
 90
        0
280
     0
281
     0
  0
CLASS
  1
CELLSTYLEMAP
  2
AcDbCellStyleMap
  3
ObjectDBX Classes
 90
     1152
280
     0
281
     0
  0
CLASS
  1
ACDBPLACEHOLDER
  2
AcDbPlaceHolder
  3
ObjectDBX Classes
 90
        0
280
     0
281
     0
  0
CLASS
  1
LAYOUT
  2
AcDbLayout
  3
ObjectDBX Classes
 90
        0
280
     0
281
     0
  0
ENDSEC
  0
SECTION
  2
TABLES
  0
TABLE
  2
VPORT
  5
23
330
0
100
AcDbSymbolTable
 70
     1
  0
VPORT
  5
24
330
23
100
AcDbSymbolTableRecord
100
AcDbViewportTableRecord
  2
*Active
 70
     0
 10
0.0
 20
0.0
 11
1.0
 21
1.0
 12
8.588058887677208
 22
4.25
 13
0.0
 23
0.0
 14
1.0
 24
1.0
 15
0.0
 25
0.0
 16
0.0
 26
0.0
 36
1.0
 17
0.0
 27
0.0
 37
0.0
 40
8.50572210419757
 41
2.02071973827699
 42
50.0
 43
0.0
 44
0.0
 50
0.0
 51
0.0
 71
     0
 72
   100
 73
     1
 74
     1
 75
     0
 76
     0
 77
     0
 78
     0
281
     0
 65
     1
110
0.0
120
0.0
130
0.0
111
1.0
121
0.0
131
0.0
112
0.0
122
1.0
132
0.0
 79
     0
146
0.0
1001
ACAD_NAV_VCDISPLAY
1070
     3
  0
ENDTAB
  0
TABLE
  2
LTYPE
  5
1E
330
0
100
AcDbSymbolTable
 70
     3
  0
LTYPE
  5
1F
330
1E
100
AcDbSymbolTableRecord
100
AcDbLinetypeTableRecord
  2
ByBlock
 70
     0
  3

 72
    65
 73
     0
 40
0.0
  0
LTYPE
  5
20
330
1E
100
AcDbSymbolTableRecord
100
AcDbLinetypeTableRecord
  2
ByLayer
 70
     0
  3

 72
    65
 73
     0
 40
0.0
  0
LTYPE
  5
12
330
1E
100
AcDbSymbolTableRecord
100
AcDbLinetypeTableRecord
  2
Continuous
 70
     0
  3
Solid line
 72
    65
 73
     0
 40
0.0
  0
LTYPE
  5
124
330
1E
100
AcDbSymbolTableRecord
100
AcDbLinetypeTableRecord
  2
DASHED
 70
     0
  3
Dashed __ __ __ __ __ __ __ __ __ __ __ __ __ _
 72
    65
 73
     2
 40
0.75
 49
0.5
 74
     0
 49
-0.25
 74
     0
  0
LTYPE
  5
125
330
1E
100
AcDbSymbolTableRecord
100
AcDbLinetypeTableRecord
  2
DOT
 70
     0
  3
Dot . . . . . . . . . . . . . . . . . . . . . .
 72
    65
 73
     2
 40
0.25
 49
0.0
 74
     0
 49
-0.25
 74
     0
  0
ENDTAB
  0
TABLE
  2
LAYER
  5
1A
330
0
100
AcDbSymbolTable
 70
     2
  0
LAYER
  5
4
330
1A
100
AcDbSymbolTableRecord
100
AcDbLayerTableRecord
  2
0
 70
     0
 62
     7
  6
Continuous
370
    -3
390
5
  0
LAYER
  5
5B
330
1A
100
AcDbSymbolTableRecord
100
AcDbLayerTableRecord
  2
Visible (ANSI)
 70
     0
 62
     7
  6
Continuous
370
    18
390
5
  0
ENDTAB
  0
TABLE
  2
STYLE
  5
1B
330
0
100
AcDbSymbolTable
 70
     1
  0
STYLE
  5
1C
330
1B
100
AcDbSymbolTableRecord
100
AcDbTextStyleTableRecord
  2
Standard
 70
     0
 40
0.0
 41
0.8000000119209289
 50
0.0
 71
     0
 42
0.2
  3
txt
  4

  0
ENDTAB
  0
TABLE
  2
VIEW
  5
21
330
0
100
AcDbSymbolTable
 70
     0
  0
ENDTAB
  0
TABLE
  2
UCS
  5
22
330
0
100
AcDbSymbolTable
 70
     0
  0
ENDTAB
  0
TABLE
  2
APPID
  5
28
330
0
100
AcDbSymbolTable
 70
     3
  0
APPID
  5
29
330
28
100
AcDbSymbolTableRecord
100
AcDbRegAppTableRecord
  2
ACAD
 70
     0
  0
APPID
  5
27
330
28
100
AcDbSymbolTableRecord
100
AcDbRegAppTableRecord
  2
ACAD_NAV_VCDISPLAY
 70
     0
  0
APPID
  5
164
330
28
100
AcDbSymbolTableRecord
100
AcDbRegAppTableRecord
  2
ACAD_MLEADERVER
 70
     0
  0
ENDTAB
  0
TABLE
  2
DIMSTYLE
  5
2A
330
0
100
AcDbSymbolTable
 70
     1
100
AcDbDimStyleTable
 71
     0
  0
DIMSTYLE
105
48
330
2A
100
AcDbSymbolTableRecord
100
AcDbDimStyleTableRecord
  2
Standard
 70
     0
340
1C
  0
ENDTAB
  0
TABLE
  2
BLOCK_RECORD
  5
1
330
0
100
AcDbSymbolTable
 70
     0
  0
BLOCK_RECORD
  5
2
330
1
100
AcDbSymbolTableRecord
100
AcDbBlockTableRecord
  2
*Model_Space
340
14
  0
BLOCK_RECORD
  5
16
330
1
100
AcDbSymbolTableRecord
100
AcDbBlockTableRecord
  2
*Paper_Space
340
19
  0
ENDTAB
  0
ENDSEC
  0
SECTION
  2
BLOCKS
  0
BLOCK
  5
3
330
2
100
AcDbEntity
  8
0
100
AcDbBlockBegin
  2
*Model_Space
 70
     0
 10
0.0
 20
0.0
 30
0.0
  3
*Model_Space
  1

  0
ENDBLK
  5
13
330
2
100
AcDbEntity
  8
0
100
AcDbBlockEnd
  0
BLOCK
  5
17
330
16
100
AcDbEntity
 67
     1
  8
0
100
AcDbBlockBegin
  2
*Paper_Space
 70
     0
 10
0.0
 20
0.0
 30
0.0
  3
*Paper_Space
  1

  0
ENDBLK
  5
18
330
16
100
AcDbEntity
 67
     1
  8
0
100
AcDbBlockEnd
  0
ENDSEC
  0
SECTION
  2
ENTITIES
  0
ARC
  5
5A
330
2
100
AcDbEntity
  8
Visible (ANSI)
100
AcDbCircle
 10
2.659108081779241
 20
3.067043989220228
 30
0.0
 40
0.1501249999999991
100
AcDbArc
 50
180.0
 51
270.0000000000002
  0
ARC
  5
5C
330
2
100
AcDbEntity
  8
Visible (ANSI)
100
AcDbCircle
 10
2.659108081779241
 20
3.067043989220229
 30
0.0
 40
0.0781249999999998
100
AcDbArc
 50
180.0
 51
270.0
  0
LINE
  5
5D
330
2
100
AcDbEntity
  8
Visible (ANSI)
100
AcDbLine
 10
2.666666663417696
 20
2.988918989220229
 30
0.0
 11
2.659108081779241
 21
2.988918989220229
 31
0.0
  0
LINE
  5
5E
330
2
100
AcDbEntity
  8
Visible (ANSI)
100
AcDbLine
 10
8.04166666341768
 20
2.988918989220227
 30
0.0
 11
2.666666663417692
 21
2.988918989220228
 31
0.0
  0
LINE
  5
5F
330
2
100
AcDbEntity
  8
Visible (ANSI)
100
AcDbLine
 10
8.049225245056137
 20
2.988918989220229
 30
0.0
 11
8.041666663417682
 21
2.988918989220229
 31
0.0
  0
LINE
  5
60
330
2
100
AcDbEntity
  8
Visible (ANSI)
100
AcDbLine
 10
2.659108081779241
 20
2.916918989220229
 30
0.0
 11
2.666666663417696
 21
2.916918989220229
 31
0.0
  0
LINE
  5
61
330
2
100
AcDbEntity
  8
Visible (ANSI)
100
AcDbLine
 10
8.041666663417682
 20
2.916918989220229
 30
0.0
 11
8.049225245056137
 21
2.916918989220229
 31
0.0
  0
LINE
  5
62
330
2
100
AcDbEntity
  8
Visible (ANSI)
100
AcDbLine
 10
2.666666663417693
 20
2.916918989220228
 30
0.0
 11
8.04166666341768
 21
2.916918989220227
 31
0.0
  0
LINE
  5
63
330
2
100
AcDbEntity
  8
Visible (ANSI)
100
AcDbLine
 10
2.666666663417693
 20
2.988918989220228
 30
0.0
 11
2.666666663417693
 21
2.916918989220228
 31
0.0
  0
LINE
  5
64
330
2
100
AcDbEntity
  8
Visible (ANSI)
100
AcDbLine
 10
8.04166666341768
 20
2.988918989220227
 30
0.0
 11
8.04166666341768
 21
2.916918989220227
 31
0.0
  0
LINE
  5
65
330
2
100
AcDbEntity
  8
Visible (ANSI)
100
AcDbLine
 10
5.017574576225471
 20
6.012002570858684
 30
0.0
 11
8.082350245056144
 21
6.012002570858682
 31
0.0
  0
LINE
  5
66
330
2
100
AcDbEntity
  8
Visible (ANSI)
100
AcDbLine
 10
5.017574576225468
 20
3.980012673687919
 30
0.0
 11
5.017574576225471
 21
6.012002570858684
 31
0.0
  0
LINE
  5
67
330
2
100
AcDbEntity
  8
Visible (ANSI)
100
AcDbLine
 10
8.082350245056142
 20
3.199502570858688
 30
0.0
 11
8.035140254602103
 21
3.199502570858688
 31
0.0
  0
LINE
  5
68
330
2
100
AcDbEntity
  8
Visible (ANSI)
100
AcDbLine
 10
8.127350245056138
 20
6.012002570858681
 30
0.0
 11
8.199350245056139
 21
6.012002570858681
 31
0.0
  0
LINE
  5
69
330
2
100
AcDbEntity
  8
Visible (ANSI)
100
AcDbLine
 10
8.199350245056136
 20
3.067043989220229
 30
0.0
 11
8.199350245056139
 21
6.012002570858681
 31
0.0
  0
LINE
  5
6A
330
2
100
AcDbEntity
  8
Visible (ANSI)
100
AcDbLine
 10
8.127350245056138
 20
6.012002570858681
 30
0.0
 11
8.127350245056137
 21
3.067043989220229
 31
0.0
  0
LINE
  5
6B
330
2
100
AcDbEntity
  8
Visible (ANSI)
100
AcDbLine
 10
2.673072978949996
 20
3.199502570858684
 30
0.0
 11
2.625983081779243
 21
3.199502570858684
 31
0.0
  0
LINE
  5
6C
330
2
100
AcDbEntity
  8
Visible (ANSI)
100
AcDbLine
 10
4.94075875060992
 20
6.012002570858679
 30
0.0
 11
4.94075875060992
 21
3.980012673687919
 31
0.0
  0
LINE
  5
6D
330
2
100
AcDbEntity
  8
Visible (ANSI)
100
AcDbLine
 10
2.625983081779244
 20
6.012002570858679
 30
0.0
 11
4.94075875060992
 21
6.012002570858679
 31
0.0
  0
LINE
  5
6E
330
2
100
AcDbEntity
  8
Visible (ANSI)
100
AcDbLine
 10
2.580983081779241
 20
3.067043989220229
 30
0.0
 11
2.580983081779241
 21
6.012002570858677
 31
0.0
  0
LINE
  5
6F
330
2
100
AcDbEntity
  8
Visible (ANSI)
100
AcDbLine
 10
2.580983081779241
 20
6.012002570858677
 30
0.0
 11
2.508983081779242
 21
6.012002570858679
 31
0.0
  0
LINE
  5
70
330
2
100
AcDbEntity
  8
Visible (ANSI)
100
AcDbLine
 10
2.508983081779242
 20
6.012002570858679
 30
0.0
 11
2.508983081779242
 21
3.067043989220229
 31
0.0
  0
ARC
  5
71
330
2
100
AcDbEntity
  8
Visible (ANSI)
100
AcDbCircle
 10
8.049225245056135
 20
3.067043989220229
 30
0.0
 40
0.1501249999999999
100
AcDbArc
 50
270.0000000000005
 51
0.0
  0
ARC
  5
72
330
2
100
AcDbEntity
  8
Visible (ANSI)
100
AcDbCircle
 10
8.049225245056137
 20
3.067043989220228
 30
0.0
 40
0.0781249999999997
100
AcDbArc
 50
270.0
 51
0.0
  0
CIRCLE
  5
73
330
2
100
AcDbEntity
  8
Visible (ANSI)
100
AcDbCircle
 10
6.830074576225465
 20
5.637002570858687
 30
0.0
 40
0.0779999999999999
  0
CIRCLE
  5
74
330
2
100
AcDbEntity
  8
Visible (ANSI)
100
AcDbCircle
 10
5.517574576225467
 20
5.637002570858686
 30
0.0
 40
0.0779999999999999
  0
CIRCLE
  5
75
330
2
100
AcDbEntity
  8
Visible (ANSI)
100
AcDbCircle
 10
3.815758750609925
 20
5.637002570858676
 30
0.0
 40
0.0779999999999999
  0
LINE
  5
76
330
2
100
AcDbEntity
  8
Visible (ANSI)
100
AcDbLine
 10
8.08235024505614
 20
3.199502570858686
 30
0.0
 11
8.12735024505614
 21
3.199502570858687
 31
0.0
  0
LINE
  5
77
330
2
100
AcDbEntity
  8
Visible (ANSI)
100
AcDbLine
 10
8.127350245056142
 20
6.012002570858681
 30
0.0
 11
8.082350245056142
 21
6.012002570858682
 31
0.0
  0
LINE
  5
78
330
2
100
AcDbEntity
  8
Visible (ANSI)
100
AcDbLine
 10
2.625983081779245
 20
6.012002570858678
 30
0.0
 11
2.580983081779244
 21
6.012002570858679
 31
0.0
  0
LINE
  5
79
330
2
100
AcDbEntity
  8
Visible (ANSI)
100
AcDbLine
 10
2.580983081779245
 20
3.199502570858683
 30
0.0
 11
2.625983081779245
 21
3.199502570858683
 31
0.0
  0
SPLINE
  5
7A
330
2
100
AcDbEntity
  8
Visible (ANSI)
100
AcDbSpline
210
0.0
220
0.0
230
1.0
 70
     8
 71
     3
 72
     8
 73
     4
 74
     0
 42
0.0000000001
 43
0.0000000001
 40
3.067558875403606
 40
3.067558875403606
 40
3.067558875403606
 40
3.067558875403606
 40
3.208778677894374
 40
3.208778677894374
 40
3.208778677894374
 40
3.208778677894374
 10
2.677469698324972
 20
3.823506886891777
 30
0.0
 10
2.674452934092348
 20
3.809431298829624
 30
0.0
 10
2.673072978949996
 20
3.795408009901353
 30
0.0
 10
2.673072978949996
 20
3.782012673687916
 30
0.0
  0
LINE
  5
7B
330
2
100
AcDbEntity
  8
Visible (ANSI)
100
AcDbLine
 10
2.697856797732081
 20
3.877930109872805
 30
0.0
 11
2.729370596835756
 21
3.877930109872794
 31
0.0
  0
LINE
  5
7C
330
2
100
AcDbEntity
  8
Visible (ANSI)
100
AcDbLine
 10
2.729370596835756
 20
3.877930109872794
 30
0.0
 11
2.750703277236413
 21
3.877930109872794
 31
0.0
  0
LINE
  5
7D
330
2
100
AcDbEntity
  8
Visible (ANSI)
100
AcDbLine
 10
2.750703277236413
 20
3.877930109872794
 30
0.0
 11
2.716223827285224
 21
3.905405300002053
 31
0.0
  0
ARC
  5
7E
330
2
100
AcDbEntity
  8
Visible (ANSI)
100
AcDbCircle
 10
2.871072978950016
 20
3.782012673687904
 30
0.0
 40
0.1980000000000231
100
AcDbArc
 50
141.4501664203928
 51
151.0247677194027
  0
ARC
  5
7F
330
2
100
AcDbEntity
  8
Visible (ANSI)
100
AcDbCircle
 10
2.871072978949996
 20
3.782012673687916
 30
0.0
 40
0.1980000000000002
100
AcDbArc
 50
90.00000000000047
 51
92.95064122696047
  0
LINE
  5
80
330
2
100
AcDbEntity
  8
Visible (ANSI)
100
AcDbLine
 10
2.865976890150058
 20
3.880881424458537
 30
0.0
 11
2.860880801350119
 21
3.979750175229158
 31
0.0
  0
ARC
  5
81
330
2
100
AcDbEntity
  8
Visible (ANSI)
100
AcDbCircle
 10
2.871072978949996
 20
3.78201267368791
 30
0.0
 40
0.0990000000000059
100
AcDbArc
 50
90.00000000000039
 51
92.95064122696016
  0
ARC
  5
82
330
2
100
AcDbEntity
  8
Visible (ANSI)
100
AcDbCircle
 10
2.871072978950004
 20
3.782012673687912
 30
0.0
 40
0.0990000000000089
100
AcDbArc
 50
141.4501664203927
 51
162.5974436532082
  0
LINE
  5
83
330
2
100
AcDbEntity
  8
Visible (ANSI)
100
AcDbLine
 10
2.79364840311761
 20
3.843708986844985
 30
0.0
 11
2.772122040194294
 21
3.860862419250283
 31
0.0
  0
SPLINE
  5
84
330
2
100
AcDbEntity
  8
Visible (ANSI)
100
AcDbSpline
210
0.0
220
0.0
230
1.0
 70
     8
 71
     3
 72
    18
 73
    14
 74
     0
 42
0.0000000001
 43
0.0000000001
 40
0.0
 40
0.0
 40
0.0
 40
0.0
 40
0.0622747317458011
 40
0.0622747317458011
 40
0.1873035618635872
 40
0.1873035618635872
 40
0.3165262541972557
 40
0.3165262541972557
 40
0.4253399002484193
 40
0.4253399002484193
 40
0.4882808903669035
 40
0.4882808903669035
 40
0.5794908314706807
 40
0.5794908314706807
 40
0.5794908314706807
 40
0.5794908314706807
 10
2.716223827285224
 20
3.905405300002053
 30
0.0
 10
2.721282619744936
 20
3.911753732191511
 30
0.0
 10
2.726719436542293
 20
3.917778219562521
 30
0.0
 10
2.744206816177001
 20
3.934904578267945
 30
0.0
 10
2.757225263943097
 20
3.944768854876102
 30
0.0
 10
2.784773978846389
 20
3.96095456127136
 30
0.0
 10
2.7984444360416
 20
3.96665219638054
 30
0.0
 10
2.820814690541985
 20
3.97382883771172
 30
0.0
 10
2.830276365021333
 20
3.975917767478362
 30
0.0
 10
2.842284463016553
 20
3.97795946572685
 30
0.0
 10
2.845998690787959
 20
3.978438903476673
 30
0.0
 10
2.852874919315723
 20
3.979217126640573
 30
0.0
 10
2.854213518872004
 20
3.979293787179631
 30
0.0
 10
2.854493839797863
 20
3.97931734201833
 30
0.0
  0
SPLINE
  5
85
330
2
100
AcDbEntity
  8
Visible (ANSI)
100
AcDbSpline
210
0.0
220
0.0
230
1.0
 70
     8
 71
     3
 72
    22
 73
    18
 74
     0
 42
0.0000000001
 43
0.0000000001
 40
0.0
 40
0.0
 40
0.0
 40
0.0
 40
0.0437480072971324
 40
0.0437480072971324
 40
0.0808025339778019
 40
0.0808025339778019
 40
0.1171730747254243
 40
0.1171730747254243
 40
0.1654579191205846
 40
0.1654579191205846
 40
0.2463394784969517
 40
0.2463394784969517
 40
0.3067552553313431
 40
0.3067552553313431
 40
0.3440536859657595
 40
0.3440536859657595
 40
0.3811768346111992
 40
0.3811768346111992
 40
0.3811768346111992
 40
0.3811768346111992
 10
2.86278340937393
 20
3.880665007853123
 30
0.0
 10
2.862664881543025
 20
3.880655048183042
 30
0.0
 10
2.86218889632375
 20
3.880616833382752
 30
0.0
 10
2.860643128643623
 20
3.880464314594009
 30
0.0
 10
2.859673617280277
 20
3.88036206724271
 30
0.0
 10
2.857227847065352
 20
3.880047383544932
 30
0.0
 10
2.855754012541236
 20
3.879836202194152
 30
0.0
 10
2.851708412853913
 20
3.879128588796047
 30
0.0
 10
2.84892417686601
 20
3.878562147576834
 30
0.0
 10
2.840205914495254
 20
3.876247108765135
 30
0.0
 10
2.833862569470865
 20
3.874052956202179
 30
0.0
 10
2.822244640662281
 20
3.868311554364223
 30
0.0
 10
2.816958006604506
 20
3.865178926465344
 30
0.0
 10
2.808371799583528
 20
3.858735247850744
 30
0.0
 10
2.805163532312204
 20
3.856007079557278
 30
0.0
 10
2.799052501354487
 20
3.85007225897523
 30
0.0
 10
2.796217336993415
 20
3.846932819931563
 30
0.0
 10
2.79364840311761
 20
3.843708986844985
 30
0.0
  0
SPLINE
  5
86
330
2
100
AcDbEntity
  8
Visible (ANSI)
100
AcDbSpline
210
0.0
220
0.0
230
1.0
 70
     8
 71
     3
 72
    10
 73
     6
 74
     0
 42
0.0000000001
 43
0.0000000001
 40
0.0
 40
0.0
 40
0.0
 40
0.0
 40
0.1690926950881759
 40
0.1690926950881759
 40
0.3381853901768118
 40
0.3381853901768118
 40
0.3381853901768118
 40
0.3381853901768118
 10
2.854493839797878
 20
3.97931734201833
 30
0.0
 10
2.855557080216236
 20
3.979406684105354
 30
0.0
 10
2.856621025440518
 20
3.979487430307483
 30
0.0
 10
2.858750116956395
 20
3.979631715114809
 30
0.0
 10
2.859815228469138
 20
3.979695251363104
 30
0.0
 10
2.860880801350119
 20
3.979750175229158
 30
0.0
  0
SPLINE
  5
87
330
2
100
AcDbEntity
  8
Visible (ANSI)
100
AcDbSpline
210
0.0
220
0.0
230
1.0
 70
     8
 71
     3
 72
    10
 73
     6
 74
     0
 42
0.0000000001
 43
0.0000000001
 40
0.0
 40
0.0
 40
0.0
 40
0.0
 40
0.1689460311110243
 40
0.1689460311110243
 40
0.3378920622211922
 40
0.3378920622211922
 40
0.3378920622211922
 40
0.3378920622211922
 10
2.865976890150058
 20
3.880881424458537
 30
0.0
 10
2.865444103709464
 20
3.880853962525504
 30
0.0
 10
2.864911547953089
 20
3.880822194401356
 30
0.0
 10
2.863847002195364
 20
3.880750051997707
 30
0.0
 10
2.863315029583219
 20
3.880709678896644
 30
0.0
 10
2.862783409373937
 20
3.880665007853123
 30
0.0
  0
SPLINE
  5
88
330
2
100
AcDbEntity
  8
Visible (ANSI)
100
AcDbSpline
210
0.0
220
0.0
230
1.0
 70
     8
 71
     3
 72
    12
 73
     8
 74
     0
 42
0.0000000001
 43
0.0000000001
 40
-0.1857013206808207
 40
-0.1857013206808207
 40
-0.1857013206808207
 40
-0.1857013206808207
 40
-0.1380057361374432
 40
-0.1380057361374432
 40
-0.0908819866227237
 40
-0.0908819866227237
 40
-0.0000020637256993
 40
-0.0000020637256993
 40
-0.0000020637256993
 40
-0.0000020637256993
 10
2.697856797732081
 20
3.877930109872805
 30
0.0
 10
2.694872004736325
 20
3.872539906954388
 30
0.0
 10
2.692267109892277
 20
3.867250580257559
 30
0.0
 10
2.687651274875304
 20
3.856797234327684
 30
0.0
 10
2.685713502945538
 20
3.851805986453486
 30
0.0
 10
2.680879794003602
 20
3.837909304532328
 30
0.0
 10
2.678868816650749
 20
3.830034879036721
 30
0.0
 10
2.677469698324972
 20
3.823506886891777
 30
0.0
  0
LINE
  5
89
330
2
100
AcDbEntity
  8
Visible (ANSI)
100
AcDbLine
 10
2.750703277236413
 20
3.877930109872794
 30
0.0
 11
2.772072978949997
 21
3.877930109872794
 31
0.0
  0
LINE
  5
8A
330
2
100
AcDbEntity
  8
Visible (ANSI)
100
AcDbLine
 10
2.673072978949996
 20
2.989039082503495
 30
0.0
 11
2.673072978949996
 21
3.782012673687916
 31
0.0
  0
LINE
  5
8B
330
2
100
AcDbEntity
  8
Visible (ANSI)
100
AcDbLine
 10
2.854072978949995
 20
2.989039082503492
 30
0.0
 11
2.673072978949996
 21
2.989039082503494
 31
0.0
  0
SPLINE
  5
8C
330
2
100
AcDbEntity
  8
Visible (ANSI)
100
AcDbSpline
210
0.0
220
0.0
230
1.0
 70
     8
 71
     3
 72
    12
 73
     8
 74
     0
 42
0.0000000001
 43
0.0000000001
 40
0.0
 40
0.0
 40
0.0
 40
0.0
 40
0.0896498035475179
 40
0.0896498035475179
 40
0.2254219848713026
 40
0.2254219848713026
 40
0.3611941782475752
 40
0.3611941782475752
 40
0.3611941782475752
 40
0.3611941782475752
 10
2.854072978949996
 20
3.790506237958567
 30
0.0
 10
2.842311312001483
 20
3.790789028542505
 30
0.0
 10
2.830577598171445
 20
3.791071151167475
 30
0.0
 10
2.801562513627441
 20
3.791782222323713
 30
0.0
 10
2.784690967230073
 20
3.792208186004117
 30
0.0
 10
2.753249036937432
 20
3.793064745664946
 30
0.0
 10
2.738850178467624
 20
3.793490710558934
 30
0.0
 10
2.726239641455968
 20
3.79391898922022
 30
0.0
  0
SPLINE
  5
8D
330
2
100
AcDbEntity
  8
Visible (ANSI)
100
AcDbSpline
210
0.0
220
0.0
230
1.0
 70
     8
 71
     3
 72
    12
 73
     8
 74
     0
 42
0.0000000001
 43
0.0000000001
 40
0.0
 40
0.0
 40
0.0
 40
0.0
 40
0.1061936356588621
 40
0.1061936356588621
 40
0.2080817692150157
 40
0.2080817692150157
 40
0.2774862605744532
 40
0.2774862605744532
 40
0.2774862605744532
 40
0.2774862605744532
 10
2.726239641455968
 20
3.79391898922022
 30
0.0
 10
2.716373513818485
 20
3.793918293506404
 30
0.0
 10
2.707696436805282
 20
3.795301718075279
 30
0.0
 10
2.693545573490208
 20
3.800872694731793
 30
0.0
 10
2.688034986666803
 20
3.804910790363109
 30
0.0
 10
2.681085376561054
 20
3.814249205750993
 30
0.0
 10
2.679005334248704
 20
3.818605584474537
 30
0.0
 10
2.677469698329469
 20
3.823506886890814
 30
0.0
  0
SPLINE
  5
8E
330
2
100
AcDbEntity
  8
Visible (ANSI)
100
AcDbSpline
210
0.0
220
0.0
230
1.0
 70
     8
 71
     3
 72
    16
 73
    12
 74
     0
 42
0.0000000001
 43
0.0000000001
 40
0.0
 40
0.0
 40
0.0
 40
0.0
 40
0.1106581936239277
 40
0.1106581936239277
 40
0.2023738252481474
 40
0.2023738252481474
 40
0.270187778054069
 40
0.270187778054069
 40
0.3025297610650665
 40
0.3025297610650665
 40
0.3338499317758672
 40
0.3338499317758672
 40
0.3338499317758672
 40
0.3338499317758672
 10
2.772072978949997
 20
3.877930109872794
 30
0.0
 10
2.772072978949997
 20
3.863489693945579
 30
0.0
 10
2.772010521464364
 20
3.848841122872322
 30
0.0
 10
2.77356777528343
 20
3.824797927761554
 30
0.0
 10
2.774929411989775
 20
3.815811757537245
 30
0.0
 10
2.779437104220829
 20
3.803868250727137
 30
0.0
 10
2.781978822065607
 20
3.800084765604424
 30
0.0
 10
2.786703386422832
 20
3.796376651397378
 30
0.0
 10
2.788402795675009
 20
3.795449461691596
 30
0.0
 10
2.792103621504559
 20
3.794225601462014
 30
0.0
 10
2.794069028846108
 20
3.793918213069033
 30
0.0
 10
2.79615953323447
 20
3.793918989220221
 30
0.0
  0
SPLINE
  5
8F
330
2
100
AcDbEntity
  8
Visible (ANSI)
100
AcDbSpline
210
0.0
220
0.0
230
1.0
 70
     8
 71
     3
 72
    10
 73
     6
 74
     0
 42
0.0000000001
 43
0.0000000001
 40
0.0
 40
0.0
 40
0.0
 40
0.0
 40
0.0816040135873164
 40
0.0816040135873164
 40
0.1640859097328929
 40
0.1640859097328929
 40
0.1640859097328929
 40
0.1640859097328929
 10
2.79615953323447
 20
3.793918989220221
 30
0.0
 10
2.803730459349022
 20
3.79335143601185
 30
0.0
 10
2.812706302552426
 20
3.792789240228429
 30
0.0
 10
2.832560521264857
 20
3.791648024933719
 30
0.0
 10
2.843263794874358
 20
3.791079896811016
 30
0.0
 10
2.854072978949996
 20
3.790506237958567
 30
0.0
  0
LINE
  5
90
330
2
100
AcDbEntity
  8
Visible (ANSI)
100
AcDbLine
 10
2.796159533234469
 20
3.793918989220221
 30
0.0
 11
2.726239641455968
 21
3.793918989220221
 31
0.0
  0
SPLINE
  5
91
330
2
100
AcDbEntity
  8
Visible (ANSI)
100
AcDbSpline
210
0.0
220
0.0
230
1.0
 70
     8
 71
     3
 72
     8
 73
     4
 74
     0
 42
0.0000000001
 43
0.0000000001
 40
0.0
 40
0.0
 40
0.0
 40
0.0
 40
0.0323030461023968
 40
0.0323030461023968
 40
0.0323030461023968
 40
0.0323030461023968
 10
2.796686780311309
 20
3.793989336425296
 30
0.0
 10
2.793659404043393
 20
3.79389503248114
 30
0.0
 10
2.790542021011144
 20
3.794424164785823
 30
0.0
 10
2.787619282288027
 20
3.795973220040298
 30
0.0
  0
LINE
  5
92
330
2
100
AcDbEntity
  8
Visible (ANSI)
100
AcDbLine
 10
2.796686780311309
 20
3.793989336425293
 30
0.0
 11
2.795359167308892
 21
3.793989336425293
 31
0.0
  0
SPLINE
  5
93
330
2
100
AcDbEntity
  8
Visible (ANSI)
100
AcDbSpline
210
0.0
220
0.0
230
1.0
 70
     8
 71
     3
 72
    10
 73
     6
 74
     0
 42
0.0000000001
 43
0.0000000001
 40
0.0
 40
0.0
 40
0.0
 40
0.0
 40
0.0810911024704592
 40
0.0810911024704592
 40
0.1621822052225667
 40
0.1621822052225667
 40
0.1621822052225667
 40
0.1621822052225667
 10
2.85407297895
 20
3.790615933337947
 30
0.0
 10
2.843446057235776
 20
3.791179919339562
 30
0.0
 10
2.832919770008717
 20
3.791738647352155
 30
0.0
 10
2.813242408035174
 20
3.792866622407221
 30
0.0
 10
2.804277673196348
 20
3.793425350421718
 30
0.0
 10
2.796686780311309
 20
3.793989336425293
 30
0.0
  0
SPLINE
  5
94
330
2
100
AcDbEntity
  8
Visible (ANSI)
100
AcDbSpline
210
0.0
220
0.0
230
1.0
 70
     8
 71
     3
 72
    12
 73
     8
 74
     0
 42
0.0000000001
 43
0.0000000001
 40
-0.2002842524185862
 40
-0.2002842524185862
 40
-0.2002842524185862
 40
-0.2002842524185862
 40
-0.1352607787114692
 40
-0.1352607787114692
 40
-0.0667903235137919
 40
-0.0667903235137919
 40
0.0
 40
0.0
 40
0.0
 40
0.0
 10
8.030660730060384
 20
3.823891374419773
 30
0.0
 10
8.029635113122225
 20
3.82863072578564
 30
0.0
 10
8.028278747420838
 20
3.83408555303502
 30
0.0
 10
8.024388791103616
 20
3.84672751924654
 30
0.0
 10
8.021843576151026
 20
3.853830240092786
 30
0.0
 10
8.015256866898083
 20
3.868870049220591
 30
0.0
 10
8.011404930537262
 20
3.876414971004273
 30
0.0
 10
8.006920251552028
 20
3.883888836923926
 30
0.0
  0
LINE
  5
95
330
2
100
AcDbEntity
  8
Visible (ANSI)
100
AcDbLine
 10
7.979130235119352
 20
3.883888836923942
 30
0.0
 11
8.006920251552028
 21
3.883888836923926
 31
0.0
  0
LINE
  5
96
330
2
100
AcDbEntity
  8
Visible (ANSI)
100
AcDbLine
 10
7.954564142446242
 20
3.883888836923942
 30
0.0
 11
7.979130235119352
 21
3.883888836923942
 31
0.0
  0
LINE
  5
97
330
2
100
AcDbEntity
  8
Visible (ANSI)
100
AcDbLine
 10
7.936140254602116
 20
3.883888836923942
 30
0.0
 11
7.954564142446242
 21
3.883888836923942
 31
0.0
  0
SPLINE
  5
98
330
2
100
AcDbEntity
  8
Visible (ANSI)
100
AcDbSpline
210
0.0
220
0.0
230
1.0
 70
     8
 71
     3
 72
    16
 73
    12
 74
     0
 42
0.0000000001
 43
0.0000000001
 40
0.0
 40
0.0
 40
0.0
 40
0.0
 40
0.0381722825072784
 40
0.0381722825072784
 40
0.0826673242026451
 40
0.0826673242026451
 40
0.1410446832944492
 40
0.1410446832944492
 40
0.1957838783147813
 40
0.1957838783147813
 40
0.286737049482348
 40
0.286737049482348
 40
0.286737049482348
 40
0.286737049482348
 10
7.911760516506408
 20
3.79391898922022
 30
0.0
 10
7.915306953607839
 20
3.79391753193579
 30
0.0
 10
7.918462093240131
 20
3.794791501570486
 30
0.0
 10
7.924353643161207
 20
3.798391220156296
 30
0.0
 10
7.926816419039029
 20
3.801322850947192
 30
0.0
 10
7.931241576599566
 20
3.80970249768467
 30
0.0
 10
7.932934093750408
 20
3.815898754383878
 30
0.0
 10
7.935072537839208
 20
3.830581438303967
 30
0.0
 10
7.935536926855158
 20
3.83835874999563
 30
0.0
 10
7.936226691439416
 20
3.859743214252626
 30
0.0
 10
7.936140254602116
 20
3.872970444371574
 30
0.0
 10
7.936140254602116
 20
3.883888836923943
 30
0.0
  0
LINE
  5
99
330
2
100
AcDbEntity
  8
Visible (ANSI)
100
AcDbLine
 10
7.911760516505518
 20
3.79391898922022
 30
0.0
 11
7.981681069860181
 21
3.79391898922022
 31
0.0
  0
SPLINE
  5
9A
330
2
100
AcDbEntity
  8
Visible (ANSI)
100
AcDbSpline
210
0.0
220
0.0
230
1.0
 70
     8
 71
     3
 72
    14
 73
    10
 74
     0
 42
0.0000000001
 43
0.0000000001
 40
0.1876139902735191
 40
0.1876139902735191
 40
0.1876139902735191
 40
0.1876139902735191
 40
0.2333476660456722
 40
0.2333476660456722
 40
0.3308571382255375
 40
0.3308571382255375
 40
0.3863366284462166
 40
0.3863366284462166
 40
0.4417399903912368
 40
0.4417399903912368
 40
0.4417399903912368
 40
0.4417399903912368
 10
8.030660730051948
 20
3.823891374417948
 30
0.0
 10
8.029532348072047
 20
3.820265502080705
 30
0.0
 10
8.028114479561615
 20
3.816938987440806
 30
0.0
 10
8.022540657155715
 20
3.807482309715326
 30
0.0
 10
8.017277777366297
 20
3.802748432862145
 30
0.0
 10
8.006553798111099
 20
3.79759568293808
 30
0.0
 10
8.002184935352158
 20
3.796213681145935
 30
0.0
 10
7.99255005099109
 20
3.794374146539365
 30
0.0
 10
7.987302461380271
 20
3.79391854362702
 30
0.0
 10
7.98168106986213
 20
3.79391898922022
 30
0.0
  0
SPLINE
  5
9B
330
2
100
AcDbEntity
  8
Visible (ANSI)
100
AcDbSpline
210
0.0
220
0.0
230
1.0
 70
     8
 71
     3
 72
    10
 73
     6
 74
     0
 42
0.0000000001
 43
0.0000000001
 40
0.0
 40
0.0
 40
0.0
 40
0.0
 40
0.0825972436636151
 40
0.0825972436636151
 40
0.1660870238754128
 40
0.1660870238754128
 40
0.1660870238754128
 40
0.1660870238754128
 10
7.853140254602115
 20
3.790479016309845
 30
0.0
 10
7.86396468168552
 20
3.791051082952326
 30
0.0
 10
7.874685302456783
 20
3.791617749693279
 30
0.0
 10
7.894816603636834
 20
3.79276806792828
 30
0.0
 10
7.904014617960463
 20
3.793340740889782
 30
0.0
 10
7.911760516505518
 20
3.79391898922022
 30
0.0
  0
SPLINE
  5
9C
330
2
100
AcDbEntity
  8
Visible (ANSI)
100
AcDbSpline
210
0.0
220
0.0
230
1.0
 70
     8
 71
     3
 72
     8
 73
     4
 74
     0
 42
0.0000000001
 43
0.0000000001
 40
0.0
 40
0.0
 40
0.0
 40
0.0
 40
0.1427076627852601
 40
0.1427076627852601
 40
0.1427076627852601
 40
0.1427076627852601
 10
8.035140254602115
 20
3.782012673687926
 30
0.0
 10
8.035140254602115
 20
3.795531317298156
 30
0.0
 10
8.03373452425995
 20
3.809687444879827
 30
0.0
 10
8.030660730060384
 20
3.823891374419773
 30
0.0
  0
SPLINE
  5
9D
330
2
100
AcDbEntity
  8
Visible (ANSI)
100
AcDbSpline
210
0.0
220
0.0
230
1.0
 70
     8
 71
     3
 72
    12
 73
     8
 74
     0
 42
0.0000000001
 43
0.0000000001
 40
0.0
 40
0.0
 40
0.0
 40
0.0
 40
0.090145359803846
 40
0.090145359803846
 40
0.2266699858504291
 40
0.2266699858504291
 40
0.3631946240163639
 40
0.3631946240163639
 40
0.3631946240163639
 40
0.3631946240163639
 10
7.981681069860183
 20
3.79391898922022
 30
0.0
 10
7.973308449018452
 20
3.793633946000499
 30
0.0
 10
7.964141558642181
 20
3.793349576061712
 30
0.0
 10
7.93942141463901
 20
3.792632834568868
 30
0.0
 10
7.923143748068343
 20
3.792203471749228
 30
0.0
 10
7.88886537457679
 20
3.791340076699277
 30
0.0
 10
7.871051672222553
 20
3.790910712655821
 30
0.0
 10
7.853140254602115
 20
3.790479016309845
 30
0.0
  0
LINE
  5
9E
330
2
100
AcDbEntity
  8
Visible (ANSI)
100
AcDbLine
 10
8.035140254602115
 20
3.782012673687926
 30
0.0
 11
8.035140254602115
 21
2.988918989220235
 31
0.0
  0
LINE
  5
9F
330
2
100
AcDbEntity
  8
Visible (ANSI)
100
AcDbLine
 10
2.85407297895
 20
3.790615933337947
 30
0.0
 11
2.949475204466846
 21
3.787309322765888
 31
0.0
  0
LINE
  5
A0
330
2
100
AcDbEntity
  8
Visible (ANSI)
100
AcDbLine
 10
3.710251330718707
 20
2.989039082503499
 30
0.0
 11
3.697081300861822
 21
2.989039082503499
 31
0.0
  0
LINE
  5
A1
330
2
100
AcDbEntity
  8
Visible (ANSI)
100
AcDbLine
 10
3.710251330718708
 20
3.756953225303253
 30
0.0
 11
3.710251330718707
 21
2.989039082503499
 31
0.0
  0
LINE
  5
A2
330
2
100
AcDbEntity
  8
Visible (ANSI)
100
AcDbLine
 10
3.433808531334536
 20
3.76864997797387
 30
0.0
 11
3.436815439462191
 21
3.768522750711121
 31
0.0
  0
LINE
  5
A3
330
2
100
AcDbEntity
  8
Visible (ANSI)
100
AcDbLine
 10
3.466170963257748
 20
3.767280669882399
 30
0.0
 11
3.710251330718708
 21
3.756953225303253
 31
0.0
  0
ELLIPSE
  5
A4
330
2
100
AcDbEntity
  8
Visible (ANSI)
100
AcDbEllipse
 10
3.112015590890037
 20
3.364039082503499
 30
0.0
 11
-0.0000000000000004
 21
-0.1562499999999984
 31
0.0
210
0.0
220
0.0
230
1.0
 40
0.707106781186546
 41
0.3233661065323368
 42
0.6654787600296599
  0
LINE
  5
A5
330
2
100
AcDbEntity
  8
Visible (ANSI)
100
AcDbLine
 10
3.250236825599563
 20
3.775549032626103
 30
0.0
 11
3.089482347141783
 21
3.783428604524007
 31
0.0
  0
ELLIPSE
  5
A6
330
2
100
AcDbEntity
  8
Visible (ANSI)
100
AcDbEllipse
 10
3.112015590890045
 20
3.364039082503508
 30
0.0
 11
-0.0000000000000099
 21
0.1562499999999908
 31
0.0
210
0.0
220
0.0
230
1.0
 40
0.7071067811865241
 41
5.617706547149873
 42
5.959819200647219
  0
LINE
  5
A7
330
2
100
AcDbEntity
  8
Visible (ANSI)
100
AcDbLine
 10
2.949475204466839
 20
2.989039082503495
 30
0.0
 11
2.854072978949994
 21
2.989039082503495
 31
0.0
  0
LINE
  5
A8
330
2
100
AcDbEntity
  8
Visible (ANSI)
100
AcDbLine
 10
2.854072978949995
 20
3.790506237958567
 30
0.0
 11
2.949475204466837
 21
3.787199627386509
 31
0.0
  0
LINE
  5
A9
330
2
100
AcDbEntity
  8
Visible (ANSI)
100
AcDbLine
 10
3.089482347141774
 20
3.783318909144629
 30
0.0
 11
3.246050503525276
 21
3.775644534800714
 31
0.0
  0
ELLIPSE
  5
AA
330
2
100
AcDbEntity
  8
Visible (ANSI)
100
AcDbEllipse
 10
3.182231294261844
 20
3.364039082503499
 30
0.0
 11
-0.0000000000000008
 21
-0.15625
 31
0.0
210
0.0
220
0.0
230
1.0
 40
0.7071067811865462
 41
5.286882491504927
 42
6.899002197701934
  0
ELLIPSE
  5
AB
330
2
100
AcDbEntity
  8
Visible (ANSI)
100
AcDbEllipse
 10
3.112227722924377
 20
3.364039082503496
 30
0.0
 11
-0.0000000000000009
 21
-0.1562499999999976
 31
0.0
210
0.0
220
0.0
230
1.0
 40
0.7071067811865467
 41
0.3223538026650911
 42
0.6158168905223565
  0
LINE
  5
AC
330
2
100
AcDbEntity
  8
Visible (ANSI)
100
AcDbLine
 10
3.246050503525276
 20
2.989039082503497
 30
0.0
 11
3.089482347141776
 21
2.989039082503495
 31
0.0
  0
ELLIPSE
  5
AD
330
2
100
AcDbEntity
  8
Visible (ANSI)
100
AcDbEllipse
 10
3.182231294261844
 20
3.364039082503499
 30
0.0
 11
0.0000000000000004
 21
0.1562500000000001
 31
0.0
210
0.0
220
0.0
230
1.0
 40
0.7071067811865479
 41
5.667368416657245
 42
7.279488122854256
  0
ELLIPSE
  5
AE
330
2
100
AcDbEntity
  8
Visible (ANSI)
100
AcDbEllipse
 10
3.112227722924377
 20
3.364039082503501
 30
0.0
 11
0.0000000000000005
 21
0.1562499999999969
 31
0.0
210
0.0
220
0.0
230
1.0
 40
0.7071067811865471
 41
5.66736841665724
 42
5.960831504514516
  0
LINE
  5
AF
330
2
100
AcDbEntity
  8
Visible (ANSI)
100
AcDbLine
 10
3.697081300861833
 20
2.989039082503498
 30
0.0
 11
3.697081300861836
 21
3.756833132019984
 31
0.0
  0
LINE
  5
B0
330
2
100
AcDbEntity
  8
Visible (ANSI)
100
AcDbLine
 10
3.633445327502867
 20
3.756833132019984
 30
0.0
 11
3.697081300861835
 21
3.756833132019984
 31
0.0
  0
LINE
  5
B1
330
2
100
AcDbEntity
  8
Visible (ANSI)
100
AcDbLine
 10
3.633445327502867
 20
3.756833132019984
 30
0.0
 11
3.633445327502865
 21
2.989039082503498
 31
0.0
  0
LINE
  5
B2
330
2
100
AcDbEntity
  8
Visible (ANSI)
100
AcDbLine
 10
3.633445327502865
 20
2.989039082503498
 30
0.0
 11
3.697081300861833
 21
2.989039082503498
 31
0.0
  0
LINE
  5
B3
330
2
100
AcDbEntity
  8
Visible (ANSI)
100
AcDbLine
 10
3.633445327502865
 20
2.989039082503498
 30
0.0
 11
3.379690048221712
 21
2.989039082503497
 31
0.0
  0
LINE
  5
B4
330
2
100
AcDbEntity
  8
Visible (ANSI)
100
AcDbLine
 10
3.379690048221712
 20
3.768314289232717
 30
0.0
 11
3.633445327502867
 21
3.756833132019984
 31
0.0
  0
LINE
  5
B5
330
2
100
AcDbEntity
  8
Visible (ANSI)
100
AcDbLine
 10
3.697081300861836
 20
3.756833132019984
 30
0.0
 11
3.443326021580679
 21
3.768314289232717
 31
0.0
  0
LINE
  5
B6
330
2
100
AcDbEntity
  8
Visible (ANSI)
100
AcDbLine
 10
7.758523427248666
 20
3.787199627386511
 30
0.0
 11
7.853140254602115
 21
3.790479016309845
 31
0.0
  0
LINE
  5
B7
330
2
100
AcDbEntity
  8
Visible (ANSI)
100
AcDbLine
 10
6.997535168962307
 20
3.756833132020001
 30
0.0
 11
6.997535168962305
 21
2.988918989220234
 31
0.0
  0
LINE
  5
B8
330
2
100
AcDbEntity
  8
Visible (ANSI)
100
AcDbLine
 10
7.273977968346477
 20
3.76852988469061
 30
0.0
 11
6.997535168962307
 21
3.756833132020001
 31
0.0
  0
LINE
  5
B9
330
2
100
AcDbEntity
  8
Visible (ANSI)
100
AcDbLine
 10
7.05431923616106
 20
3.756833132020001
 30
0.0
 11
7.33076203554523
 21
3.768529884690611
 31
0.0
  0
LINE
  5
BA
330
2
100
AcDbEntity
  8
Visible (ANSI)
100
AcDbLine
 10
7.05431923616106
 20
2.988918989220234
 30
0.0
 11
7.05431923616106
 21
3.756833132020001
 31
0.0
  0
LINE
  5
BB
330
2
100
AcDbEntity
  8
Visible (ANSI)
100
AcDbLine
 10
7.05431923616106
 20
3.756833132020001
 30
0.0
 11
6.997535168962307
 21
3.756833132020001
 31
0.0
  0
LINE
  5
BC
330
2
100
AcDbEntity
  8
Visible (ANSI)
100
AcDbLine
 10
7.457549674081451
 20
3.775428939342839
 30
0.0
 11
7.61851628457373
 21
3.783318909144632
 31
0.0
  0
LINE
  5
BD
330
2
100
AcDbEntity
  8
Visible (ANSI)
100
AcDbLine
 10
2.871072978949997
 20
3.881012673687917
 30
0.0
 11
7.837140254602115
 21
3.881012673687926
 31
0.0
  0
LINE
  5
BE
330
2
100
AcDbEntity
  8
Visible (ANSI)
100
AcDbLine
 10
7.837140254602115
 20
3.980012673687926
 30
0.0
 11
2.871072978949997
 21
3.980012673687916
 31
0.0
  0
LINE
  5
BF
330
2
100
AcDbEntity
  8
Visible (ANSI)
100
AcDbLine
 10
6.997535168962293
 20
2.989129035861965
 30
0.0
 11
6.354872994672653
 21
2.989129035861965
 31
0.0
  0
LINE
  5
C0
330
2
100
AcDbEntity
  8
Visible (ANSI)
100
AcDbLine
 10
4.354872994672654
 20
2.989129035861961
 30
0.0
 11
3.710251330718707
 21
2.98912903586196
 31
0.0
  0
SPLINE
  5
C1
330
2
100
AcDbEntity
  8
Visible (ANSI)
100
AcDbSpline
210
0.0
220
0.0
230
1.0
 70
     8
 71
     3
 72
    20
 73
    16
 74
     0
 42
0.0000000001
 43
0.0000000001
 40
0.0
 40
0.0
 40
0.0
 40
0.0
 40
0.2327186793969449
 40
0.2327186793969449
 40
0.5105524648958339
 40
0.5105524648958339
 40
0.7320101449143818
 40
0.7320101449143818
 40
0.8906482771198703
 40
0.8906482771198703
 40
0.9973354835091557
 40
0.9973354835091557
 40
1.222946500343627
 40
1.222946500343627
 40
1.456057154967927
 40
1.456057154967927
 40
1.456057154967927
 40
1.456057154967927
 10
3.180233254262092
 20
3.486948656207559
 30
0.0
 10
3.198980738503466
 20
3.471789950267853
 30
0.0
 10
3.212162591447961
 20
3.457003037864031
 30
0.0
 10
3.229676068638157
 20
3.433374296235088
 30
0.0
 10
3.237775380509751
 20
3.418895039524498
 30
0.0
 10
3.247192533041732
 20
3.390272567203361
 30
0.0
 10
3.249426223955401
 20
3.376989180168155
 30
0.0
 10
3.249312456385208
 20
3.353744798141899
 30
0.0
 10
3.248089715035955
 20
3.344164567136691
 30
0.0
 10
3.244263116890314
 20
3.328543460037646
 30
0.0
 10
3.24225451306832
 20
3.322415672447139
 30
0.0
 10
3.234758933441859
 20
3.303933334787156
 30
0.0
 10
3.22795782103295
 20
3.292403211586056
 30
0.0
 10
3.212249744612519
 20
3.271174768124235
 30
0.0
 10
3.19903513296207
 20
3.25633219661918
 30
0.0
 10
3.180233254262092
 20
3.241129508799442
 30
0.0
  0
SPLINE
  5
C2
330
2
100
AcDbEntity
  8
Visible (ANSI)
100
AcDbSpline
210
0.0
220
0.0
230
1.0
 70
     8
 71
     3
 72
    12
 73
     8
 74
     0
 42
0.0000000001
 43
0.0000000001
 40
0.0
 40
0.0
 40
0.0
 40
0.0
 40
0.098102221178833
 40
0.098102221178833
 40
0.2946952383242759
 40
0.2946952383242759
 40
0.3195860026262696
 40
0.3195860026262696
 40
0.3195860026262696
 40
0.3195860026262696
 10
3.433808531334536
 20
3.76864997797387
 30
0.0
 10
3.423265798283347
 20
3.768971146591667
 30
0.0
 10
3.412028365186826
 20
3.76929157254638
 30
0.0
 10
3.37666408354596
 20
3.770256379807802
 30
0.0
 10
3.351261532718833
 20
3.770893942081746
 30
0.0
 10
3.322214637640555
 20
3.771619060531639
 30
0.0
 10
3.318952109576462
 20
3.771700453484363
 30
0.0
 10
3.315694332680017
 20
3.771781773833065
 30
0.0
  0
SPLINE
  5
C3
330
2
100
AcDbEntity
  8
Visible (ANSI)
100
AcDbSpline
210
0.0
220
0.0
230
1.0
 70
     8
 71
     3
 72
    12
 73
     8
 74
     0
 42
0.0000000001
 43
0.0000000001
 40
0.0
 40
0.0
 40
0.0
 40
0.0
 40
0.0985178616591422
 40
0.0985178616591422
 40
0.19699512308285
 40
0.19699512308285
 40
0.1983622914964042
 40
0.1983622914964042
 40
0.1983622914964042
 40
0.1983622914964042
 10
3.250236825599563
 20
3.775549032626103
 30
0.0
 10
3.259367540815869
 20
3.774904575274339
 30
0.0
 10
3.270197076814327
 20
3.774266169389899
 30
0.0
 10
3.294025749067057
 20
3.772977481994268
 30
0.0
 10
3.306795600508305
 20
3.772339353143128
 30
0.0
 10
3.319882061903247
 20
3.771686198899814
 30
0.0
 10
3.320061238476835
 20
3.77167725619744
 30
0.0
 10
3.320240396936011
 20
3.771668314392116
 30
0.0
  0
SPLINE
  5
C4
330
2
100
AcDbEntity
  8
Visible (ANSI)
100
AcDbSpline
210
0.0
220
0.0
230
1.0
 70
     8
 71
     3
 72
     8
 73
     4
 74
     0
 42
0.0000000001
 43
0.0000000001
 40
0.1871875818671443
 40
0.1871875818671443
 40
0.1871875818671443
 40
0.1871875818671443
 40
0.1983752550424711
 40
0.1983752550424711
 40
0.1983752550424711
 40
0.1983752550424711
 10
2.953868408723748
 20
3.787089984352917
 30
0.0
 10
2.952406331533204
 20
3.787163029504144
 30
0.0
 10
2.950941577823112
 20
3.787236136368912
 30
0.0
 10
2.949475204466847
 20
3.787309322765888
 30
0.0
  0
SPLINE
  5
C5
330
2
100
AcDbEntity
  8
Visible (ANSI)
100
AcDbSpline
210
0.0
220
0.0
230
1.0
 70
     8
 71
     3
 72
    12
 73
     8
 74
     0
 42
0.0000000001
 43
0.0000000001
 40
0.0
 40
0.0
 40
0.0
 40
0.0
 40
0.0980743705453017
 40
0.0980743705453017
 40
0.2469029598690912
 40
0.2469029598690912
 40
0.395731562487356
 40
0.395731562487356
 40
0.395731562487356
 40
0.395731562487356
 10
2.949475204466848
 20
3.787309322765888
 30
0.0
 10
2.962341851060236
 20
3.78698823689957
 30
0.0
 10
2.975177917015501
 20
3.786667909459014
 30
0.0
 10
3.00695717815256
 20
3.785859571151242
 30
0.0
 10
3.02544916428171
 20
3.785374965245904
 30
0.0
 10
3.059902895789321
 20
3.784400462069044
 30
0.0
 10
3.075675921786377
 20
3.783915854766233
 30
0.0
 10
3.089482347141784
 20
3.783428604524007
 30
0.0
  0
SPLINE
  5
C6
330
2
100
AcDbEntity
  8
Visible (ANSI)
100
AcDbSpline
210
0.0
220
0.0
230
1.0
 70
     8
 71
     3
 72
    16
 73
    12
 74
     0
 42
0.0000000001
 43
0.0000000001
 40
0.0
 40
0.0
 40
0.0
 40
0.0
 40
0.0501035659362844
 40
0.0501035659362844
 40
0.0921369275279866
 40
0.0921369275279866
 40
0.1303117336684175
 40
0.1303117336684175
 40
0.1577529591276801
 40
0.1577529591276801
 40
0.1904190663735091
 40
0.1904190663735091
 40
0.1904190663735091
 40
0.1904190663735091
 10
3.089482347141774
 20
3.279131320100776
 30
0.0
 10
3.086388200913461
 20
3.284039141260965
 30
0.0
 10
3.079006325979432
 20
3.295555149066042
 30
0.0
 10
3.06720414559971
 20
3.326545413433128
 30
0.0
 10
3.063739071227245
 20
3.341666549559109
 30
0.0
 10
3.06228250011944
 20
3.371634166206428
 30
0.0
 10
3.063852466316123
 20
3.385747852641237
 30
0.0
 10
3.069888691310241
 20
3.409083393865797
 30
0.0
 10
3.073349240990526
 20
3.418362484066938
 30
0.0
 10
3.082319182013169
 20
3.437542937717131
 30
0.0
 10
3.086966645636395
 20
3.444956531530648
 30
0.0
 10
3.089482347141774
 20
3.44894684490622
 30
0.0
  0
SPLINE
  5
C7
330
2
100
AcDbEntity
  8
Visible (ANSI)
100
AcDbSpline
210
0.0
220
0.0
230
1.0
 70
     8
 71
     3
 72
    12
 73
     8
 74
     0
 42
0.0000000001
 43
0.0000000001
 40
0.0
 40
0.0
 40
0.0
 40
0.0
 40
0.0980743705453013
 40
0.0980743705453013
 40
0.2469029598691134
 40
0.2469029598691134
 40
0.3957315624874065
 40
0.3957315624874065
 40
0.3957315624874065
 40
0.3957315624874065
 10
3.089482347141773
 20
3.783318909144629
 30
0.0
 10
3.080384254084458
 20
3.783639995010942
 30
0.0
 10
3.070420951864002
 20
3.783960322451501
 30
0.0
 10
3.043516091041385
 20
3.784768660759275
 30
0.0
 10
3.025778869280175
 20
3.785253266664609
 30
0.0
 10
2.988418723599298
 20
3.786227769841473
 30
0.0
 10
2.969000438452344
 20
3.786712377144285
 30
0.0
 10
2.949475204466837
 20
3.787199627386509
 30
0.0
  0
LINE
  5
C8
330
2
100
AcDbEntity
  8
Visible (ANSI)
100
AcDbLine
 10
3.089482347141775
 20
2.989039082503501
 30
0.0
 11
2.94947520446684
 21
2.989039082503495
 31
0.0
  0
LINE
  5
C9
330
2
100
AcDbEntity
  8
Visible (ANSI)
100
AcDbLine
 10
3.246050503525276
 20
3.236491916490371
 30
0.0
 11
3.214072503723227
 21
3.236491916490371
 31
0.0
  0
LINE
  5
CA
330
2
100
AcDbEntity
  8
Visible (ANSI)
100
AcDbLine
 10
3.214072503723227
 20
3.236491916490371
 30
0.0
 11
3.176046932187809
 21
3.236491916490371
 31
0.0
  0
LINE
  5
CB
330
2
100
AcDbEntity
  8
Visible (ANSI)
100
AcDbLine
 10
3.246050503525277
 20
2.989039082503496
 30
0.0
 11
3.379690048221712
 21
2.989039082503492
 31
0.0
  0
SPLINE
  5
CC
330
2
100
AcDbEntity
  8
Visible (ANSI)
100
AcDbSpline
210
0.0
220
0.0
230
1.0
 70
     8
 71
     3
 72
    14
 73
    10
 74
     0
 42
0.0000000001
 43
0.0000000001
 40
0.0
 40
0.0
 40
0.0
 40
0.0
 40
0.0985231614237162
 40
0.0985231614237162
 40
0.1970003693307825
 40
0.1970003693307825
 40
0.2857942883180108
 40
0.2857942883180108
 40
0.3745882901851361
 40
0.3745882901851361
 40
0.3745882901851361
 40
0.3745882901851361
 10
3.379690048221712
 20
3.768314289232717
 30
0.0
 10
3.369797751542335
 20
3.768958776086427
 30
0.0
 10
3.358376268681963
 20
3.769597221248787
 30
0.0
 10
3.333770793908457
 20
3.770885942061119
 30
0.0
 10
3.320823460429253
 20
3.77152407156472
 30
0.0
 10
3.296359939797111
 20
3.772749145969987
 30
0.0
 10
3.285018801710422
 20
3.773325542711972
 30
0.0
 10
3.263896573854117
 20
3.774487272351851
 30
0.0
 10
3.254280003704931
 20
3.775063691006528
 30
0.0
 10
3.246050503525276
 20
3.775644534800714
 30
0.0
  0
SPLINE
  5
CD
330
2
100
AcDbEntity
  8
Visible (ANSI)
100
AcDbSpline
210
0.0
220
0.0
230
1.0
 70
     8
 71
     3
 72
    12
 73
     8
 74
     0
 42
0.0000000001
 43
0.0000000001
 40
0.396133827169679
 40
0.396133827169679
 40
0.396133827169679
 40
0.396133827169679
 40
0.4912884221682221
 40
0.4912884221682221
 40
0.6196384101704555
 40
0.6196384101704555
 40
0.7479877099102068
 40
0.7479877099102068
 40
0.7479877099102068
 40
0.7479877099102068
 10
3.316054074881788
 20
3.771763817267193
 30
0.0
 10
3.328479137920603
 20
3.771453755643764
 30
0.0
 10
3.34090597746305
 20
3.771143648610463
 30
0.0
 10
3.36970842286123
 20
3.770411914392452
 30
0.0
 10
3.385778553577485
 20
3.769993408186241
 30
0.0
 10
3.41619977160744
 20
3.769152997845948
 30
0.0
 10
3.430426983579355
 20
3.768734477847047
 30
0.0
 10
3.443326021580679
 20
3.768314289232717
 30
0.0
  0
SPLINE
  5
CE
330
2
100
AcDbEntity
  8
Visible (ANSI)
100
AcDbSpline
210
0.0
220
0.0
230
1.0
 70
     8
 71
     3
 72
    26
 73
    22
 74
     0
 42
0.0000000001
 43
0.0000000001
 40
0.0
 40
0.0
 40
0.0
 40
0.0
 40
0.0146312193843283
 40
0.0146312193843283
 40
0.0430125871595894
 40
0.0430125871595894
 40
0.18603815885455
 40
0.18603815885455
 40
0.2935705533252724
 40
0.2935705533252724
 40
0.3916311086801234
 40
0.3916311086801234
 40
0.486241228727766
 40
0.486241228727766
 40
0.5607558688645465
 40
0.5607558688645465
 40
0.6019832950611805
 40
0.6019832950611805
 40
0.6206979541204536
 40
0.6206979541204536
 40
0.6386012145149432
 40
0.6386012145149432
 40
0.6386012145149432
 40
0.6386012145149432
 10
3.246050503525277
 20
3.491586248516626
 30
0.0
 10
3.246997753933269
 20
3.490210659094317
 30
0.0
 10
3.247936395411673
 20
3.488824524251124
 30
0.0
 10
3.250705063642017
 20
3.484613826454005
 30
0.0
 10
3.252488440845571
 20
3.481739348535411
 30
0.0
 10
3.262850531718546
 20
3.464086691259085
 30
0.0
 10
3.270771326923183
 20
3.446376786324746
 30
0.0
 10
3.280554962128109
 20
3.410838312854506
 30
0.0
 10
3.283202480869058
 20
3.394923395363431
 30
0.0
 10
3.285126925578643
 20
3.36445223311105
 30
0.0
 10
3.284697313524892
 20
3.349678153591714
 30
0.0
 10
3.28120194988097
 20
3.321233996368568
 30
0.0
 10
3.278217568352494
 20
3.307420812581802
 30
0.0
 10
3.270775879617641
 20
3.283747000699571
 30
0.0
 10
3.266742931213657
 20
3.273606793247727
 30
0.0
 10
3.259552764238475
 20
3.258777587939976
 30
0.0
 10
3.256811341331526
 20
3.253676525133232
 30
0.0
 10
3.252634953319709
 20
3.246602415995319
 30
0.0
 10
3.251296232740036
 20
3.244427726534897
 30
0.0
 10
3.248646545249251
 20
3.240307242726682
 30
0.0
 10
3.247361078052918
 20
3.238395122276466
 30
0.0
 10
3.246050503525278
 20
3.236491916490371
 30
0.0
  0
LINE
  5
CF
330
2
100
AcDbEntity
  8
Visible (ANSI)
100
AcDbLine
 10
3.214072503723186
 20
3.491586248516626
 30
0.0
 11
3.246050503525276
 21
3.491586248516627
 31
0.0
  0
LINE
  5
D0
330
2
100
AcDbEntity
  8
Visible (ANSI)
100
AcDbLine
 10
3.176046932187809
 20
3.491586248516626
 30
0.0
 11
3.214072503723186
 21
3.491586248516626
 31
0.0
  0
SPLINE
  5
D1
330
2
100
AcDbEntity
  8
Visible (ANSI)
100
AcDbSpline
210
0.0
220
0.0
230
1.0
 70
     8
 71
     3
 72
    20
 73
    16
 74
     0
 42
0.0000000001
 43
0.0000000001
 40
0.0
 40
0.0
 40
0.0
 40
0.0
 40
0.231282867547586
 40
0.231282867547586
 40
0.5132086547302411
 40
0.5132086547302411
 40
0.7579903019465427
 40
0.7579903019465427
 40
0.922371189496591
 40
0.922371189496591
 40
1.124511672126745
 40
1.124511672126745
 40
1.346942159043792
 40
1.346942159043792
 40
1.565732816886322
 40
1.565732816886322
 40
1.565732816886322
 40
1.565732816886322
 10
3.176046932187809
 20
3.236491916490371
 30
0.0
 10
3.195122837030937
 20
3.250401215974397
 30
0.0
 10
3.209361530424601
 20
3.264621560127071
 30
0.0
 10
3.228668947353555
 20
3.287698616622869
 30
0.0
 10
3.237981846460014
 20
3.302166306435523
 30
0.0
 10
3.249958731338507
 20
3.332430698248473
 30
0.0
 10
3.253114694118363
 20
3.347297209969676
 30
0.0
 10
3.253421403542583
 20
3.372892252625295
 30
0.0
 10
3.252203083177047
 20
3.383065941576926
 30
0.0
 10
3.246746866700089
 20
3.405181787426347
 30
0.0
 10
3.241954296147976
 20
3.416719727731849
 30
0.0
 10
3.229213761765939
 20
3.439302036076159
 30
0.0
 10
3.221146005371151
 20
3.449947131653638
 30
0.0
 10
3.203942242078825
 20
3.468796434585049
 30
0.0
 10
3.19183445577989
 20
3.480074690057968
 30
0.0
 10
3.176046932187809
 20
3.491586248516626
 30
0.0
  0
LINE
  5
D2
330
2
100
AcDbEntity
  8
Visible (ANSI)
100
AcDbLine
 10
2.87107297895
 20
3.980012673687919
 30
0.0
 11
2.861009991266048
 21
3.980012673687919
 31
0.0
  0
LINE
  5
D3
330
2
100
AcDbEntity
  8
Visible (ANSI)
100
AcDbLine
 10
2.861009991266048
 20
3.980012673687919
 30
0.0
 11
2.861009991266048
 21
3.979756791878252
 31
0.0
  0
SPLINE
  5
D4
330
2
100
AcDbEntity
  8
Visible (ANSI)
100
AcDbSpline
210
0.0
220
0.0
230
1.0
 70
     8
 71
     3
 72
    16
 73
    12
 74
     0
 42
0.0000000001
 43
0.0000000001
 40
0.0244597846733644
 40
0.0244597846733644
 40
0.0244597846733644
 40
0.0244597846733644
 40
0.0985287759112485
 40
0.0985287759112485
 40
0.19700574176185
 40
0.19700574176185
 40
0.2954826816444812
 40
0.2954826816444812
 40
0.3459903279554064
 40
0.3459903279554064
 40
0.3758404372047934
 40
0.3758404372047934
 40
0.3758404372047934
 40
0.3758404372047934
 10
2.861489066043715
 20
3.880547668754322
 30
0.0
 10
2.861971891359484
 20
3.879611122634759
 30
0.0
 10
2.862453005060404
 20
3.877266566661324
 30
0.0
 10
2.863581751317118
 20
3.868666107989189
 30
0.0
 10
2.86421987879979
 20
3.861470010922723
 30
0.0
 10
2.865508296785177
 20
3.843314777278709
 30
0.0
 10
2.866146424067258
 20
3.832529651791471
 30
0.0
 10
2.867121038750717
 20
3.814550374991018
 30
0.0
 10
2.867450617310645
 20
3.808211394064021
 30
0.0
 10
2.867976295490396
 20
3.797889743304474
 30
0.0
 10
2.868171282508143
 20
3.794015134221047
 30
0.0
 10
2.868366318002578
 20
3.790120531193298
 30
0.0
  0
LINE
  5
D5
330
2
100
AcDbEntity
  8
Visible (ANSI)
100
AcDbLine
 10
7.84732333556927
 20
3.979750643896021
 30
0.0
 11
7.84732333556927
 21
3.980012673687927
 31
0.0
  0
SPLINE
  5
D6
330
2
100
AcDbEntity
  8
Visible (ANSI)
100
AcDbSpline
210
0.0
220
0.0
230
1.0
 70
     8
 71
     3
 72
    16
 73
    12
 74
     0
 42
0.0000000001
 43
0.0000000001
 40
0.0204266854039142
 40
0.0204266854039142
 40
0.0204266854039142
 40
0.0204266854039142
 40
0.0985287759112426
 40
0.0985287759112426
 40
0.1970057417618285
 40
0.1970057417618285
 40
0.2954826816444489
 40
0.2954826816444489
 40
0.3459903279553784
 40
0.3459903279553784
 40
0.3717742474821294
 40
0.3717742474821294
 40
0.3717742474821294
 40
0.3717742474821294
 10
7.839962087459601
 20
3.790022264788657
 30
0.0
 10
7.840471415495234
 20
3.800193802906137
 30
0.0
 10
7.840978529498993
 20
3.81019337218424
 30
0.0
 10
7.842133659136572
 20
3.83159879898061
 30
0.0
 10
7.84277178661924
 20
3.842462099294019
 30
0.0
 10
7.844060204604627
 20
3.860814028397296
 30
0.0
 10
7.844698331886707
 20
3.868126762738554
 30
0.0
 10
7.845672946570164
 20
3.875746996044045
 30
0.0
 10
7.846002525130093
 20
3.877712476425638
 30
0.0
 10
7.84650160342291
 20
3.879703421450672
 30
0.0
 10
7.846670062689749
 20
3.880205845604928
 30
0.0
 10
7.846838524321046
 20
3.880536495756765
 30
0.0
  0
LINE
  5
D7
330
2
100
AcDbEntity
  8
Visible (ANSI)
100
AcDbLine
 10
7.84732333556927
 20
3.980012673687927
 30
0.0
 11
7.837140254602119
 21
3.980012673687927
 31
0.0
  0
SPLINE
  5
D8
330
2
100
AcDbEntity
  8
Visible (ANSI)
100
AcDbSpline
210
0.0
220
0.0
230
1.0
 70
     8
 71
     3
 72
    12
 73
     8
 74
     0
 42
0.0000000001
 43
0.0000000001
 40
0.0
 40
0.0
 40
0.0
 40
0.0
 40
0.0980743705452842
 40
0.0980743705452842
 40
0.2469029598690785
 40
0.2469029598690785
 40
0.3957315624873546
 40
0.3957315624873546
 40
0.3957315624873546
 40
0.3957315624873546
 10
7.758523427248666
 20
3.78719962738651
 30
0.0
 10
7.74565678065528
 20
3.786878541520195
 30
0.0
 10
7.732820714700016
 20
3.786558214079637
 30
0.0
 10
7.701041453562958
 20
3.785749875771866
 30
0.0
 10
7.682549467433807
 20
3.78526526986653
 30
0.0
 10
7.648095735926193
 20
3.784290766689666
 30
0.0
 10
7.632322709929136
 20
3.783806159386859
 30
0.0
 10
7.61851628457373
 20
3.783318909144631
 30
0.0
  0
SPLINE
  5
D9
330
2
100
AcDbEntity
  8
Visible (ANSI)
100
AcDbSpline
210
0.0
220
0.0
230
1.0
 70
     8
 71
     3
 72
    12
 73
     8
 74
     0
 42
0.0000000001
 43
0.0000000001
 40
0.0
 40
0.0
 40
0.0
 40
0.0
 40
0.0981022211788545
 40
0.0981022211788545
 40
0.2946952383243757
 40
0.2946952383243757
 40
0.3080151586877821
 40
0.3080151586877821
 40
0.3080151586877821
 40
0.3080151586877821
 10
7.273977968346477
 20
3.76852988469061
 30
0.0
 10
7.284520701397669
 20
3.768851053308408
 30
0.0
 10
7.295758134494189
 20
3.769171479263119
 30
0.0
 10
7.331122416135056
 20
3.770136286524544
 30
0.0
 10
7.356524966962183
 20
3.770773848798484
 30
0.0
 10
7.38405438257693
 20
3.771461085321466
 30
0.0
 10
7.385800727619671
 20
3.771504665729082
 30
0.0
 10
7.387546102720322
 20
3.771548222067668
 30
0.0
  0
SPLINE
  5
DA
330
2
100
AcDbEntity
  8
Visible (ANSI)
100
AcDbSpline
210
0.0
220
0.0
230
1.0
 70
     8
 71
     3
 72
    14
 73
    10
 74
     0
 42
0.0000000001
 43
0.0000000001
 40
0.0
 40
0.0
 40
0.0
 40
0.0
 40
0.0985178616591348
 40
0.0985178616591348
 40
0.1969951230828428
 40
0.1969951230828428
 40
0.2747314595675132
 40
0.2747314595675132
 40
0.3524678281955134
 40
0.3524678281955134
 40
0.3524678281955134
 40
0.3524678281955134
 10
7.457549674081453
 20
3.775428939342839
 30
0.0
 10
7.448418958865146
 20
3.774784481991073
 30
0.0
 10
7.437589422866689
 20
3.774146076106635
 30
0.0
 10
7.413760750613957
 20
3.772857388711005
 30
0.0
 10
7.400990899172709
 20
3.772219259859865
 30
0.0
 10
7.377894844139389
 20
3.771066519948475
 30
0.0
 10
7.367758314128542
 20
3.77056099653398
 30
0.0
 10
7.348307022700376
 20
3.769543937846429
 30
0.0
 10
7.339108327784331
 20
3.769038399323657
 30
0.0
 10
7.33076203554523
 20
3.768529884690611
 30
0.0
  0
SPLINE
  5
DB
330
2
100
AcDbEntity
  8
Visible (ANSI)
100
AcDbSpline
210
0.0
220
0.0
230
1.0
 70
     8
 71
     3
 72
    10
 73
     6
 74
     0
 42
0.0000000001
 43
0.0000000001
 40
0.2826262548156022
 40
0.2826262548156022
 40
0.2826262548156022
 40
0.2826262548156022
 40
0.289878817798502
 40
0.289878817798502
 40
0.318832462445152
 40
0.318832462445152
 40
0.318832462445152
 40
0.318832462445152
 10
7.920343962425414
 20
3.795973714708302
 30
0.0
 10
7.919933789305611
 20
3.79575760694653
 30
0.0
 10
7.919513232000733
 20
3.795557892859764
 30
0.0
 10
7.917361134594314
 20
3.794645315968782
 30
0.0
 10
7.915490601104531
 20
3.794193152922808
 30
0.0
 10
7.913481838090306
 20
3.794039046469103
 30
0.0
  0
SPLINE
  5
DC
330
2
100
AcDbEntity
  8
Visible (ANSI)
100
AcDbSpline
210
0.0
220
0.0
230
1.0
 70
     8
 71
     3
 72
     8
 73
     4
 74
     0
 42
0.0000000001
 43
0.0000000001
 40
0.0
 40
0.0
 40
0.0
 40
0.0
 40
0.0057608779750525
 40
0.0057608779750525
 40
0.0057608779750525
 40
0.0057608779750525
 10
7.913481838090312
 20
3.794039046469103
 30
0.0
 10
7.912963455000844
 20
3.793999146776809
 30
0.0
 10
7.912437929921424
 20
3.793959273350332
 30
0.0
 10
7.911905433344481
 20
3.793919422525177
 30
0.0
  0
ARC
  5
DD
330
2
100
AcDbEntity
  8
Visible (ANSI)
100
AcDbCircle
 10
7.837140254602113
 20
3.782012673687882
 30
0.0
 40
0.0990000000000433
100
AcDbArc
 50
87.00109251126225
 51
89.9999999999992
  0
ARC
  5
DE
330
2
100
AcDbEntity
  8
Visible (ANSI)
100
AcDbCircle
 10
7.83714025460211
 20
3.782012673687923
 30
0.0
 40
0.0990000000000056
100
AcDbArc
 50
17.55044324292949
 51
40.94468424810227
  0
SPLINE
  5
DF
330
2
100
AcDbEntity
  8
Visible (ANSI)
100
AcDbSpline
210
0.0
220
0.0
230
1.0
 70
     8
 71
     3
 72
    18
 73
    14
 74
     0
 42
0.0000000001
 43
0.0000000001
 40
0.0
 40
0.0
 40
0.0
 40
0.0
 40
0.0366537963153634
 40
0.0366537963153634
 40
0.0708439579883169
 40
0.0708439579883169
 40
0.1120242868918696
 40
0.1120242868918696
 40
0.1590359766670063
 40
0.1590359766670063
 40
0.1887148847074666
 40
0.1887148847074666
 40
0.2278673029870126
 40
0.2278673029870126
 40
0.2278673029870126
 40
0.2278673029870126
 10
7.911919173520826
 20
3.846890353095785
 30
0.0
 10
7.908799989688595
 20
3.850485567921774
 30
0.0
 10
7.904766602581136
 20
3.854600002450993
 30
0.0
 10
7.895156087970343
 20
3.862455500742983
 30
0.0
 10
7.890436733452259
 20
3.865607234200124
 30
0.0
 10
7.880361727790263
 20
3.871303731868342
 30
0.0
 10
7.874849213552909
 20
3.873712078439545
 30
0.0
 10
7.863818564176804
 20
3.877553425234146
 30
0.0
 10
7.858553505515526
 20
3.878761309088672
 30
0.0
 10
7.851771456179683
 20
3.87996180549076
 30
0.0
 10
7.849739743410558
 20
3.880218689615
 30
0.0
 10
7.846346062130142
 20
3.880602872195784
 30
0.0
 10
7.845398920934239
 20
3.880667608731513
 30
0.0
 10
7.845398920152335
 20
3.880667599789741
 30
0.0
  0
SPLINE
  5
E0
330
2
100
AcDbEntity
  8
Visible (ANSI)
100
AcDbSpline
210
0.0
220
0.0
230
1.0
 70
     8
 71
     3
 72
    10
 73
     6
 74
     0
 42
0.0000000001
 43
0.0000000001
 40
0.0
 40
0.0
 40
0.0
 40
0.0
 40
0.1651473637667206
 40
0.1651473637667206
 40
0.3302947275306093
 40
0.3302947275306093
 40
0.3302947275306093
 40
0.3302947275306093
 10
7.845398920423631
 20
3.880667599762848
 30
0.0
 10
7.844886288476679
 20
3.880710513544326
 30
0.0
 10
7.844373329831792
 20
3.880749431057345
 30
0.0
 10
7.843346852632566
 20
3.880819266453763
 30
0.0
 10
7.842833349668352
 20
3.880850183276505
 30
0.0
 10
7.842319629132341
 20
3.880877096406493
 30
0.0
  0
ARC
  5
E1
330
2
100
AcDbEntity
  8
Visible (ANSI)
100
AcDbCircle
 10
7.837140254602115
 20
3.78201267368791
 30
0.0
 40
0.198000000000016
100
AcDbArc
 50
87.00109251126118
 51
90.0
  0
SPLINE
  5
E2
330
2
100
AcDbEntity
  8
Visible (ANSI)
100
AcDbSpline
210
0.0
220
0.0
230
1.0
 70
     8
 71
     3
 72
    10
 73
     6
 74
     0
 42
0.0000000001
 43
0.0000000001
 40
0.0
 40
0.0
 40
0.0
 40
0.0
 40
0.16528686897342
 40
0.16528686897342
 40
0.3305737379475778
 40
0.3305737379475778
 40
0.3305737379475778
 40
0.3305737379475778
 10
7.847499003662568
 20
3.979741519125061
 30
0.0
 10
7.8485264447344
 20
3.979687692865094
 30
0.0
 10
7.849553450662817
 20
3.979625859219616
 30
0.0
 10
7.851606405061654
 20
3.979486188426752
 30
0.0
 10
7.852632322351418
 20
3.979408353400713
 30
0.0
 10
7.853657586245148
 20
3.979322525837772
 30
0.0
  0
SPLINE
  5
E3
330
2
100
AcDbEntity
  8
Visible (ANSI)
100
AcDbSpline
210
0.0
220
0.0
230
1.0
 70
     8
 71
     3
 72
    22
 73
    18
 74
     0
 42
0.0000000001
 43
0.0000000001
 40
0.0000820202062113
 40
0.0000820202062113
 40
0.0000820202062113
 40
0.0000820202062113
 40
0.029626482978677
 40
0.029626482978677
 40
0.0500156311667034
 40
0.0500156311667034
 40
0.0710441815723896
 40
0.0710441815723896
 40
0.1018743484706885
 40
0.1018743484706885
 40
0.1531807504953942
 40
0.1531807504953942
 40
0.2084466758428151
 40
0.2084466758428151
 40
0.234584423121591
 40
0.234584423121591
 40
0.2607105320671684
 40
0.2607105320671684
 40
0.2607105320671684
 40
0.2607105320671684
 10
7.853657578129444
 20
3.979322526696086
 30
0.0
 10
7.853657427542007
 20
3.979322582182135
 30
0.0
 10
7.853955124995735
 20
3.979305379646067
 30
0.0
 10
7.856942347639512
 20
3.97902378540998
 30
0.0
 10
7.85867841158592
 20
3.978849999556661
 30
0.0
 10
7.86310836956074
 20
3.978315474073577
 30
0.0
 10
7.865816393652787
 20
3.977949842295032
 30
0.0
 10
7.873395704935076
 20
3.976718558288595
 30
0.0
 10
7.878649597111997
 20
3.975702447863225
 30
0.0
 10
7.893902080562656
 20
3.971955676917457
 30
0.0
 10
7.905007488336475
 20
3.96847022146171
 30
0.0
 10
7.929678366647465
 20
3.957614689909005
 30
0.0
 10
7.94262550911584
 20
3.950261402733892
 30
0.0
 10
7.960618673649222
 20
3.936960080310635
 30
0.0
 10
7.96620840399596
 20
3.932339768947815
 30
0.0
 10
7.976879860936378
 20
3.922474832821818
 30
0.0
 10
7.981944279489453
 20
3.917247343668801
 30
0.0
 10
7.986698092439534
 20
3.911768032503645
 30
0.0
  0
ARC
  5
E4
330
2
100
AcDbEntity
  8
Visible (ANSI)
100
AcDbCircle
 10
7.837140254602108
 20
3.782012673687921
 30
0.0
 40
0.1980000000000088
100
AcDbArc
 50
30.965782570558
 51
40.94468424810281
  0
LINE
  5
E5
330
2
100
AcDbEntity
  8
Visible (ANSI)
100
AcDbLine
 10
7.842319629132341
 20
3.880877096406493
 30
0.0
 11
7.847499003662567
 21
3.979741519125061
 31
0.0
  0
LINE
  5
E6
330
2
100
AcDbEntity
  8
Visible (ANSI)
100
AcDbLine
 10
7.845398920423631
 20
3.880667599762848
 30
0.0
 11
7.853657586245148
 21
3.979322525837772
 31
0.0
  0
LINE
  5
E7
330
2
100
AcDbEntity
  8
Visible (ANSI)
100
AcDbLine
 10
7.911919173520826
 20
3.846890353095785
 30
0.0
 11
7.936117673364639
 21
3.867884806314945
 31
0.0
  0
LINE
  5
E8
330
2
100
AcDbEntity
  8
Visible (ANSI)
100
AcDbLine
 10
7.954564142446242
 20
3.883888836923942
 30
0.0
 11
7.986698092439534
 21
3.911768032503645
 31
0.0
  0
LINE
  5
E9
330
2
100
AcDbEntity
  8
Visible (ANSI)
100
AcDbLine
 10
4.354872994672667
 20
3.21791898922023
 30
0.0
 11
4.354872994672667
 21
2.988918989220231
 31
0.0
  0
LINE
  5
EA
330
2
100
AcDbEntity
  8
Visible (ANSI)
100
AcDbLine
 10
6.35487299467266
 20
3.217918989220229
 30
0.0
 11
6.35487299467266
 21
2.988918989220229
 31
0.0
  0
LINE
  5
EB
330
2
100
AcDbEntity
  8
Visible (ANSI)
100
AcDbLine
 10
4.354872994672667
 20
3.21791898922023
 30
0.0
 11
6.35487299467266
 21
3.217918989220228
 31
0.0
  0
ENDSEC
  0
SECTION
  2
OBJECTS
  0
DICTIONARY
  5
7
330
0
100
AcDbDictionary
281
     1
  3
ACAD_CIP_PREVIOUS_PRODUCT_INFO
350
123
  3
ACAD_COLOR
350
40
  3
ACAD_GROUP
350
2C
  3
ACAD_LAYOUT
350
15
  3
ACAD_MATERIAL
350
9
  3
ACAD_MLEADERSTYLE
350
43
  3
ACAD_MLINESTYLE
350
2D
  3
ACAD_PLOTSETTINGS
350
2E
  3
ACAD_PLOTSTYLENAME
350
6
  3
ACAD_SCALELIST
350
41
  3
ACAD_TABLESTYLE
350
42
  3
ACAD_VISUALSTYLE
350
26
  3
ACDB_RECOMPOSE_DATA
350
12A
  3
AcDbVariableDictionary
350
FD
  3
DWGPROPS
350
12B
  0
XRECORD
  5
123
102
{ACAD_REACTORS
330
7
102
}
330
7
100
AcDbXrecord
280
     1
300
AMECH_PP
300
2012
300
85794PDSS_2012_0F
  0
DICTIONARY
  5
40
102
{ACAD_REACTORS
330
7
102
}
330
7
100
AcDbDictionary
281
     1
  0
DICTIONARY
  5
2C
102
{ACAD_REACTORS
330
7
102
}
330
7
100
AcDbDictionary
281
     1
  0
DICTIONARY
  5
15
102
{ACAD_REACTORS
330
7
102
}
330
7
100
AcDbDictionary
281
     1
  3
Layout1
350
19
  3
Model
350
14
  0
DICTIONARY
  5
9
102
{ACAD_REACTORS
330
7
102
}
330
7
100
AcDbDictionary
281
     1
  3
ByBlock
350
38
  3
ByLayer
350
2F
  3
Global
350
8
  0
DICTIONARY
  5
43
102
{ACAD_REACTORS
330
7
102
}
330
7
100
AcDbDictionary
281
     1
  3
Standard
350
120
  0
DICTIONARY
  5
2D
102
{ACAD_REACTORS
330
7
102
}
330
7
100
AcDbDictionary
281
     1
  3
Standard
350
44
  0
DICTIONARY
  5
2E
102
{ACAD_REACTORS
330
7
102
}
330
7
100
AcDbDictionary
281
     1
  0
ACDBDICTIONARYWDFLT
  5
6
102
{ACAD_REACTORS
330
7
102
}
330
7
100
AcDbDictionary
281
     1
  3
Normal
350
5
100
AcDbDictionaryWithDefault
340
5
  0
DICTIONARY
  5
41
102
{ACAD_REACTORS
330
7
102
}
330
7
100
AcDbDictionary
281
     1
  3
A0
350
49
  3
A1
350
4A
  3
A2
350
4B
  3
A3
350
4C
  3
A4
350
4D
  3
A5
350
4E
  3
A6
350
4F
  3
A7
350
50
  3
A8
350
51
  3
A9
350
52
  3
B0
350
53
  3
B1
350
54
  3
B2
350
55
  3
B3
350
56
  3
B4
350
57
  3
B5
350
58
  3
B6
350
59
  0
DICTIONARY
  5
42
102
{ACAD_REACTORS
330
7
102
}
330
7
100
AcDbDictionary
281
     1
  3
Standard
350
45
  0
DICTIONARY
  5
26
102
{ACAD_REACTORS
330
7
102
}
330
7
100
AcDbDictionary
281
     1
  3
2dWireframe
350
25
  3
Basic
350
10F
  3
Brighten
350
113
  3
ColorChange
350
117
  3
Conceptual
350
111
  3
Dim
350
112
  3
EdgeColorOff
350
11F
  3
Facepattern
350
116
  3
Flat
350
10B
  3
FlatWithEdges
350
10C
  3
Gouraud
350
10D
  3
GouraudWithEdges
350
10E
  3
Hidden
350
110
  3
JitterOff
350
11D
  3
Linepattern
350
115
  3
OverhangOff
350
11E
  3
Realistic
350
46
  3
Shaded
350
11C
  3
Shaded with edges
350
11B
  3
Shades of Gray
350
118
  3
Sketchy
350
119
  3
Thicken
350
114
  3
Wireframe
350
47
  3
X-Ray
350
11A
  0
XRECORD
  5
12A
102
{ACAD_REACTORS
330
7
102
}
330
7
100
AcDbXrecord
280
     1
 90
        1
330
45
  0
DICTIONARY
  5
FD
102
{ACAD_REACTORS
330
7
102
}
330
7
100
AcDbDictionary
281
     1
  3
CANNOSCALE
350
101
  3
CMLEADERSTYLE
350
FF
  3
CTABLESTYLE
350
FE
  3
DIMASSOC
350
108
  3
HIDETEXT
350
107
  3
INDEXCTL
350
106
  3
LAYEREVAL
350
103
  3
LAYERNOTIFY
350
104
  3
LIGHTINGUNITS
350
102
  3
MSLTSCALE
350
100
  3
SORTENTS
350
105
  3
XCLIPFRAME
350
126
  0
XRECORD
  5
12B
102
{ACAD_REACTORS
330
7
102
}
330
7
100
AcDbXrecord
280
     1
  1
DWGPROPS COOKIE
  2

  3

  4

  6

  7

  8
jwalls
  9

300
=
301
=
302
=
303
=
304
=
305
=
306
=
307
=
308
=
309
=
 40
0.0018996296296296
 41
2456514.568162836
 42
2456514.574341586
  1

 90
        0
  0
LAYOUT
  5
19
102
{ACAD_XDICTIONARY
360
12F
102
}
102
{ACAD_REACTORS
330
15
102
}
330
15
100
AcDbPlotSettings
  1

  2

  4

  6

 40
0.0
 41
0.0
 42
0.0
 43
0.0
 44
0.0
 45
0.0
 46
0.0
 47
0.0
 48
0.0
 49
0.0
140
0.0
141
0.0
142
1.0
143
1.0
 70
   688
 72
     0
 73
     0
 74
     5
  7

 75
    16
147
1.0
148
0.0
149
0.0
100
AcDbLayout
  1
Layout1
 70
     1
 71
     1
 10
0.0
 20
0.0
 11
11.0
 21
8.5
 12
0.0
 22
0.0
 32
0.0
 14
0.0
 24
0.0
 34
0.0
 15
11.0
 25
8.5
 35
0.0
146
0.0
 13
0.0
 23
0.0
 33
0.0
 16
1.0
 26
0.0
 36
0.0
 17
0.0
 27
1.0
 37
0.0
 76
     0
330
16
  0
LAYOUT
  5
14
102
{ACAD_XDICTIONARY
360
12D
102
}
102
{ACAD_REACTORS
330
15
102
}
330
15
100
AcDbPlotSettings
  1

  2

  4

  6

 40
0.0
 41
0.0
 42
0.0
 43
0.0
 44
0.0
 45
0.0
 46
0.0
 47
0.0
 48
0.0
 49
0.0
140
0.0
141
0.0
142
1.0
143
1.0
 70
  1712
 72
     0
 73
     0
 74
     0
  7

 75
     0
147
1.0
148
0.0
149
0.0
100
AcDbLayout
  1
Model
 70
     1
 71
     0
 10
0.0
 20
0.0
 11
12.0
 21
9.0
 12
0.0
 22
0.0
 32
0.0
 14
0.0
 24
0.0
 34
0.0
 15
0.0
 25
0.0
 35
0.0
146
0.0
 13
0.0
 23
0.0
 33
0.0
 16
1.0
 26
0.0
 36
0.0
 17
0.0
 27
1.0
 37
0.0
 76
     0
330
2
331
24
  0
MATERIAL
  5
38
102
{ACAD_XDICTIONARY
360
39
102
}
102
{ACAD_REACTORS
330
9
102
}
330
9
100
AcDbMaterial
  1
ByBlock
 72
     0
 43
0.0208333333333333
 43
0.0
 43
0.0
 43
0.0
 43
0.0
 43
0.0208333333333333
 43
0.0
 43
0.0
 43
0.0
 43
0.0
 43
1.0
 43
0.0
 43
0.0
 43
0.0
 43
0.0
 43
1.0
 77
     0
 47
0.0208333333333333
 47
0.0
 47
0.0
 47
0.0
 47
0.0
 47
0.0208333333333333
 47
0.0
 47
0.0
 47
0.0
 47
0.0
 47
1.0
 47
0.0
 47
0.0
 47
0.0
 47
0.0
 47
1.0
171
     0
 49
0.0208333333333333
 49
0.0
 49
0.0
 49
0.0
 49
0.0
 49
0.0208333333333333
 49
0.0
 49
0.0
 49
0.0
 49
0.0
 49
1.0
 49
0.0
 49
0.0
 49
0.0
 49
0.0
 49
1.0
175
     0
142
0.0208333333333333
142
0.0
142
0.0
142
0.0
142
0.0
142
0.0208333333333333
142
0.0
142
0.0
142
0.0
142
0.0
142
1.0
142
0.0
142
0.0
142
0.0
142
0.0
142
1.0
179
     0
144
0.0208333333333333
144
0.0
144
0.0
144
0.0
144
0.0
144
0.0208333333333333
144
0.0
144
0.0
144
0.0
144
0.0
144
1.0
144
0.0
144
0.0
144
0.0
144
0.0
144
1.0
147
0.0208333333333333
147
0.0
147
0.0
147
0.0
147
0.0
147
0.0208333333333333
147
0.0
147
0.0
147
0.0
147
0.0
147
1.0
147
0.0
147
0.0
147
0.0
147
0.0
147
1.0
  0
MATERIAL
  5
2F
102
{ACAD_XDICTIONARY
360
30
102
}
102
{ACAD_REACTORS
330
9
102
}
330
9
100
AcDbMaterial
  1
ByLayer
 72
     0
 43
0.0208333333333333
 43
0.0
 43
0.0
 43
0.0
 43
0.0
 43
0.0208333333333333
 43
0.0
 43
0.0
 43
0.0
 43
0.0
 43
1.0
 43
0.0
 43
0.0
 43
0.0
 43
0.0
 43
1.0
 77
     0
 47
0.0208333333333333
 47
0.0
 47
0.0
 47
0.0
 47
0.0
 47
0.0208333333333333
 47
0.0
 47
0.0
 47
0.0
 47
0.0
 47
1.0
 47
0.0
 47
0.0
 47
0.0
 47
0.0
 47
1.0
171
     0
 49
0.0208333333333333
 49
0.0
 49
0.0
 49
0.0
 49
0.0
 49
0.0208333333333333
 49
0.0
 49
0.0
 49
0.0
 49
0.0
 49
1.0
 49
0.0
 49
0.0
 49
0.0
 49
0.0
 49
1.0
175
     0
142
0.0208333333333333
142
0.0
142
0.0
142
0.0
142
0.0
142
0.0208333333333333
142
0.0
142
0.0
142
0.0
142
0.0
142
1.0
142
0.0
142
0.0
142
0.0
142
0.0
142
1.0
179
     0
144
0.0208333333333333
144
0.0
144
0.0
144
0.0
144
0.0
144
0.0208333333333333
144
0.0
144
0.0
144
0.0
144
0.0
144
1.0
144
0.0
144
0.0
144
0.0
144
0.0
144
1.0
147
0.0208333333333333
147
0.0
147
0.0
147
0.0
147
0.0
147
0.0208333333333333
147
0.0
147
0.0
147
0.0
147
0.0
147
1.0
147
0.0
147
0.0
147
0.0
147
0.0
147
1.0
  0
MATERIAL
  5
8
102
{ACAD_XDICTIONARY
360
A
102
}
102
{ACAD_REACTORS
330
9
102
}
330
9
100
AcDbMaterial
  1
Global
 72
     0
 43
0.0208333333333333
 43
0.0
 43
0.0
 43
0.0
 43
0.0
 43
0.0208333333333333
 43
0.0
 43
0.0
 43
0.0
 43
0.0
 43
1.0
 43
0.0
 43
0.0
 43
0.0
 43
0.0
 43
1.0
 77
     0
 47
0.0208333333333333
 47
0.0
 47
0.0
 47
0.0
 47
0.0
 47
0.0208333333333333
 47
0.0
 47
0.0
 47
0.0
 47
0.0
 47
1.0
 47
0.0
 47
0.0
 47
0.0
 47
0.0
 47
1.0
171
     0
 49
0.0208333333333333
 49
0.0
 49
0.0
 49
0.0
 49
0.0
 49
0.0208333333333333
 49
0.0
 49
0.0
 49
0.0
 49
0.0
 49
1.0
 49
0.0
 49
0.0
 49
0.0
 49
0.0
 49
1.0
175
     0
142
0.0208333333333333
142
0.0
142
0.0
142
0.0
142
0.0
142
0.0208333333333333
142
0.0
142
0.0
142
0.0
142
0.0
142
1.0
142
0.0
142
0.0
142
0.0
142
0.0
142
1.0
179
     0
144
0.0208333333333333
144
0.0
144
0.0
144
0.0
144
0.0
144
0.0208333333333333
144
0.0
144
0.0
144
0.0
144
0.0
144
1.0
144
0.0
144
0.0
144
0.0
144
0.0
144
1.0
147
0.0208333333333333
147
0.0
147
0.0
147
0.0
147
0.0
147
0.0208333333333333
147
0.0
147
0.0
147
0.0
147
0.0
147
1.0
147
0.0
147
0.0
147
0.0
147
0.0
147
1.0
  0
MLEADERSTYLE
  5
120
102
{ACAD_XDICTIONARY
360
128
102
}
102
{ACAD_REACTORS
330
43
102
}
330
43
100
AcDbMLeaderStyle
170
     2
171
     1
172
     0
 90
        2
 40
0.0
 41
0.0
173
     1
 91
-1056964608
340
1F
 92
       -2
290
     1
 42
0.09
291
     1
 43
0.36
  3
Standard
 44
0.18
300

342
1C
174
     1
178
     6
175
     1
176
     0
 93
-1056964608
 45
0.18
292
     0
297
     0
 46
0.18
 94
-1056964608
 47
1.0
 49
1.0
140
1.0
293
     1
141
0.0
294
     1
177
     0
142
1.0
295
     0
296
     0
143
0.125
1001
ACAD_MLEADERVER
1070
     2
  0
MLINESTYLE
  5
44
102
{ACAD_REACTORS
330
2D
102
}
330
2D
100
AcDbMlineStyle
  2
STANDARD
 70
     0
  3

 62
   256
 51
90.0
 52
90.0
 71
     2
 49
0.5
 62
   256
  6
BYLAYER
 49
-0.5
 62
   256
  6
BYLAYER
  0
ACDBPLACEHOLDER
  5
5
102
{ACAD_REACTORS
330
6
102
}
330
6
  0
SCALE
  5
49
102
{ACAD_REACTORS
330
41
102
}
330
41
100
AcDbScale
 70
     0
300
1:1
140
1.0
141
1.0
290
     1
  0
SCALE
  5
4A
102
{ACAD_REACTORS
330
41
102
}
330
41
100
AcDbScale
 70
     0
300
1/128" = 1'-0"
140
0.0078125
141
12.0
290
     0
  0
SCALE
  5
4B
102
{ACAD_REACTORS
330
41
102
}
330
41
100
AcDbScale
 70
     0
300
1/64" = 1'-0"
140
0.015625
141
12.0
290
     0
  0
SCALE
  5
4C
102
{ACAD_REACTORS
330
41
102
}
330
41
100
AcDbScale
 70
     0
300
1/32" = 1'-0"
140
0.03125
141
12.0
290
     0
  0
SCALE
  5
4D
102
{ACAD_REACTORS
330
41
102
}
330
41
100
AcDbScale
 70
     0
300
1/16" = 1'-0"
140
0.0625
141
12.0
290
     0
  0
SCALE
  5
4E
102
{ACAD_REACTORS
330
41
102
}
330
41
100
AcDbScale
 70
     0
300
3/32" = 1'-0"
140
0.09375
141
12.0
290
     0
  0
SCALE
  5
4F
102
{ACAD_REACTORS
330
41
102
}
330
41
100
AcDbScale
 70
     0
300
1/8" = 1'-0"
140
0.125
141
12.0
290
     0
  0
SCALE
  5
50
102
{ACAD_REACTORS
330
41
102
}
330
41
100
AcDbScale
 70
     0
300
3/16" = 1'-0"
140
0.1875
141
12.0
290
     0
  0
SCALE
  5
51
102
{ACAD_REACTORS
330
41
102
}
330
41
100
AcDbScale
 70
     0
300
1/4" = 1'-0"
140
0.25
141
12.0
290
     0
  0
SCALE
  5
52
102
{ACAD_REACTORS
330
41
102
}
330
41
100
AcDbScale
 70
     0
300
3/8" = 1'-0"
140
0.375
141
12.0
290
     0
  0
SCALE
  5
53
102
{ACAD_REACTORS
330
41
102
}
330
41
100
AcDbScale
 70
     0
300
1/2" = 1'-0"
140
0.5
141
12.0
290
     0
  0
SCALE
  5
54
102
{ACAD_REACTORS
330
41
102
}
330
41
100
AcDbScale
 70
     0
300
3/4" = 1'-0"
140
0.75
141
12.0
290
     0
  0
SCALE
  5
55
102
{ACAD_REACTORS
330
41
102
}
330
41
100
AcDbScale
 70
     0
300
1" = 1'-0"
140
1.0
141
12.0
290
     0
  0
SCALE
  5
56
102
{ACAD_REACTORS
330
41
102
}
330
41
100
AcDbScale
 70
     0
300
1-1/2" = 1'-0"
140
1.5
141
12.0
290
     0
  0
SCALE
  5
57
102
{ACAD_REACTORS
330
41
102
}
330
41
100
AcDbScale
 70
     0
300
3" = 1'-0"
140
3.0
141
12.0
290
     0
  0
SCALE
  5
58
102
{ACAD_REACTORS
330
41
102
}
330
41
100
AcDbScale
 70
     0
300
6" = 1'-0"
140
6.0
141
12.0
290
     0
  0
SCALE
  5
59
102
{ACAD_REACTORS
330
41
102
}
330
41
100
AcDbScale
 70
     0
300
1'-0" = 1'-0"
140
12.0
141
12.0
290
     0
  0
TABLESTYLE
  5
45
102
{ACAD_XDICTIONARY
360
EC
102
}
102
{ACAD_REACTORS
330
42
102
}
330
42
100
AcDbTableStyle
  3
Standard
 70
     0
 71
     0
 40
0.06
 41
0.06
280
     0
281
     0
  7
Standard
140
0.18
170
     2
 62
     0
 63
     7
283
     0
274
    -2
284
     1
 64
     0
275
    -2
285
     1
 65
     0
276
    -2
286
     1
 66
     0
277
    -2
287
     1
 67
     0
278
    -2
288
     1
 68
     0
279
    -2
289
     1
 69
     0
  7
Standard
140
0.25
170
     5
 62
     0
 63
     7
283
     0
274
    -2
284
     1
 64
     0
275
    -2
285
     1
 65
     0
276
    -2
286
     1
 66
     0
277
    -2
287
     1
 67
     0
278
    -2
288
     1
 68
     0
279
    -2
289
     1
 69
     0
  7
Standard
140
0.18
170
     5
 62
     0
 63
     7
283
     0
274
    -2
284
     1
 64
     0
275
    -2
285
     1
 65
     0
276
    -2
286
     1
 66
     0
277
    -2
287
     1
 67
     0
278
    -2
288
     1
 68
     0
279
    -2
289
     1
 69
     0
  0
VISUALSTYLE
  5
25
102
{ACAD_XDICTIONARY
360
131
102
}
102
{ACAD_REACTORS
330
26
102
}
330
26
100
AcDbVisualStyle
  2
2dWireframe
 70
     4
 71
     0
 72
     2
 73
     0
 90
        0
 40
-0.6
 41
-30.0
 62
     5
 63
     7
 74
     1
 91
        4
 64
     7
 65
   257
 75
     1
175
     1
 42
1.0
 92
        0
 66
   257
 43
1.0
 76
     1
 77
     6
 78
     2
 67
     7
 79
     5
170
     0
171
     0
290
     0
174
     0
 93
        1
 44
0.0
173
     0
291
     0
 45
0.0
1001
ACAD
1000
AcDbSavedByObjectVersion
1070
     0
  0
VISUALSTYLE
  5
10F
102
{ACAD_XDICTIONARY
360
142
102
}
102
{ACAD_REACTORS
330
26
102
}
330
26
100
AcDbVisualStyle
  2
Basic
 70
     7
 71
     1
 72
     0
 73
     1
 90
        0
 40
-0.6
 41
-30.0
 62
     5
 63
     7
 74
     0
 91
        4
 64
     7
 65
   257
 75
     1
175
     1
 42
1.0
 92
        8
 66
     7
 43
1.0
 76
     1
 77
     6
 78
     2
 67
     7
 79
     5
170
     0
171
     0
290
     0
174
     0
 93
        1
 44
0.0
173
     0
291
     1
 45
0.0
1001
ACAD
1000
AcDbSavedByObjectVersion
1070
     0
  0
VISUALSTYLE
  5
113
102
{ACAD_XDICTIONARY
360
14A
102
}
102
{ACAD_REACTORS
330
26
102
}
330
26
100
AcDbVisualStyle
  2
Brighten
 70
    12
 71
     2
 72
     2
 73
     0
 90
        0
 40
-0.6
 41
-30.0
 62
     5
 63
     7
 74
     1
 91
        4
 64
     7
 65
   257
 75
     1
175
     1
 42
1.0
 92
        8
 66
     7
 43
1.0
 76
     1
 77
     6
 78
     2
 67
     7
 79
     5
170
     0
171
     0
290
     0
174
     0
 93
        1
 44
50.0
173
     0
291
     1
 45
0.0
1001
ACAD
1000
AcDbSavedByObjectVersion
1070
     0
  0
VISUALSTYLE
  5
117
102
{ACAD_XDICTIONARY
360
152
102
}
102
{ACAD_REACTORS
330
26
102
}
330
26
100
AcDbVisualStyle
  2
ColorChange
 70
    16
 71
     2
 72
     2
 73
     3
 90
        0
 40
-0.6
 41
-30.0
 62
     5
 63
     8
 74
     1
 91
        4
 64
     7
 65
   257
 75
     1
175
     1
 42
1.0
 92
        8
 66
     8
 43
1.0
 76
     1
 77
     6
 78
     2
 67
     7
 79
     5
170
     0
171
     0
290
     0
174
     0
 93
        1
 44
0.0
173
     0
291
     1
 45
0.0
1001
ACAD
1000
AcDbSavedByObjectVersion
1070
     0
  0
VISUALSTYLE
  5
111
102
{ACAD_XDICTIONARY
360
146
102
}
102
{ACAD_REACTORS
330
26
102
}
330
26
100
AcDbVisualStyle
  2
Conceptual
 70
     9
 71
     3
 72
     2
 73
     0
 90
        0
 40
-0.6
 41
-30.0
 62
     5
 63
     7
 74
     2
 91
        2
 64
     7
 65
   257
 75
     1
175
     1
 42
179.0
 92
        8
 66
     7
 43
1.0
 76
     1
 77
     6
 78
     2
 67
     7
 79
     3
170
     0
171
     0
290
     0
174
     0
 93
        1
 44
0.0
173
     0
291
     0
 45
0.0
1001
ACAD
1000
AcDbSavedByObjectVersion
1070
     0
  0
VISUALSTYLE
  5
112
102
{ACAD_XDICTIONARY
360
148
102
}
102
{ACAD_REACTORS
330
26
102
}
330
26
100
AcDbVisualStyle
  2
Dim
 70
    11
 71
     2
 72
     2
 73
     0
 90
        0
 40
-0.6
 41
-30.0
 62
     5
 63
     7
 74
     1
 91
        4
 64
     7
 65
   257
 75
     1
175
     1
 42
1.0
 92
        8
 66
     7
 43
1.0
 76
     1
 77
     6
 78
     2
 67
     7
 79
     5
170
     0
171
     0
290
     0
174
     0
 93
        1
 44
-50.0
173
     0
291
     1
 45
0.0
1001
ACAD
1000
AcDbSavedByObjectVersion
1070
     0
  0
VISUALSTYLE
  5
11F
102
{ACAD_XDICTIONARY
360
162
102
}
102
{ACAD_REACTORS
330
26
102
}
330
26
100
AcDbVisualStyle
  2
EdgeColorOff
 70
    22
 71
     2
 72
     2
 73
     0
 90
        0
 40
-0.6
 41
-30.0
 62
     5
 63
     7
 74
     1
 91
        4
 64
     7
 65
   257
 75
     1
175
     1
 42
1.0
 92
        8
 66
     7
 43
1.0
 76
     1
 77
     6
 78
     2
 67
     7
 79
     5
170
     0
171
     0
290
     0
174
     0
 93
        1
 44
0.0
173
     0
291
     1
 45
0.0
1001
ACAD
1000
AcDbSavedByObjectVersion
1070
     0
  0
VISUALSTYLE
  5
116
102
{ACAD_XDICTIONARY
360
150
102
}
102
{ACAD_REACTORS
330
26
102
}
330
26
100
AcDbVisualStyle
  2
Facepattern
 70
    15
 71
     2
 72
     2
 73
     0
 90
        0
 40
-0.6
 41
-30.0
 62
     5
 63
     7
 74
     1
 91
        4
 64
     7
 65
   257
 75
     1
175
     1
 42
1.0
 92
        8
 66
     7
 43
1.0
 76
     1
 77
     6
 78
     2
 67
     7
 79
     5
170
     0
171
     0
290
     0
174
     0
 93
        1
 44
0.0
173
     0
291
     1
 45
0.0
1001
ACAD
1000
AcDbSavedByObjectVersion
1070
     0
  0
VISUALSTYLE
  5
10B
102
{ACAD_XDICTIONARY
360
13A
102
}
102
{ACAD_REACTORS
330
26
102
}
330
26
100
AcDbVisualStyle
  2
Flat
 70
     0
 71
     2
 72
     1
 73
     1
 90
        2
 40
-0.6
 41
30.0
 62
     5
 63
     7
 74
     0
 91
        0
 64
     7
 65
   257
 75
     1
175
     1
 42
1.0
 92
        8
 66
     7
 43
1.0
 76
     1
 77
     6
 78
     2
 67
     7
 79
     5
170
     0
171
     0
290
     0
174
     0
 93
       13
 44
0.0
173
     0
291
     1
 45
0.0
1001
ACAD
1000
AcDbSavedByObjectVersion
1070
     0
  0
VISUALSTYLE
  5
10C
102
{ACAD_XDICTIONARY
360
13C
102
}
102
{ACAD_REACTORS
330
26
102
}
330
26
100
AcDbVisualStyle
  2
FlatWithEdges
 70
     1
 71
     2
 72
     1
 73
     1
 90
        2
 40
-0.6
 41
30.0
 62
     5
 63
     7
 74
     1
 91
        0
 64
     7
 65
   257
 75
     1
175
     1
 42
1.0
 92
        0
 66
   257
 43
1.0
 76
     1
 77
     6
 78
     2
 67
     7
 79
     5
170
     0
171
     0
290
     0
174
     0
 93
       13
 44
0.0
173
     0
291
     1
 45
0.0
1001
ACAD
1000
AcDbSavedByObjectVersion
1070
     0
  0
VISUALSTYLE
  5
10D
102
{ACAD_XDICTIONARY
360
13E
102
}
102
{ACAD_REACTORS
330
26
102
}
330
26
100
AcDbVisualStyle
  2
Gouraud
 70
     2
 71
     2
 72
     2
 73
     1
 90
        2
 40
-0.6
 41
30.0
 62
     5
 63
     7
 74
     0
 91
        0
 64
     7
 65
   257
 75
     1
175
     1
 42
1.0
 92
        0
 66
     7
 43
1.0
 76
     1
 77
     6
 78
     2
 67
     7
 79
     5
170
     0
171
     0
290
     0
174
     0
 93
       13
 44
0.0
173
     0
291
     1
 45
0.0
1001
ACAD
1000
AcDbSavedByObjectVersion
1070
     0
  0
VISUALSTYLE
  5
10E
102
{ACAD_XDICTIONARY
360
140
102
}
102
{ACAD_REACTORS
330
26
102
}
330
26
100
AcDbVisualStyle
  2
GouraudWithEdges
 70
     3
 71
     2
 72
     2
 73
     1
 90
        2
 40
-0.6
 41
30.0
 62
     5
 63
     7
 74
     1
 91
        0
 64
     7
 65
   257
 75
     1
175
     1
 42
1.0
 92
        0
 66
   257
 43
1.0
 76
     1
 77
     6
 78
     2
 67
     7
 79
     5
170
     0
171
     0
290
     0
174
     0
 93
       13
 44
0.0
173
     0
291
     1
 45
0.0
1001
ACAD
1000
AcDbSavedByObjectVersion
1070
     0
  0
VISUALSTYLE
  5
110
102
{ACAD_XDICTIONARY
360
144
102
}
102
{ACAD_REACTORS
330
26
102
}
330
26
100
AcDbVisualStyle
  2
Hidden
 70
     6
 71
     1
 72
     2
 73
     2
 90
        0
 40
-0.6
 41
-30.0
 62
     5
 63
     7
 74
     2
 91
        2
 64
     7
 65
   257
 75
     2
175
     1
 42
40.0
 92
        0
 66
   257
 43
1.0
 76
     1
 77
     6
 78
     2
 67
     7
 79
     3
170
     0
171
     0
290
     0
174
     0
 93
        1
 44
0.0
173
     0
291
     0
 45
0.0
1001
ACAD
1000
AcDbSavedByObjectVersion
1070
     0
  0
VISUALSTYLE
  5
11D
102
{ACAD_XDICTIONARY
360
15E
102
}
102
{ACAD_REACTORS
330
26
102
}
330
26
100
AcDbVisualStyle
  2
JitterOff
 70
    20
 71
     2
 72
     2
 73
     0
 90
        0
 40
-0.6
 41
-30.0
 62
     5
 63
     7
 74
     1
 91
        4
 64
     7
 65
   257
 75
     1
175
     1
 42
1.0
 92
       10
 66
     7
 43
1.0
 76
     1
 77
     6
 78
     2
 67
     7
 79
     5
170
     0
171
     0
290
     0
174
     0
 93
        1
 44
0.0
173
     0
291
     1
 45
0.0
1001
ACAD
1000
AcDbSavedByObjectVersion
1070
     0
  0
VISUALSTYLE
  5
115
102
{ACAD_XDICTIONARY
360
14E
102
}
102
{ACAD_REACTORS
330
26
102
}
330
26
100
AcDbVisualStyle
  2
Linepattern
 70
    14
 71
     2
 72
     2
 73
     0
 90
        0
 40
-0.6
 41
-30.0
 62
     5
 63
     7
 74
     1
 91
        4
 64
     7
 65
   257
 75
     7
175
     7
 42
1.0
 92
        8
 66
     7
 43
1.0
 76
     1
 77
     6
 78
     2
 67
     7
 79
     5
170
     0
171
     0
290
     0
174
     0
 93
        1
 44
0.0
173
     0
291
     1
 45
0.0
1001
ACAD
1000
AcDbSavedByObjectVersion
1070
     0
  0
VISUALSTYLE
  5
11E
102
{ACAD_XDICTIONARY
360
160
102
}
102
{ACAD_REACTORS
330
26
102
}
330
26
100
AcDbVisualStyle
  2
OverhangOff
 70
    21
 71
     2
 72
     2
 73
     0
 90
        0
 40
-0.6
 41
-30.0
 62
     5
 63
     7
 74
     1
 91
        4
 64
     7
 65
   257
 75
     1
175
     1
 42
1.0
 92
        9
 66
     7
 43
1.0
 76
     1
 77
     6
 78
     2
 67
     7
 79
     5
170
     0
171
     0
290
     0
174
     0
 93
        1
 44
0.0
173
     0
291
     1
 45
0.0
1001
ACAD
1000
AcDbSavedByObjectVersion
1070
     0
  0
VISUALSTYLE
  5
46
102
{ACAD_XDICTIONARY
360
136
102
}
102
{ACAD_REACTORS
330
26
102
}
330
26
100
AcDbVisualStyle
  2
Realistic
 70
     8
 71
     2
 72
     2
 73
     0
 90
        2
 40
-0.6
 41
30.0
 62
     5
 63
     7
 74
     0
 91
        0
 64
     7
 65
   257
 75
     1
175
     1
 42
1.0
 92
        8
 66
   257
 43
1.0
 76
     1
 77
     6
 78
     2
 67
     7
 79
     3
170
     0
171
     0
290
     0
174
     0
 93
       13
 44
0.0
173
     0
291
     0
 45
0.0
1001
ACAD
1000
AcDbSavedByObjectVersion
1070
     0
  0
VISUALSTYLE
  5
11C
102
{ACAD_XDICTIONARY
360
15C
102
}
102
{ACAD_REACTORS
330
26
102
}
330
26
100
AcDbVisualStyle
  2
Shaded
 70
    27
 71
     2
 72
     2
 73
     1
 90
        2
 40
-0.6
 41
30.0
 62
     5
 63
     7
 74
     0
 91
        4
 64
     7
 65
   257
 75
     1
175
     1
 42
1.0
 92
        8
 66
   257
 43
1.0
 76
     1
 77
     6
 78
     2
 67
     8
 79
     3
170
     0
171
     0
290
     0
174
     0
 93
        5
 44
0.0
173
     0
291
     0
 45
0.0
1001
ACAD
1000
AcDbSavedByObjectVersion
1070
     0
  0
VISUALSTYLE
  5
11B
102
{ACAD_XDICTIONARY
360
15A
102
}
102
{ACAD_REACTORS
330
26
102
}
330
26
100
AcDbVisualStyle
  2
Shaded with edges
 70
    26
 71
     2
 72
     2
 73
     1
 90
        2
 40
-0.6
 41
30.0
 62
     5
 63
     7
 74
     1
 91
       10
 64
     7
 65
   257
 75
     2
175
     1
 42
1.0
 92
        8
 66
   257
 43
1.0
 76
     1
 77
     6
 78
     2
 67
     7
 79
     3
170
     0
171
     0
290
     0
174
     0
 93
        5
 44
0.0
173
     0
291
     0
 45
0.0
1001
ACAD
1000
AcDbSavedByObjectVersion
1070
     0
  0
VISUALSTYLE
  5
118
102
{ACAD_XDICTIONARY
360
154
102
}
102
{ACAD_REACTORS
330
26
102
}
330
26
100
AcDbVisualStyle
  2
Shades of Gray
 70
    23
 71
     2
 72
     2
 73
     3
 90
        0
 40
-0.6
 41
-30.0
 62
     5
 63
     7
 74
     2
 91
        2
 64
     7
 65
     7
 75
     1
175
     1
 42
40.0
 92
        8
 66
     7
 43
1.0
 76
     1
 77
     6
 78
     2
 67
     7
 79
     3
170
     0
171
     0
290
     0
174
     0
 93
        1
 44
0.0
173
     0
291
     0
 45
0.0
1001
ACAD
1000
AcDbSavedByObjectVersion
1070
     0
  0
VISUALSTYLE
  5
119
102
{ACAD_XDICTIONARY
360
156
102
}
102
{ACAD_REACTORS
330
26
102
}
330
26
100
AcDbVisualStyle
  2
Sketchy
 70
    24
 71
     1
 72
     2
 73
     2
 90
        0
 40
-0.6
 41
-30.0
 62
     5
 63
     7
 74
     2
 91
        2
 64
     7
 65
     7
 75
     1
175
     1
 42
40.0
 92
       11
 66
     7
 43
1.0
 76
     1
 77
     6
 78
     2
 67
     7
 79
     6
170
     0
171
     0
290
     0
174
     0
 93
        1
 44
0.0
173
     0
291
     0
 45
0.0
1001
ACAD
1000
AcDbSavedByObjectVersion
1070
     0
  0
VISUALSTYLE
  5
114
102
{ACAD_XDICTIONARY
360
14C
102
}
102
{ACAD_REACTORS
330
26
102
}
330
26
100
AcDbVisualStyle
  2
Thicken
 70
    13
 71
     2
 72
     2
 73
     0
 90
        0
 40
-0.6
 41
-30.0
 62
     5
 63
     7
 74
     1
 91
        4
 64
     7
 65
   257
 75
     1
175
     1
 42
1.0
 92
       12
 66
     7
 43
1.0
 76
     1
 77
     6
 78
     2
 67
     7
 79
     5
170
     0
171
     0
290
     0
174
     0
 93
        1
 44
0.0
173
     0
291
     1
 45
0.0
1001
ACAD
1000
AcDbSavedByObjectVersion
1070
     0
  0
VISUALSTYLE
  5
47
102
{ACAD_XDICTIONARY
360
138
102
}
102
{ACAD_REACTORS
330
26
102
}
330
26
100
AcDbVisualStyle
  2
Wireframe
 70
     5
 71
     0
 72
     2
 73
     0
 90
        0
 40
-0.6
 41
-30.0
 62
     5
 63
     7
 74
     1
 91
        4
 64
     7
 65
   257
 75
     1
175
     1
 42
1.0
 92
        0
 66
   257
 43
1.0
 76
     1
 77
     6
 78
     2
 67
     7
 79
     3
170
     0
171
     0
290
     0
174
     0
 93
        1
 44
0.0
173
     0
291
     0
 45
0.0
1001
ACAD
1000
AcDbSavedByObjectVersion
1070
     0
  0
VISUALSTYLE
  5
11A
102
{ACAD_XDICTIONARY
360
158
102
}
102
{ACAD_REACTORS
330
26
102
}
330
26
100
AcDbVisualStyle
  2
X-Ray
 70
    25
 71
     2
 72
     2
 73
     1
 90
        1
 40
0.5
 41
-30.0
 62
     5
 63
     7
 74
     1
 91
        0
 64
     7
 65
   257
 75
     1
175
     1
 42
1.0
 92
        8
 66
     7
 43
1.0
 76
     1
 77
     6
 78
     2
 67
     7
 79
     3
170
     0
171
     0
290
     0
174
     0
 93
       13
 44
0.0
173
     0
291
     0
 45
0.0
1001
ACAD
1000
AcDbSavedByObjectVersion
1070
     0
  0
DICTIONARYVAR
  5
101
102
{ACAD_REACTORS
330
FD
102
}
330
FD
100
DictionaryVariables
280
     0
  1
1:1
  0
DICTIONARYVAR
  5
FF
102
{ACAD_REACTORS
330
FD
102
}
330
FD
100
DictionaryVariables
280
     0
  1
STANDARD
  0
DICTIONARYVAR
  5
FE
102
{ACAD_REACTORS
330
FD
102
}
330
FD
100
DictionaryVariables
280
     0
  1
STANDARD
  0
DICTIONARYVAR
  5
108
102
{ACAD_REACTORS
330
FD
102
}
330
FD
100
DictionaryVariables
280
     0
  1
1
  0
DICTIONARYVAR
  5
107
102
{ACAD_REACTORS
330
FD
102
}
330
FD
100
DictionaryVariables
280
     0
  1
1
  0
DICTIONARYVAR
  5
106
102
{ACAD_REACTORS
330
FD
102
}
330
FD
100
DictionaryVariables
280
     0
  1
0
  0
DICTIONARYVAR
  5
103
102
{ACAD_REACTORS
330
FD
102
}
330
FD
100
DictionaryVariables
280
     0
  1
0
  0
DICTIONARYVAR
  5
104
102
{ACAD_REACTORS
330
FD
102
}
330
FD
100
DictionaryVariables
280
     0
  1
0
  0
DICTIONARYVAR
  5
102
102
{ACAD_REACTORS
330
FD
102
}
330
FD
100
DictionaryVariables
280
     0
  1
2
  0
DICTIONARYVAR
  5
100
102
{ACAD_REACTORS
330
FD
102
}
330
FD
100
DictionaryVariables
280
     0
  1
1
  0
DICTIONARYVAR
  5
105
102
{ACAD_REACTORS
330
FD
102
}
330
FD
100
DictionaryVariables
280
     0
  1
127
  0
DICTIONARYVAR
  5
126
102
{ACAD_REACTORS
330
FD
102
}
330
FD
100
DictionaryVariables
280
     0
  1
2
  0
DICTIONARY
  5
12F
330
19
100
AcDbDictionary
280
     1
281
     1
  3
ACAD_XREC_ROUNDTRIP
360
130
  0
DICTIONARY
  5
12D
330
14
100
AcDbDictionary
280
     1
281
     1
  3
ACAD_XREC_ROUNDTRIP
360
12E
  0
DICTIONARY
  5
39
330
38
100
AcDbDictionary
280
     1
281
     1
  3
ACAD_XREC_ROUNDTRIP
360
134
  3
BUMPTILE
360
3A
  3
DIFFUSETILE
360
3B
  3
OPACITYTILE
360
3C
  3
REFLECTIONTILE
360
3D
  3
REFRACTIONTILE
360
3E
  3
SPECULARTILE
360
3F
  0
DICTIONARY
  5
30
330
2F
100
AcDbDictionary
280
     1
281
     1
  3
ACAD_XREC_ROUNDTRIP
360
133
  3
BUMPTILE
360
31
  3
DIFFUSETILE
360
32
  3
FBXASSET
360
33
  3
OPACITYTILE
360
34
  3
REFLECTIONTILE
360
35
  3
REFRACTIONTILE
360
36
  3
SPECULARTILE
360
37
  0
DICTIONARY
  5
A
330
8
100
AcDbDictionary
280
     1
281
     1
  3
ACAD_XREC_ROUNDTRIP
360
12C
  3
BUMPTILE
360
B
  3
DIFFUSETILE
360
C
  3
FBXASSET
360
D
  3
OPACITYTILE
360
E
  3
REFLECTIONTILE
360
F
  3
REFRACTIONTILE
360
10
  3
SPECULARTILE
360
11
  0
DICTIONARY
  5
128
330
120
100
AcDbDictionary
280
     1
281
     1
  3
ACAD_XREC_ROUNDTRIP
360
129
  0
DICTIONARY
  5
EC
330
45
100
AcDbDictionary
280
     1
281
     1
  3
ACAD_ROUNDTRIP_2008_TABLESTYLE_CELLSTYLEMAP
360
127
  3
ACAD_XREC_ROUNDTRIP
360
135
  0
DICTIONARY
  5
131
330
25
100
AcDbDictionary
280
     1
281
     1
  3
ACAD_XREC_ROUNDTRIP
360
132
  0
DICTIONARY
  5
142
330
10F
100
AcDbDictionary
280
     1
281
     1
  3
ACAD_XREC_ROUNDTRIP
360
143
  0
DICTIONARY
  5
14A
330
113
100
AcDbDictionary
280
     1
281
     1
  3
ACAD_XREC_ROUNDTRIP
360
14B
  0
DICTIONARY
  5
152
330
117
100
AcDbDictionary
280
     1
281
     1
  3
ACAD_XREC_ROUNDTRIP
360
153
  0
DICTIONARY
  5
146
330
111
100
AcDbDictionary
280
     1
281
     1
  3
ACAD_XREC_ROUNDTRIP
360
147
  0
DICTIONARY
  5
148
330
112
100
AcDbDictionary
280
     1
281
     1
  3
ACAD_XREC_ROUNDTRIP
360
149
  0
DICTIONARY
  5
162
330
11F
100
AcDbDictionary
280
     1
281
     1
  3
ACAD_XREC_ROUNDTRIP
360
163
  0
DICTIONARY
  5
150
330
116
100
AcDbDictionary
280
     1
281
     1
  3
ACAD_XREC_ROUNDTRIP
360
151
  0
DICTIONARY
  5
13A
330
10B
100
AcDbDictionary
280
     1
281
     1
  3
ACAD_XREC_ROUNDTRIP
360
13B
  0
DICTIONARY
  5
13C
330
10C
100
AcDbDictionary
280
     1
281
     1
  3
ACAD_XREC_ROUNDTRIP
360
13D
  0
DICTIONARY
  5
13E
330
10D
100
AcDbDictionary
280
     1
281
     1
  3
ACAD_XREC_ROUNDTRIP
360
13F
  0
DICTIONARY
  5
140
330
10E
100
AcDbDictionary
280
     1
281
     1
  3
ACAD_XREC_ROUNDTRIP
360
141
  0
DICTIONARY
  5
144
330
110
100
AcDbDictionary
280
     1
281
     1
  3
ACAD_XREC_ROUNDTRIP
360
145
  0
DICTIONARY
  5
15E
330
11D
100
AcDbDictionary
280
     1
281
     1
  3
ACAD_XREC_ROUNDTRIP
360
15F
  0
DICTIONARY
  5
14E
330
115
100
AcDbDictionary
280
     1
281
     1
  3
ACAD_XREC_ROUNDTRIP
360
14F
  0
DICTIONARY
  5
160
330
11E
100
AcDbDictionary
280
     1
281
     1
  3
ACAD_XREC_ROUNDTRIP
360
161
  0
DICTIONARY
  5
136
330
46
100
AcDbDictionary
280
     1
281
     1
  3
ACAD_XREC_ROUNDTRIP
360
137
  0
DICTIONARY
  5
15C
330
11C
100
AcDbDictionary
280
     1
281
     1
  3
ACAD_XREC_ROUNDTRIP
360
15D
  0
DICTIONARY
  5
15A
330
11B
100
AcDbDictionary
280
     1
281
     1
  3
ACAD_XREC_ROUNDTRIP
360
15B
  0
DICTIONARY
  5
154
330
118
100
AcDbDictionary
280
     1
281
     1
  3
ACAD_XREC_ROUNDTRIP
360
155
  0
DICTIONARY
  5
156
330
119
100
AcDbDictionary
280
     1
281
     1
  3
ACAD_XREC_ROUNDTRIP
360
157
  0
DICTIONARY
  5
14C
330
114
100
AcDbDictionary
280
     1
281
     1
  3
ACAD_XREC_ROUNDTRIP
360
14D
  0
DICTIONARY
  5
138
330
47
100
AcDbDictionary
280
     1
281
     1
  3
ACAD_XREC_ROUNDTRIP
360
139
  0
DICTIONARY
  5
158
330
11A
100
AcDbDictionary
280
     1
281
     1
  3
ACAD_XREC_ROUNDTRIP
360
159
  0
XRECORD
  5
130
102
{ACAD_REACTORS
330
12F
102
}
330
12F
100
AcDbXrecord
280
     1
102
SHADEPLOT
 70
     0
102
SHADEPLOTRESLEVEL
 70
     2
102
SHADEPLOTCUSTOMDPI
 70
   300
  0
XRECORD
  5
12E
102
{ACAD_REACTORS
330
12D
102
}
330
12D
100
AcDbXrecord
280
     1
102
SHADEPLOT
 70
     0
102
SHADEPLOTRESLEVEL
 70
     2
102
SHADEPLOTCUSTOMDPI
 70
   300
  0
XRECORD
  5
134
102
{ACAD_REACTORS
330
39
102
}
330
39
100
AcDbXrecord
280
     1
102
MATERIAL
148
0.0
149
0.0
149
0.0
 93
        0
 94
      127
282
     0
 72
     0
 77
     0
171
     0
175
     0
179
     0
273
     0
  0
XRECORD
  5
3A
102
{ACAD_REACTORS
330
39
102
}
330
39
100
AcDbXrecord
280
     1
270
     1
271
     1
  0
XRECORD
  5
3B
102
{ACAD_REACTORS
330
39
102
}
330
39
100
AcDbXrecord
280
     1
270
     1
271
     1
  0
XRECORD
  5
3C
102
{ACAD_REACTORS
330
39
102
}
330
39
100
AcDbXrecord
280
     1
270
     1
271
     1
  0
XRECORD
  5
3D
102
{ACAD_REACTORS
330
39
102
}
330
39
100
AcDbXrecord
280
     1
270
     1
271
     1
  0
XRECORD
  5
3E
102
{ACAD_REACTORS
330
39
102
}
330
39
100
AcDbXrecord
280
     1
270
     1
271
     1
  0
XRECORD
  5
3F
102
{ACAD_REACTORS
330
39
102
}
330
39
100
AcDbXrecord
280
     1
270
     1
271
     1
  0
XRECORD
  5
133
102
{ACAD_REACTORS
330
30
102
}
330
30
100
AcDbXrecord
280
     1
102
MATERIAL
148
0.0
149
0.0
149
0.0
 93
        0
 94
      127
282
     0
 72
     0
 77
     0
171
     0
175
     0
179
     0
273
     0
  0
XRECORD
  5
31
102
{ACAD_REACTORS
330
30
102
}
330
30
100
AcDbXrecord
280
     1
270
     1
271
     1
  0
XRECORD
  5
32
102
{ACAD_REACTORS
330
30
102
}
330
30
100
AcDbXrecord
280
     1
270
     1
271
     1
  0
XRECORD
  5
33
102
{ACAD_REACTORS
330
30
102
}
330
30
100
AcDbXrecord
280
     1
 70
     1
 90
1959938040
 71
     1
  1
339E74F5-1037-4DFA-AF3E-8D241B78200F
311
504B03040A0000080000C56C09433DEE336E79000000790000001B0000006175746F6465736B2D64657369676E2D7061636B6167652E786D6C3C3F786D6C2076657273696F6E3D22312E302220656E636F64696E673D227574662D3822203F3E3C666F726D6174733E3C666F726D61743E687474703A2F2F736368656D612E
311
6175746F6465736B2E636F6D2F64657369676E2D7061636B6167652F323030393C2F666F726D61743E3C2F666F726D6174733E504B0304140006080800C56C0943D486FD9CA0000000F4000000130000005B436F6E74656E745F54797065735D2E786D6C7D8EC10E82300C865F65E91D8A1E8C310C0EEA1BF002731658846E
311
D98AC1B77784ABF1D8FE5FBFBF75BBCE937A534CCEB38643598122B6FEE978D0B0485F9C41B54DDD7D022595594E1A469170414C76A4D9A4D207E29CF43ECE46F218070CC6BECC4078ACAA135ACF422C856C0E68EA1BF5669944DDD7BCDE7B1F8E415D77AECB980613C2E4AC91FC167A2B244592486606FC29C8FD7F045B9A
311
EF7053A7E60B504B0304140006080800C56C09437802B510EA0000007C01000008000000636F72652E786D6C8D904D6EC3201085AF82668F0DB663BB162672D2F604BD0002E2A2C460F153F5F8C58923B5BBAE6678BC6F66F4D8F17BB9A12FED837176045A1040DA4AA78C9D4748F1827B4047CEBC73F1970D90158B1E6193
311
81B3D9BBB4EE9274366A1BB36A9DD2BB2842D01190BCE56684203FF5220A916276846BB10A7915B32EE8B3CB704A46A1C712A3F23C7331DA036FBBA93BF54D879BF3B9C1CDA16AF169A21D7E7B6D49D71FDE275AB5ACDC60CEA2599EFBA5D7226A05BC22B4C6A4C7E4E583D643DD0F94E6E740082B37FB1F28ADEA9F503236
311
D6D57EEE030BC0693EE4FEC159B96591CB3DA85CB7DCF80F504B0304140006080800C56C094355019EA25F0000007C00000007000000636E782E786D6C4DCB3B0E80201045D1AD90E915ED2CF8AC45050C11660C8261F98AB1B07AC9C97D42D718D865D3E909258CFD00CCE24AC6E326A164D74DC0B4128928FF326038472B
311
A13128B1252AC747C6BAB984FC68F0B87FE8960A5C09FE86CFB69FBA01504B0304140006080800C56C09439508EBEC66010000020300000C0000006662782F636F72652E786D6C8D525B6E833010BC8AE57F30060234328E92B43D412FE08043AD808D8C8D72FC2E8F284D15451512989D9D9DD901B6BB762D1AA51D94D125
311
A6618491D495A9956E4AECDD392830DA71668D71BFDA30D2A293259ECA98B3C61ADFAFA5CA6827B583AA36B55C8B6218A4C3A86AE150E2A1FA969D088577D0315CC25E5417D1C8908600431F6783B360002D22D31DF3F3E9CAC852E7CC7B55AFA8AA414D9D95B49867F93E3F14691EA4C7631AA49B380B0E7B9A071FEF5994
311
179BCF3D8D33462632674E7537779595C2C91AF338A249101541F4F645936D526C2985D76D143132B53F907C5FFF93E4957649BCDA5D6803E6148CCCC09F6D2122870631821FC219994284C79CF063D0100884ECC4A9BDED7181D2282B676C0A486DFC1D1A45EB25A84668BE185950983C0F80CD9ECE895FCC793D033EA0D0
311
0D58130E8E27EF2675B6A8AE51F4D206A3BB226D6C27DABBB9C5E2FD7E177A4AAF4C6BEC7FD8645D95AC6192E9EFE53F504B0304140006080800C56C094356C4FC327E0000009D0000000B0000006662782F636E782E786D6C4DCCDD0AC22018C6F15B91F7DCA6B10F0375BC2DBC8FD1DC909C866974F96DB1838E1EF8F1F0
311
97FD67F5E46DD3CBC5A0809F18101BEE7172615150F24C05905ECB1463FEBB0109E36A15EC0C5A2E2996E741939DC7E2F3A6DE85C7815D7DEE58C3910A2604ADC5C0280EBCA188D8B6C65C6F1734506959FD4ADBEE61FD05504B0304140006080800C56C094344B825DD2B01000014020000310000006662782F3734323730
311
3531412D383038382D343843302D414331352D4141413636464642443941462F636F72652E786D6C8D515B6EC32010BC0AE22BFDC006DB719C0813B9A972825E8060E2A2C460F1A872FCAE6B476AFF22241666677647BBFCF818EFE85BFB609C6D31CB2846DA2AD71B3BB438C52B69303A0AEE9D8B7F68185939EA16CF3016
311
7CF02E4D2BA49C8DDA4640ADEBF50ACA1074C448DDE1D1E2A0BEF42833992230C22D9BA4BAC941672C8334F0040FD18301B434996F2C7655B1A35BD69186360DA99A1325DD896D49D775757D3EBF7FECBB33CF17A1E029997E959B1EEC98ABD1FED522B358F068C6A77DE5B58CBAC7A2A0AC24B42174FFC9CA43D91C1883EF
311
81529ECFF47FA234F52F8A92B1B12C56BB8B2C60C178BE2404EF5DBADC9F66F463723EA2B9DF2668F58605CD2883B3A305CF172A0C006AD6D55A3344E761C09BDB05D86CBB14AE2BC1F37947107E170871DEA7F801504B0304140006080800C56C0943AB5A7B4C4C01000033030000300000006662782F3734323730353141
311
2D383038382D343843302D414331352D4141413636464642443941462F636E782E786D6CD593CD6EC32010845F0571F70F7514A51126520F7D821E7AC5B049693058FC54CDDB7749489A4B0E3DF682ECD98F99D5C8E6BBEFD9922F08D1783752D6F69480535E1B7718694EFB6643C94EF0E07DBAC3287172869116990A7E08
311
3E2F55D2B097D92654AD71C72A06883E070511E5729358AFA44503704D4611E609B4064D6E203EED21E02A284E27923E80BCBEBC133F7D824A9177C545F0AE64085ECE9A740751A2AC8C71A4517DC02C5B9993D7108FAD9649B6ACBD663DD8E9D789940BD7C81C0C29E1232D271575A3167BE41D0E058F29607B154AA705A8
311
90CB628D92094BEECEE085113C1B97D6ABCA1A2C3E20CDD6C36A8566E799E0C9CC5009154026D0543CF56C68FA4DD33FBFB1613B6CB68CE1EBB6EF795770C127EF6DBD843610FC429477095CA282F1AE8C1FD55739A24DC0AE7D38FDA1482CA0A65EDAB979FCE77EBAF3F78D7505FC0BC40F504B0304140006080800C56C09
311
43F9C78F78A505000081100000340000006662782F37343237303531412D383038382D343843302D414331352D4141413636464642443941462F6F626A656374732E786D6CAD57D96EDB3814FD1541F332F3E045B6D32403458563C785D1A62D6AA4980703062D510A27D402924A9DF9FA3914295972ECD433E88B162E97F7
311
9E7BEE42FFFD2EE5CE331592E5D98DEBF587AE43B3308F5896DCB8A58A7B57AEF33EF0459EABD632D7C9484A6F5C3DEC067E22F2B2B043118D49C9D5C1E8E2F62F478634A3AE137222E58D2BC3479A923E29551E51F9D48F8822FD24DEF5BDBE59D8159B08523C1E082D88A09982A618CF20C5314A79DDDFA13B08FC819E0F
311
7CFDB4ABC6A7570D2A7BBAE7B34C2A9285AF0E3B1033F626F3BBD1C575EF623219F726EF465EEF76713BEF7997E3E1ECDD6C763DBDBBC6C1520948B29A081ABBC107602358E80FCC54E0972C53E3915D621D3410F499694FB9C1C8F1FC8159D358678D3CA67E9867190D2BAC8046659F151DD18266117CCEA884662D8486DD
311
5F4FE3D89A1EEB7F7B647BF83C04DA3B5A826ADDEB775BD37CFB374C90E7304848AA1968B0B4861AAE0EF7086FF39CDB39269D94282A18E10E675B41C48B1B60A95E12F81D319AC9424783B6C00DE00533DDA50BC2E8E73C3FA6655C72AE69EC0655146C102B54C94A33F60F157BEDDBC84027F84AB3E1CA1AA45E0AEA06D7
311
862257076C32403A3127095C0E33F5CEF1E8C0D0998ED3E5DC0D3E2EB6BB958EDDE38717222FA8509A3EA056EDB8FAAD51B23A7967794E6F700F54D983F20DC87F46A8EF5581DF04DB4D76137B8A122493712E52F8C6193ABD211E43C7AB9EFABBF5E50F9ACD5DEF9DC213CED650FD023CBB36B47DD98233F09F41F85C8CAD
311
69AB9070A48D7B9601204D1287E718421E8EB73B375822CB212B6317E1810793A1EE333EFD81158344519DD47A67C0F2202D9E91A0015BC548A861C86F15DCFBE9553AAB0EB6CB4EC17BF14BE83A9DAF3EAE4A119390DEDB989ED398654CA1C4ED79D356A88379C7A227FAF22317110C7D8DF7AA8D776A8F92405B63AE814F
311
EA9CAE7FF627770E08B12FC975BAF17F72028CD085B525FF9EC990724E329A97F5B96FD60F940D03B10E76CDE4A6C0EC0B0B4863660E6210453A14ACD02036D5AA499AFD13D63D2C3F83916E70FBF289BCB4B3D7769F7BC39CE762B37DD998B47414EAEF5D6E5B0C065A0AE85E05491DFF16F44DC4E2B89448824770FDBE9C
311
B57DA7D30252442DD544CB04F623B888B0A4ADE5A25A0B824A9A671B86BA89B83B7A405B3E20B50CA8049ED258521E6F18E765BA89194735DAA4A43801C7FFD77F5BA6C586A47999A913B23BAAA33A7475EFB057FE202A7C748355F5EEDD22F746343A41065D4B8E60D571ED787C7D7739595CF4BCE1F8B237992FA6BDE962
311
7CD7BB9A8F26DEEDE5D568385CD47E329A047E5D6ADA110D2FA1B4F9A560D67D0F4BC48F4D026E704F945C7F30E159BF1F967DF4C2FE007B502F9B8DD3E8197D1F8D7E2E60BFF2A8A0655A709AD24C111D43F7FA837F23E8333ACA98F1654A127A86942F1F5607C660E48C7D5F75BCD31F077BEDE84C07E45121EAB14CB719
311
61FC60636290EC175962F1AB7DD2BC4DA1A97FF59F750C3A53997316210F464E42F3942A64C3338A9048A904F5DA3D7D64EF1E67EC7E361DA2225B4E6B4D1E099A642E1116A05619AAEEB8F31B9A3ADD57DDB828B7FD273C6CA6701D70E6C64593AE5848657F8B02AD5BA14A38B8D4EEE4D1F8932CE1E8B5CDA6E6BFD9A5B1
311
E994E466C939FD93B5CBA4706B00D24881BE010D11BC532913F8956E763EFC4F86D7EA3844E1735BAAC696FD40634C750C42D418656F0B68629EECD13B04EADB6679FD6A4D0791B36E596F92C048ED292292EAA6A0F5B32A4DE75F07E8509CE517A7E065025F9E2FA92728C85CEA00078BC00A2BB3200A549DFDB9FE2A72DC
311
645367C14001E7F7DDD5BB3FD6B33C4DF3CC0CADA7F63EECAC1E71BB8DD6480E545F4BE47A34F446EBEA3A606F289B2D91B44F22F984017856B006E88EFBC14B7367441D3213CDBA8176C501439773C716B609845ABAB473AB06078D47461DC490BE52EA88692F28DEBC110CAAA55041A0970FFE05504B0304140006080000
311
C56C0943000000000000000000000000350000006662782F37343237303531412D383038382D343843302D414331352D4141413636464642443941462F76657274696365732E62696E504B0304140006080800C56C0943F270F1330600000004000000360000006662782F37343237303531412D383038382D343843302D41
311
4331352D4141413636464642443941462F747269616E676C65732E62696E636660600000504B0304140006080000C56C0943000000000000000000000000370000006662782F37343237303531412D383038382D343843302D414331352D4141413636464642443941462F617474726962757465732E62696E504B03041400
311
06080800C56C0943D5987DFC8F00000041010000360000006662782F37343237303531412D383038382D343843302D414331352D4141413636464642443941462F6469726563746F72792E786D6C858F410EC2201045AF4266AF15DDB800BA74E7C21B903225242D6328188F2FA5C4183471359997F9FF81E89FF3C41E1816
311
475E02DF1F80A11FC8386F25A438EECEC07A250251FC3803E6F58C12560C4AD840E95E91C151A72936F496F35732D860FE635F62C8F2DA16B505C545B74125BAA2FA9E05D7CC053D063734D5C7665FD55B6B8D15D5E9BFEAFD8490FFA45E504B0304140006080800C56C09436BA99B88FC000000A00100003B000000666278
311
2F37343237303531412D383038382D343843302D414331352D4141413636464642443941462F7265736F75726365732F636F72652E786D6C8D504B6E833010BD0A9ABDC10602141947246D4FD00B586642AC041BF953F5F8350995DA5D371ECFFB689E1E3F7E2DF7EC139DD7D60CC0720A191A65276DE60162B8900EB2A3E0
311
CEDAF04B0699910B0EB0C120F8EC6C5C77485913D084841A3BE10E4AEF3140A6EEE9338057575C642E63480A7FCB57A96E72C69CE5894E3AC17D702940F63CB2BD201C7A1B9D42CF8B272B788C7ADA357A4A37F545A303D1B4637BEAEA86D4E7734DEA43D990D3C85AF2F6DAD0B63BBC8FAC6C78B199050F7AF9C9A81CCA80
311
138892B28AD08ED0970F56F555D73396D69E525E6CF23FA6B84EFF34456D4255EE719F360F82A5200F42F062EB2B8D4799696EDD8A6F504B010214000A0000080000C56C09433DEE336E79000000790000001B00000000000000000000000000000000006175746F6465736B2D64657369676E2D7061636B6167652E786D6C
311
504B01021400140006080800C56C0943D486FD9CA0000000F40000001300000000000000000000000000B20000005B436F6E74656E745F54797065735D2E786D6C504B01021400140006080800C56C09437802B510EA0000007C010000080000000000000000000000000083010000636F72652E786D6C504B010214001400
311
06080800C56C094355019EA25F0000007C000000070000000000000000000000000093020000636E782E786D6C504B01021400140006080800C56C09439508EBEC66010000020300000C00000000000000000000000000170300006662782F636F72652E786D6C504B01021400140006080800C56C094356C4FC327E000000
311
9D0000000B00000000000000000000000000A70400006662782F636E782E786D6C504B01021400140006080800C56C094344B825DD2B0100001402000031000000000000000000000000004E0500006662782F37343237303531412D383038382D343843302D414331352D4141413636464642443941462F636F72652E786D
311
6C504B01021400140006080800C56C0943AB5A7B4C4C010000330300003000000000000000000000000000C80600006662782F37343237303531412D383038382D343843302D414331352D4141413636464642443941462F636E782E786D6C504B01021400140006080800C56C0943F9C78F78A50500008110000034000000
311
00000000000000000000620800006662782F37343237303531412D383038382D343843302D414331352D4141413636464642443941462F6F626A656374732E786D6C504B01021400140006080000C56C09430000000000000000000000003500000000000000000000000000590E00006662782F37343237303531412D3830
311
38382D343843302D414331352D4141413636464642443941462F76657274696365732E62696E504B01021400140006080800C56C0943F270F13306000000040000003600000000000000000000000000AC0E00006662782F37343237303531412D383038382D343843302D414331352D4141413636464642443941462F7472
311
69616E676C65732E62696E504B01021400140006080000C56C09430000000000000000000000003700000000000000000000000000060F00006662782F37343237303531412D383038382D343843302D414331352D4141413636464642443941462F617474726962757465732E62696E504B01021400140006080800C56C09
311
43D5987DFC8F0000004101000036000000000000000000000000005B0F00006662782F37343237303531412D383038382D343843302D414331352D4141413636464642443941462F6469726563746F72792E786D6C504B01021400140006080800C56C09436BA99B88FC000000A00100003B00000000000000000000000000
311
3E1000006662782F37343237303531412D383038382D343843302D414331352D4141413636464642443941462F7265736F75726365732F636F72652E786D6C504B0506000000000E000E0080040000931100000000
310
504B03040A0000080000C56C09433DEE336E79000000790000001B0000006175746F6465736B2D64657369676E2D7061636B6167652E786D6C3C3F786D6C2076657273696F6E3D22312E302220656E636F64696E673D227574662D3822203F3E3C666F726D6174733E3C666F726D61743E687474703A2F2F736368656D612E
310
6175746F6465736B2E636F6D2F64657369676E2D7061636B6167652F323030393C2F666F726D61743E3C2F666F726D6174733E504B0304140006080800C56C0943D486FD9CA0000000F4000000130000005B436F6E74656E745F54797065735D2E786D6C7D8EC10E82300C865F65E91D8A1E8C310C0EEA1BF002731658846E
310
D98AC1B77784ABF1D8FE5FBFBF75BBCE937A534CCEB38643598122B6FEE978D0B0485F9C41B54DDD7D022595594E1A469170414C76A4D9A4D207E29CF43ECE46F218070CC6BECC4078ACAA135ACF422C856C0E68EA1BF5669944DDD7BCDE7B1F8E415D77AECB980613C2E4AC91FC167A2B244592486606FC29C8FD7F045B9A
310
EF7053A7E60B504B0304140006080800C56C0943EF21C3E5E90000007C01000008000000636F72652E786D6C8D904D6EC3201085AF82668FCD8FE53811266A9CF604BD0002E2A0C46019A87AFCE2C491DA5D57333CDE37337AE2F83DDDD1975DA20BBE075A1140D6EB609C1F7BC8E9823B4047299610D22F1B20AF26DBC32A
310
8314E312F2BC493AF8647D2AAA0FC66EA28AD12640FA5E9A1EA2BEDA49552AA7E288B76A56FAA6465BD15757E09C9D41CF25CE9479EEE2EC02B2651DDF9DE907E6A76EC00DDB31FCF6DE527CE64DDBEC07766A0726EA159622B9E9B55F2F56256B40324239261D26FB4FCA0FBC3B50529E074244BDDAFF407936FF84B2F389
310
B3EDDC271641D272C8E3438A7ACDA2944750A5AEB9C91F504B0304140006080800C56C094355019EA25F0000007C00000007000000636E782E786D6C4DCB3B0E80201045D1AD90E915ED2CF8AC45050C11660C8261F98AB1B07AC9C97D42D718D865D3E909258CFD00CCE24AC6E326A164D74DC0B4128928FF326038472BA1
310
3128B1252AC747C6BAB984FC68F0B87FE8960A5C09FE86CFB69FBA01504B0304140006080800C56C09433D39CFA965010000020300000C0000006662782F636F72652E786D6C8D525B6E833010BC8AE57F302F111219474DD29EA017708C4351C0467EA01CBFCB23A2A9A2284202B3B3B3333B40F7B7AE458334B6D1AAC471
310
18612495D055A3EA127B77090A8CF68C1AADDD9F368C14EF6489C73266B436DAF74B4968E5A4725055BA924B915B2B1D46A2854389ADF8911D0FB977D061AF61CFC595D7328C4380A18F51EB0C1840B3C878C7EC72BE5132D719F5BEA916B4A940ADB934D260962745BA39C55F417A288E41966C92E0E3338F83539AE5D9F6
310
981CF26342C94866D435DDDD9D30923B59619644711A4445106DBFE3749716BB3882D75D145132B63F907C5FBD49F28D7269B2D89D6916B3188C4CC0BF6D2122872C1FC00F61948C21C2634AF8316808044276FCDCDEF7B8426990C26993015269BF42036FBD04D5084D1725330A93A701B0D9D339C98B39AF67C007E4AA06
310
6BDCC1F1ECDDA84E67D5258A5E9A607037A4B4E978BB9A9B2DAEF755E8295DE8569B77D86459952C6192F1EF65BF504B0304140006080800C56C09430F34744D7E0000009D0000000B0000006662782F636E782E786D6C4DCCD10A83201886E15B91FFDC95ED8F2D504387DE472C8B98E9703A76F9ABD1C18E3E78F87879FF
310
593D79BBF45A6210C04E351017EE715CC22CA0E4895E81F492A718F3DF0D481856276067907C4EB13C0F1ADD34149F37F54B781CA8D559A1699136971BA3A898A1AAEE9076DA5A44A39BD632A824AF7EA56DF7B0FC02504B0304140006080800C56C09434E1F1D952A01000014020000310000006662782F42413341344535
310
342D323743312D344131452D413039342D3942464634344542323546312F636F72652E786D6C8D51CB6EC32010FC15C4293D60834DD238C2444E957C417F80D8244589C1E251E5F3BBD48ED4DE726161776676D815FBC77847DFDA07E36C8B594131D2B67783B1D716A778215B8CF65278E7E21F1846568DBAC5398DA5B87A
310
97A625D53B1BB58D90B56ED04B5285A02346FD1D2E2D0EFD971E55A1520444B81593EA6FEAAA0B564019705284E8C1009A9BE413CB435777FCB8E6A47AFF608477EC483ADA70D21C4E27CE8F876A7D62A29C8952A46486856E06B0632E46FB574532598A68C6A7FDDE6B15F5806545594DE896D0E693D5BB7ABB63149E3B4A
310
4599E1FF48691A5E242563635D2D76675AC0127E3317A4185C3ADF9F66F463723EA2DC6F1574FF86252D286B58B5E1B52867280C0034377CD10CD17918F0EA760674BD086FB81465DE1184DF0542CCFB943F504B0304140006080800C56C0943CCE8302A5401000033030000300000006662782F42413341344535342D3237
310
43312D344131452D413039342D3942464634344542323546312F636E782E786D6CBD93CD6EC32010845F0571F75F1C456E8489D4439FA0875E316C521A0C163F55F3F65D1292E69243A5AA1764CF0E33AB4F36DB7DCD867C820FDAD99176754B0958E994B68791A6B8AF064A769C79E7E29D8D122B66186996296707EFD252
310
24057B914C44D5687B2CA287E092971050CE37897152180C005B2514619E402950E466C4A73D785C05C5E944E23B9097E737E2A60F9031B026A770D6E40ECEF2599AEE4C94482342186990EF308B5AA4E8148463AD441475575FBB1EECF49344F2856B65F29AE4F291E693F2B2518D1C598343CE42F448AF98E26901CAC5B2
310
182D4544C8CDD978F17096B48D9B75F16A04EFD1DDAF36C38061E7196751CF501CD28388A0285FB55D5FB543D53EBD76FDB61FB65D8BAFDBB6654DB673363967CA258C01EF16229D8D6023E51D6BF2F811BEE2234A7B64EDFCE91720114069BDD0B965FC259F6ED3AFD7FFC8A7397FDF88CBE35FC0BF01504B030414000608
310
0800C56C0943A79CC899640700009A1B0000340000006662782F42413341344535342D323743312D344131452D413039342D3942464634344542323546312F6F626A656374732E786D6CED59DD739B3810FF5718EEE5EEC1D8D84E9BDC103A49DC743CBDB49DFADAB907CF3032C8441721184924F1FDF5B7FA00033109BEE6
310
DEFA6003425AEDFEF6534BF0EE31A3CE3DE682E4ECDCF5BD89EB6016E70961E9B95BCAEDE8D475DE8501CF73D998E63A0C65F8DC55C36E18A43C2F0B3B94E02D2AA9EC8C5E5FFEE5881833EC3A3145429CBB22BEC519F25029F3048B3B2F411279E9F6D1F33D33B14D36E5A8B8ED102D10C74C02A730CE808A6398F2DB8F13
310
771C0663F53E0CD4BF9D351B346BDE3F6BACA56E7349989088C54F58EA90990D6269E6CF17EFA72767A393F97C369ABF99FAA3CBEBCBC5C87F3B9B5CBDB9BA3ABB787F06EC6DF29C5A99125C609680FE766EE80763F5A616DD227088EB38670CC71A48804A8BD52548B080AD1AF04DDA8FBE92A8F15A4BD8789EABF79685C6
310
F0AC4DA56FD630205A744110BB5D2571756DCA976FFE06C1C510A3E4024BE056480EDAB5F070F00A379C0463331A069BBD2E887032243127883A946C38E2A01498AAA684815960C928E7E040CA511268CD99D76DDB02CF7CD9750E71B92D29559EE186DAB122703F2C85E68CFC83F99EFB2632C013485B12264F2D97725760
310
373C0BC67A300CD46536B52F0D90CE96A2546844CCDB8EA057CAF5970B37FC78BD795CA9707078F382E705E652199DD2A3E60B0CD95E154A765B7F90E6D40210C6806A57EE41F90AC87F82E8B16705F4C6C9E3FC716EE74A8E98D8E63C03DD3813673481BF89E3EB7F75DFB80BC6F5E2B6F6FAF0043755509DFE389E6D1934
310
5696FF069C61700F069FF3997DB58A11057BBE210C005246E2D01C8620B46F378F6EB884C009811E56211AFA2032B07B0FB7C1D892D96BA5722FEB750C10B57BCC86280960D316096CF4E8E903640F4EE2BD9A9A22F6C17BF22AE67AB1587D5C957C8B627C637D7A81B784110959F330432DCC5B12DDE1DD43CE1310F429DE
310
AB26DE99DD4A00DA0A73057C5A81A01EF63BB73688615D9AAB7013BCB00308A1727583FE0D1131A614319C97D5BE757453865A7BBCAD19DC706A209E4D3B26CCF13D51550538CD7E468B51C8FB31278502D10D3F18C9EAA0E9F548F76DF9092CB29EDF336BC920F43244FFD441EB000E2DCBAE90B640D4026FF6E13CCE69CE
310
A3CD2E3291CE855A02D8687BCBF7165188F546498A0A7890F6BB2AA4A446DA2821DB6D2920AE1E60F1FBF2AA690E136FE69F38CDFF8E33CE21DA82EF226EFDAEB347443294E2688B92BEED9ABBD5B48526D9439AE32D05B9C83D91BB08C96892E0F418688E227EF6AAD4539A0B41181690AF0E82DF4463E2412031DAAC5856
310
5AED004D44946189E8310828323DE0EAB4A36BDC184A879779ACADF7398D3589FE4F16C111D492398B0894A290435E64DCF74E2086B4D1352877F0056BAB686B3168092544BC8B1E30496FE531A81BF23DB8C77024296594172806B31E40F689AF28A57678DFA0F84EE58F282EE96B1988C0741B114ACB2C821F6170F218E2
310
DA75607A1685067113FB24CEA02843B2E4433679733279B28FA919BA21B0B1D1965008DB51868A1ED45B0151D7234E0DBEA5DEA3D44D991511CAF2920D32146FD6F5264BBEAB56457620BFAA5484B2B1226C09860161B2CEAA55CC0653D78115DC4807AA5D24505650730A7B21F1F8B53769CABD1B70EBA7AFBB4106855F8F
310
F69A11755EC160796C1506E201C9F8D60D57FA3ABA84FA3BC1C93ED557B566B30204C454242F39B12AFAB684F2C6D6686E7883A4587F3059B7BA7E5B7AD0FD08C6B0066A977AE152019D612691AA4C6ED40DFD8A2004B76898F1A5CAA9C750B948125D35227A4DFAD4D92A235A9B66C42B6E31CB33F8B13561312D13BC4689
310
B88B6E248D5644B16EA5F4325261FCAC809F3FAC3AF0C0C80091BEA8020F3F74D6DAD12B552E1D24226FCB6CC3108120D8122D35BAF10A965A8D545AAEAFEA4C017517189855F1FCE7C9A2D98EF879B248AD61FCD0C9E272F707DA35FB228D741E2BBB3EEA1850E72745E5358E01BAED5053ADB38849E6567EEB4C1104C52A
310
CA0FAEC6AAA06108F671FC9FB3765F1634DB75F83F2E6BFB4F2A8EA3B24A6BB2EA521DA85C97CD1C369B9DBD7F3BBF3E19F993D9DBD17C717D31BAB89EBD1F9D2EA673FFF2EDE97432B9AED1D48E1A067530D3B90B9E4D50AB86D593C500BAB222A72481D37CE2A41862BE8433FD80F639CFB080E4D96C7627B6293F60F5BD
310
E9734AB4A1B8E2E4164183980A48EB805119CBF6B8F30BB426251CB4CF5D681A7977F067ADD27520F39CBBD02A9024C6C2DB409B4935F4347148B93AF75B62800F62A94A896651FD5CAF52D8B4C27F3D65481AB072B57A1850B815D0FD6A7528346F96A7F828C12B761C24E176534AA8D68C2CFB815A18BDCD5EFD46364AD8
310
9DDDFA115CF779B17C4FCF692132E893C1B34660A88E24E2A9EE772BC62C4B178B2F63E8B339CBCF4E41CB1474399CD2886330E6521554604560159666812498EAD5EFEB2F3C874F3C99A3AB22E7D7C7D337BFADAFF22CCB99195A5FC0A92C810F45CEEA163EFB246B281EB06AAE8BF574E24FD7BAA96DFBECD10609ECA9AA
310
0806AA624209D23139B0CB270D2ADBBE1C2B5574A62F178E0DA2D00C3076F4A4C76B3E7239E043EA738AF218EDE795B4CFF6B5C77A2AD804878E74F82F504B0304140006080000C56C0943000000000000000000000000350000006662782F42413341344535342D323743312D344131452D413039342D3942464634344542
310
323546312F76657274696365732E62696E504B0304140006080800C56C0943F270F1330600000004000000360000006662782F42413341344535342D323743312D344131452D413039342D3942464634344542323546312F747269616E676C65732E62696E636660600000504B0304140006080000C56C0943000000000000
310
000000000000370000006662782F42413341344535342D323743312D344131452D413039342D3942464634344542323546312F617474726962757465732E62696E504B0304140006080800C56C0943D5987DFC8F00000041010000360000006662782F42413341344535342D323743312D344131452D413039342D39424646
310
34344542323546312F6469726563746F72792E786D6C858F410EC2201045AF4266AF15DDB800BA74E7C21B903225242D6328188F2FA5C4183471359997F9FF81E89FF3C41E1816475E02DF1F80A11FC8386F25A438EECEC07A250251FC3803E6F58C12560C4AD840E95E91C151A72936F496F35732D860FE635F62C8F2DA16
310
B505C545B74125BAA2FA9E05D7CC053D063734D5C7665FD55B6B8D15D5E9BFEAFD8490FFA45E504B0304140006080800C56C094387CB9ED4FB000000A00100003B0000006662782F42413341344535342D323743312D344131452D413039342D3942464634344542323546312F7265736F75726365732F636F72652E786D6C
310
8D50596EC32010BD8A35FFD82C91E35898A8596ED00B203C495162B058AA1EBF3876A5F6AF3F0CF316CDD393C7AFE9597D6288D6BB01584DA14267FC68DD7D809C6EA483EAA864F03EFD9241E5F484032C3028790F3ECF1B64BC4BE852419D1F7103758C98A032CFF219209A0F9C74AD732A8AF8A8676D1EFA8E35AB0B5D74
310
4AC6144A806A3DB2BCA002469F83C1289B955532673B6E1A3B969BF66631806A7927F6177625E2D49DC98EEF3979BBB68C5CC4AEDD1DCEFCD49EB96C16B392C94E3F194D409D7004C529138476841EDE99E845D7335AD69E52D92CF23FA63C8FFF3465EB92E05BDCD51641B112E44528D92C7D95F12AB3CCA55BF50D504B01
310
0214000A0000080000C56C09433DEE336E79000000790000001B00000000000000000000000000000000006175746F6465736B2D64657369676E2D7061636B6167652E786D6C504B01021400140006080800C56C0943D486FD9CA0000000F40000001300000000000000000000000000B20000005B436F6E74656E745F5479
310
7065735D2E786D6C504B01021400140006080800C56C0943EF21C3E5E90000007C010000080000000000000000000000000083010000636F72652E786D6C504B01021400140006080800C56C094355019EA25F0000007C000000070000000000000000000000000092020000636E782E786D6C504B01021400140006080800
310
C56C09433D39CFA965010000020300000C00000000000000000000000000160300006662782F636F72652E786D6C504B01021400140006080800C56C09430F34744D7E0000009D0000000B00000000000000000000000000A50400006662782F636E782E786D6C504B01021400140006080800C56C09434E1F1D952A010000
310
1402000031000000000000000000000000004C0500006662782F42413341344535342D323743312D344131452D413039342D3942464634344542323546312F636F72652E786D6C504B01021400140006080800C56C0943CCE8302A54010000330300003000000000000000000000000000C50600006662782F424133413445
310
35342D323743312D344131452D413039342D3942464634344542323546312F636E782E786D6C504B01021400140006080800C56C0943A79CC899640700009A1B00003400000000000000000000000000670800006662782F42413341344535342D323743312D344131452D413039342D3942464634344542323546312F6F62
310
6A656374732E786D6C504B01021400140006080000C56C094300000000000000000000000035000000000000000000000000001D1000006662782F42413341344535342D323743312D344131452D413039342D3942464634344542323546312F76657274696365732E62696E504B01021400140006080800C56C0943F270F1
310
3306000000040000003600000000000000000000000000701000006662782F42413341344535342D323743312D344131452D413039342D3942464634344542323546312F747269616E676C65732E62696E504B01021400140006080000C56C09430000000000000000000000003700000000000000000000000000CA100000
310
6662782F42413341344535342D323743312D344131452D413039342D3942464634344542323546312F617474726962757465732E62696E504B01021400140006080800C56C0943D5987DFC8F0000004101000036000000000000000000000000001F1100006662782F42413341344535342D323743312D344131452D413039
310
342D3942464634344542323546312F6469726563746F72792E786D6C504B01021400140006080800C56C094387CB9ED4FB000000A00100003B00000000000000000000000000021200006662782F42413341344535342D323743312D344131452D413039342D3942464634344542323546312F7265736F75726365732F636F
310
72652E786D6C504B0506000000000E000E0080040000561300000000
  0
XRECORD
  5
34
102
{ACAD_REACTORS
330
30
102
}
330
30
100
AcDbXrecord
280
     1
270
     1
271
     1
  0
XRECORD
  5
35
102
{ACAD_REACTORS
330
30
102
}
330
30
100
AcDbXrecord
280
     1
270
     1
271
     1
  0
XRECORD
  5
36
102
{ACAD_REACTORS
330
30
102
}
330
30
100
AcDbXrecord
280
     1
270
     1
271
     1
  0
XRECORD
  5
37
102
{ACAD_REACTORS
330
30
102
}
330
30
100
AcDbXrecord
280
     1
270
     1
271
     1
  0
XRECORD
  5
12C
102
{ACAD_REACTORS
330
A
102
}
330
A
100
AcDbXrecord
280
     1
102
MATERIAL
148
0.0
149
0.0
149
0.0
 93
        0
 94
      127
282
     0
 72
     0
 77
     0
171
     0
175
     0
179
     0
273
     0
  0
XRECORD
  5
B
102
{ACAD_REACTORS
330
A
102
}
330
A
100
AcDbXrecord
280
     1
270
     1
271
     1
  0
XRECORD
  5
C
102
{ACAD_REACTORS
330
A
102
}
330
A
100
AcDbXrecord
280
     1
270
     1
271
     1
  0
XRECORD
  5
D
102
{ACAD_REACTORS
330
A
102
}
330
A
100
AcDbXrecord
280
     1
 70
     1
 90
1959938040
 71
     1
  1
F1D67213-DA33-487F-BB31-398B71A2E9B3
311
504B03040A0000080000C56C09433DEE336E79000000790000001B0000006175746F6465736B2D64657369676E2D7061636B6167652E786D6C3C3F786D6C2076657273696F6E3D22312E302220656E636F64696E673D227574662D3822203F3E3C666F726D6174733E3C666F726D61743E687474703A2F2F736368656D612E
311
6175746F6465736B2E636F6D2F64657369676E2D7061636B6167652F323030393C2F666F726D61743E3C2F666F726D6174733E504B0304140006080800C56C0943D486FD9CA0000000F4000000130000005B436F6E74656E745F54797065735D2E786D6C7D8EC10E82300C865F65E91D8A1E8C310C0EEA1BF002731658846E
311
D98AC1B77784ABF1D8FE5FBFBF75BBCE937A534CCEB38643598122B6FEE978D0B0485F9C41B54DDD7D022595594E1A469170414C76A4D9A4D207E29CF43ECE46F218070CC6BECC4078ACAA135ACF422C856C0E68EA1BF5669944DDD7BCDE7B1F8E415D77AECB980613C2E4AC91FC167A2B244592486606FC29C8FD7F045B9A
311
EF7053A7E60B504B0304140006080800C56C0943698BB0DAE90000007C01000008000000636F72652E786D6C8D90DD8E832010855F85CC3D0ADAD49F208DD1F609F605085097B48211D8F4F18BAD4D76EFF66A86C3F96626879D1EF31DFDE8D51B673BA01901A4AD74CAD8A98318AEB80674E26C752EFCB201B262D61D6C32
311
7036AD2E2EBB249D0DDA86A45AA7F42E0AEF750024EFA9E9C0CB6F3D8B4CC4901CFE962D42DEC4A433FAE9121CA351E8BDC4A834CF5C8D5E81F7353917FDF18087FE32E243D91C715354674CC661AC86AA682E43C5F20DE62C98F9B35FAE5A04AD8017849698D498345FB46CCBBAA5243D5B4258BED9FF407151FF84A2B1A1
311
2CF673DF98074ED321AF0FCEF22D8B545E41A5BAE5C69F504B0304140006080800C56C094355019EA25F0000007C00000007000000636E782E786D6C4DCB3B0E80201045D1AD90E915ED2CF8AC45050C11660C8261F98AB1B07AC9C97D42D718D865D3E909258CFD00CCE24AC6E326A164D74DC0B4128928FF326038472BA1
311
3128B1252AC747C6BAB984FC68F0B87FE8960A5C09FE86CFB69FBA01504B0304140006080800C56C0943038DE93C65010000020300000C0000006662782F636F72652E786D6C8D52ED8E8230107C95A6FFA1058CA0293506F509EE052A54AE115A525AE2E3DFF261382FC65C48A0ECECECCC0EB0C3A36DD0206DAF8CCE7114
311
528CA42E4DA5749D63EF6E4186D181336B8CFBD5869116ADCCF158C69CD5D6F86E2995463BA91D54B5A9E452147D2F1D466503871CF7E5B76C4528BC838EFE1E76A2BC8B5A86510830F471D63B0B06D02C32DE31BF5D1F8CCC75CEBC57D582AA0AD4D44D498BF931A3E7F8B8DD04C5F1720A36C96E1BECE2F41CD053714A8B
311
34DE5D8A949191CC9953EDD35D69A570B2C23CA65112D02CA0BBAF28D927D93EA2F0BAA79491B1FD85E4BBEA9F24AFB44BE2C5EE4CEB318FC0C804FCD9162272A81703F8219C913144784C09BF060D8140C84E5C9BE71E77280DB274C66E00A98C5FA141345E822A45D3C5C88CC2E469006CF6764EFC61CEE719F00185AEC1
311
9A7070BC7A37AAB3597589A2933618DC0369635BD1ACE6668BEB7D157A4B2F4D63EC7FD86459952C6192F1EFE53F504B0304140006080800C56C0943709ADA437D0000009D0000000B0000006662782F636E782E786D6C4DCCD10A83201886E15B91FFDC554B9B821A265D482C0B99E9703A76F9ABD1C18E3E78F87845FFD9
311
3C7ADBF4723148682E35201BEE7176619550F28219A05E891463FEBB010AD366251C0C4AAC2996E749B35DA6E2F3AEDE85C789ED8D7243D980CD551B4CD8C8B1EE34C184B6CDC0EA8E733A42A544F52BED7B84D517504B0304140006080800C56C0943CEBD676A2B01000015020000310000006662782F3337353943353842
311
2D433241432D343845392D413641342D3435333142383036393935452F636F72652E786D6C8D514B6EC32014BC0A62952EB0C1D88E1D61A224CA0D7A0182498A1283C5A7CAF10BB523B5BB6C7830CCCC1BBDC7F6CFE901BE95F3DA9A01920243A08CB4A336B701C670451D047BCE9CB5E10F0D02232635C00C43CE6ECEC679
311
85A435419990506347B582C27B1520908F7419A0975F6A1285882131FCBD9885BC8B9B2A4891BE138F331F5C0A009626F9849C6E9BFED4744774AA0E275477E71E1DDA438DEA86926387DBBE6FCEAC5C849CC5A8C755AEC714475FB572EF9A643167414FAFF8D22911D40879850945B843B8FF247447BB1DC1E9B9C3989599
311
FE4F14E7F14D51D426D06A8DBBC83CE48495CB0767A38D97C72B8C7ACED60590FB6DBC921F90E302E36DDBB7D596B272E1A60924D3B65E4D7DB02E4D7873BF243A6916E7B6E6ACCC4B4AE57783A9E685F21F504B0304140006080800C56C0943AA4FFF3D4C01000033030000300000006662782F33373539433538422D4332
311
41432D343845392D413641342D3435333142383036393935452F636E782E786D6CD593CD6EC32010845F0571B78DEB284A234CA41EFA043DF48A6193D260B0F8A99AB7EF929034971C7AEC05D9B31F33AB91CD77DFB3255F10A2F16EA47DCB2801A7BC36EE30D29CF6CD86929DE0C1FB748751E2E40C232D3215FC107C5EAA
311
A4612FB34DA85AE38E550C107D0E0A22CAE526B15E498B06E09A8C22CC13680D9ADC407CDA43C055509C4E247D00797D79277EFA049522EF8A8BE05DC910BC9C35E90EA2445919E348A3FA8059B63227AF211E5B2D936CFBF69AF560A75F27522E5C237330A4848FB49C54D48D5AEC917738143CA680ED55289D16A0422E8B
311
354A262CB93B831746F06C5C5AAF2A6BB0F88074BF1E562B343BCF044F66864AA8003281A6E289F543C3360D7B7EEB87EDB0D9F60C5FB78CF1AEE0824FDEDB7A096D20F88528EF12B84445CFBB327E545FE5883601BBF6E1F48722B1809A7A69E7E6F19FFBE9CEDF37D615F02F103F504B0304140006080800C56C09438B66
311
37FBA305000080100000340000006662782F33373539433538422D433241432D343845392D413641342D3435333142383036393935452F6F626A656374732E786D6CAD575B8F9B3814FE2B887DD97DC885249DCB8AA1CAA55345D5B455A356FB1029326018EF188C8C9966F6D7EF676C08A4C934BBEA4B08E6F8F89CEF7CE7
311
62FFED3EE3CE33952513F99DEB0DC7AE43F348C42C4FEFDC4A25831BD7791BF85208D511739D9C64F4CED5CB6EE0A75254855D8A69422AAE8E56EF177F39654473EA3A11276579E796D123CDC890544AC4B47C1AC64491619AEC87DED008F6D5A692148F474A0B2269AE6029D67368718C515EFF75EC8E027FA4BF07BEFEB5
311
52D3F352A3DA9FFEF92C2F15C9A31F0E3B5233F566AB779337B78337B3D97430BB9A7883C5FD6235F0AEA7E3E5D572793B7F778B834B25A1C95A2269E206EF818D64913F329F02BF62B99A4EAC880DD048D267A623E50613C7F34746A6F5CE3A79CAFC48E4398D6AAC8046ED9F551DD382E63162CE6809CB3A088DFBAF9EC6
311
B1F379AADFED91DDE5CB10E8EEE8286A6C6F9E5D4B45F8375C282F61902CA966A0C1D23A6AB83A3E201C0AC1ED37563A19515432C21DCE4249E48B1B40548B047E4F8D66B2D4D9A03D700344C17CEED30569F4739E9FB232A938D73476833A0B76C815AACADA32F60F9507EBBBC8C026C44AB3E1C63AA45E0AEA06B7862237
311
476C32403A092729420E37F5CEE9E4C8D1A5CED3F5CA0D3EDC87FB8DCEDDD387175214542A4D1F50AB095CF3D428599BBC8B22A737B847A61C40F902E43F22D50FA6206E92ED67FB993D4549929789901962E38C9DC1183F63C7AB7FF5FFCE3F7FD46EEE47EF1C9E08B686EA17E0D9F7A11BCB0E9C81FF0CC20B39B5AE6D22
311
C251361E580E8034491C2EB0843A9C847B3758A3CAA12A6317E181079761EE33FEFA23AB0685A23EA9F3CC81E55159BCA04003B69A9130C390DF1A7888D30FE5AC3ED88A9D83F7CD2FA1EB7CB5F9B0A9644222FA60737A45139633851677E04DD7A01EE63D8F9EE8CB77216338FA23DE9B2EDE993DAA04DA1A730D7CDAD474
311
FD7238B97740847DA9D0E5C6FFC909704237D68EFE075646947392535135E7BEDA3FD0360CC43AD93593DB0673682C208DF972948368D291648506B1ED566DD11C9EF1EEEBFA231809792E42C20F42E1A1F446820BB90B5F76A62A9D44FA5B9FDA168291D602B6D739D2A4BFC57C17B324A94AD4C013B07E5B2FBBA1D35501
311
15A2D16A926506F7915B445ACE367AD1AC25412315F98EA16D22ED4E1ED0D50F442D016A85E72C2E294F768CF32ADB258CA319ED32529C81E3FFDB1F5659B12399A872754677CF743487BEED3DF296DF898A1EDD60533F070B94DE98C68730F784752B3981552FB4F7DEEAEA7AE24D07ABF914E3D3CDF5FD60B1987A83E9ED
311
CDE2DA9B4FDEDD2EA64D9C8CF2C06F3A4D37A111257436BF92CC86EFEB1AE9636B801B3C10556EDF9BEC6C9E5FD7438CC2FE087BD02EDB8DF3F819631F8D7FAEE0207952D13A2B38CD68AE884EA107FD877F2118337AC698F57546527A81964FEF3747CE60E5827D9F75BAD3EF477BEDEA5227E44925EAB1CAC29C307EB431
311
35480E8B3CB5F83531699FA6CF34AFFACD0606836929388B51066327A522A30AC5F0821E24335A827ADD913EB6578F0B763F9B01519190D3C6924782199997480B50AB8A547FDDF90D339D1EABEE5C74DBE1137E6CA5701D70E6CEC58CAE5844CB6188FEAC27A15A39B8D41DE431F7933CE518B5CDA6F6BDDDA5B1E975E456
311
E492F1C9FA652AB8750065A4C0D8807908D1A98D09FCDA36FB3DFA4F8E37E63844E16F58A9D697C342EB4C7D0C52D438652F0B98619EECD17B24EAEB6E79C35AA687C84597AC574960B40E1491697D51D0F65993E6ABCF230C28CEFA9353F02A452C2FD734901464AE748283456085D5591005AA2EFFDC7E960217D9CCB967
311
A080F3FBFEE6EA8FED526499C8CDD2766EAFC3CEE61197DB788BE240F5ADA4DC4EC6DE645BDF06EC05651792920E495C3E61019195AC05BA177EF0D25C19D187CC87566EA44371C4D0F5CAB18D6D06A5962EDDDAAAC1C1DC91530739A46F943A63BA02C5AB1782512D0A132446F9E05F504B0304140006080000C56C094300
311
0000000000000000000000350000006662782F33373539433538422D433241432D343845392D413641342D3435333142383036393935452F76657274696365732E62696E504B0304140006080800C56C0943F270F1330600000004000000360000006662782F33373539433538422D433241432D343845392D413641342D34
311
35333142383036393935452F747269616E676C65732E62696E636660600000504B0304140006080000C56C0943000000000000000000000000370000006662782F33373539433538422D433241432D343845392D413641342D3435333142383036393935452F617474726962757465732E62696E504B0304140006080800C5
311
6C0943D5987DFC8F00000041010000360000006662782F33373539433538422D433241432D343845392D413641342D3435333142383036393935452F6469726563746F72792E786D6C858F410EC2201045AF4266AF15DDB800BA74E7C21B903225242D6328188F2FA5C4183471359997F9FF81E89FF3C41E1816475E02DF1F
311
80A11FC8386F25A438EECEC07A250251FC3803E6F58C12560C4AD840E95E91C151A72936F496F35732D860FE635F62C8F2DA16B505C545B74125BAA2FA9E05D7CC053D063734D5C7665FD55B6B8D15D5E9BFEAFD8490FFA45E504B0304140006080800C56C0943B6E57A62FC000000A00100003B0000006662782F33373539
311
433538422D433241432D343845392D413641342D3435333142383036393935452F7265736F75726365732F636F72652E786D6C8D50596E833010BD0A9A7F83812A2C328E102427E8052C3349AD041B79A97AFCDA814AED5F7F3C9EB7689E1E3B7FADCFEC13AD53460F50E61432D4D22C4ADF0708FE465AC8CE9C5963FC2F19
311
645AAC38408281B3BB35613B2069B447ED23AACD8207289C430F997CC6CF004E7EE02A72117C54B847BE09F91077CCCB3CD251C799F33606C8F623E9056ED19960253A56EC2C6721A8E5D0A825DE54378516F8D8D24B359E6A328DD799BCD5DD8974557321749EE6666AAAEE3A35AC4866CEBC5A7F324A8BC2E302BCA2654D
311
684B68F75ED67DDDF6258D6B4F292B92FC8F296CCB3F4D41695F5747DCDDE6809731C88BE0AC487DC5F12A33CED42DFF06504B010214000A0000080000C56C09433DEE336E79000000790000001B00000000000000000000000000000000006175746F6465736B2D64657369676E2D7061636B6167652E786D6C504B010214
311
00140006080800C56C0943D486FD9CA0000000F40000001300000000000000000000000000B20000005B436F6E74656E745F54797065735D2E786D6C504B01021400140006080800C56C0943698BB0DAE90000007C010000080000000000000000000000000083010000636F72652E786D6C504B01021400140006080800C5
311
6C094355019EA25F0000007C000000070000000000000000000000000092020000636E782E786D6C504B01021400140006080800C56C0943038DE93C65010000020300000C00000000000000000000000000160300006662782F636F72652E786D6C504B01021400140006080800C56C0943709ADA437D0000009D0000000B
311
00000000000000000000000000A50400006662782F636E782E786D6C504B01021400140006080800C56C0943CEBD676A2B0100001502000031000000000000000000000000004B0500006662782F33373539433538422D433241432D343845392D413641342D3435333142383036393935452F636F72652E786D6C504B0102
311
1400140006080800C56C0943AA4FFF3D4C010000330300003000000000000000000000000000C50600006662782F33373539433538422D433241432D343845392D413641342D3435333142383036393935452F636E782E786D6C504B01021400140006080800C56C09438B6637FBA305000080100000340000000000000000
311
00000000005F0800006662782F33373539433538422D433241432D343845392D413641342D3435333142383036393935452F6F626A656374732E786D6C504B01021400140006080000C56C09430000000000000000000000003500000000000000000000000000540E00006662782F33373539433538422D433241432D3438
311
45392D413641342D3435333142383036393935452F76657274696365732E62696E504B01021400140006080800C56C0943F270F13306000000040000003600000000000000000000000000A70E00006662782F33373539433538422D433241432D343845392D413641342D3435333142383036393935452F747269616E676C
311
65732E62696E504B01021400140006080000C56C09430000000000000000000000003700000000000000000000000000010F00006662782F33373539433538422D433241432D343845392D413641342D3435333142383036393935452F617474726962757465732E62696E504B01021400140006080800C56C0943D5987DFC
311
8F000000410100003600000000000000000000000000560F00006662782F33373539433538422D433241432D343845392D413641342D3435333142383036393935452F6469726563746F72792E786D6C504B01021400140006080800C56C0943B6E57A62FC000000A00100003B000000000000000000000000003910000066
311
62782F33373539433538422D433241432D343845392D413641342D3435333142383036393935452F7265736F75726365732F636F72652E786D6C504B0506000000000E000E00800400008E1100000000
310
504B03040A0000080000C56C09433DEE336E79000000790000001B0000006175746F6465736B2D64657369676E2D7061636B6167652E786D6C3C3F786D6C2076657273696F6E3D22312E302220656E636F64696E673D227574662D3822203F3E3C666F726D6174733E3C666F726D61743E687474703A2F2F736368656D612E
310
6175746F6465736B2E636F6D2F64657369676E2D7061636B6167652F323030393C2F666F726D61743E3C2F666F726D6174733E504B0304140006080800C56C0943D486FD9CA0000000F4000000130000005B436F6E74656E745F54797065735D2E786D6C7D8EC10E82300C865F65E91D8A1E8C310C0EEA1BF002731658846E
310
D98AC1B77784ABF1D8FE5FBFBF75BBCE937A534CCEB38643598122B6FEE978D0B0485F9C41B54DDD7D022595594E1A469170414C76A4D9A4D207E29CF43ECE46F218070CC6BECC4078ACAA135ACF422C856C0E68EA1BF5669944DDD7BCDE7B1F8E415D77AECB980613C2E4AC91FC167A2B244592486606FC29C8FD7F045B9A
310
EF7053A7E60B504B0304140006080800C56C0943B782F126E90000007C01000008000000636F72652E786D6C8D90416EC3201045AF82668F03C66E5C0B1339897B825E0001715162B00C54397E71E248EDAEAB193EFFCD8C3E3FDCA71BFA364BB0DE75400B02C838E5B5756307295E7003E820F8E27DFC6503E4E4643A5865
310
107C5C7C9A374979178D8B59755E9B4D9421980848DD72D341505F6692854C313BC2B598A5BACAD114F4D5653825ABD17389D5799EBD58B380208CD6F5B02FF11B692A5CB1E307EEFB6AC0E7D350F74375ECCF7BC2772B2C78B4D36BBF5A8C8C4683280965983498BC7F52D6B2A6A5243F5B92A1D5FE074AB3FE2794AC8BAC
310
DCCE7D620104CD873C3E04DFAD59E4F2082AD73537F103504B0304140006080800C56C094355019EA25F0000007C00000007000000636E782E786D6C4DCB3B0E80201045D1AD90E915ED2CF8AC45050C11660C8261F98AB1B07AC9C97D42D718D865D3E909258CFD00CCE24AC6E326A164D74DC0B4128928FF326038472BA1
310
3128B1252AC747C6BAB984FC68F0B87FE8960A5C09FE86CFB69FBA01504B0304140006080800C56C0943C324C0C566010000020300000C0000006662782F636F72652E786D6C8D525B6E833010BC8AE57FB079A44923E38834F404BD80030E45011BF98172FC2E8F88A68AA20A09CCCECECEEC003BDCBA160DD2D846AB0C47
310
21C548AA52578DAA33ECDD25D86174E0CC68ED7EB561A44427333C963167B5D1BE5F4AA5564E2A0755A52BB91485B5D26154B670C8B02DBF652742E11D74D86BD88BF22A6A194621C0D0C79975060CA05964BC637E39DF1899EB9C79DF540BDA54A0D65C1A6930A749B4D914DB3878A3BB344893E36790E769119C3E8A4D5E
310
A4C7FCB4A58C8C64CE5CD3DDDD95460A272BCC631A2501DD05F4FD2B4AF6C96E1F5178DD53208DED0F24DF57FF24F946B9245EECCE348B79044626E0CFB6109143560CE0877046C610E13125FC18340402213B716EEF7B5CA134C8D26993025269BF428368BD04558AA68B911985C9D300D8ECE99CF8C59CD733E0030A5583
310
35E1E078F66E5467B3EA12452F4D30B81B52DA74A25DCDCD16D7FB2AF4945EEA569BFFB0C9B22A59C224E3DFCB7F00504B0304140006080800C56C0943FD94F9B97E0000009D0000000B0000006662782F636E782E786D6C4DCCD10A83201886E15B91FFDCB5668A821AD6B6FB886521990EA76397BF1A1DECE883878F57B6
310
9FD5A3B74D2F178382FA740664C3238E2ECC0A4A9E3007D46A9962CC7F37406158AD829D41CB39C5F23C68B4D3507CDED4BBB01C4899A805A51D3637DEE3E64A0816BDE9B0681A5E3373B97346A0D2B2FA95B6DDC3FA0B504B0304140006080800C56C0943EFAC29C22A01000014020000310000006662782F353639313935
310
35422D414538432D344433332D394341422D3934343831364132463836332F636F72652E786D6C8D514B6EC32014BC8AC52A5D6043B05D1C61A2246D4FD00B38405C94182C3E558E5FA81DA9DD65C3836166DEE83DB6BF4FB7E25B39AFADE9012E11289411566A33F620860BA4A0D873E6AC0D7F68A030C3A47A9061C0D9E8
310
6C9C574858139409093556AA151CBC570114E2962E3DF0E24B4D4339C49018FE5ACE83B80EA32A7199BE138F331F5C0A502C4DF20978D376B86B9A233CBCD313ACDF0881DDE970845D5D53DC1EB61FB425AC5A849CC5A8E52AD732C5D117ADDCB32659CC59D0D323BE706A084A02BE4598404421EA3E31D911BAC3283D7708
310
B12AD3FF89E22C9F14456D02D9AE711799071CB36AF9E04CDA78BE3DC2A8FB6C5D2872BF8D57E20570542244C96B835B562DD43480E4D9D6ABA70FD6A5016FAEE7C426AB715B7356E51DA5F2BBC054F33EF90F504B0304140006080800C56C0943CCE8302A5401000033030000300000006662782F35363931393535422D41
310
4538432D344433332D394341422D3934343831364132463836332F636E782E786D6CBD93CD6EC32010845F0571F75F1C456E8489D4439FA0875E316C521A0C163F55F3F65D1292E69243A5AA1764CF0E33AB4F36DB7DCD867C820FDAD99176754B0958E994B68791A6B8AF064A769C79E7E29D8D122B66186996296707EFD2
310
5224057B914C44D5687B2CA287E092971050CE37897152180C005B2514619E402950E466C4A73D785C05C5E944E23B9097E737E2A60F9031B026A770D6E40ECEF2599AEE4C94482342186990EF308B5AA4E8148463AD441475575FBB1EECF49344F2856B65F29AE4F291E693F2B2518D1C598343CE42F448AF98E26901CAC5
310
B2182D4544C8CDD978F17096B48D9B75F16A04EFD1DDAF36C38061E7196751CF501CD28388A0285FB55D5FB543D53EBD76FDB61FB65D8BAFDBB6654DB673363967CA258C01EF16229D8D6023E51D6BF2F811BEE2234A7B64EDFCE91720114069BDD0B965FC259F6ED3AFD7FFC8A7397FDF88CBE35FC0BF01504B0304140006
310
080800C56C09438D3EA29661070000991B0000340000006662782F35363931393535422D414538432D344433332D394341422D3934343831364132463836332F6F626A656374732E786D6CED595B73A33614FE2B0C7D691F8C8DEDDC3A844E126F329E9DECEEACBB3B7DF00C23834CD408C1482297FEFA1E5DC0404C82BBE9
310
DB3ED880908ECEF9CE5587E08FA78C3A0F980B92B373D7F726AE83599C2784A5E76E29B7A353D7F9230C789ECBC634D76128C3E7AE1A76C320E57959D8A1046F51496567F4FAF22F47C49861D7892912E2DC15F11DCE90874A992758DC7B0992C84BB74F9EEF99896DB22947C55D87688138661238857106541CC394DF7E9C
310
B8E33018ABF761A0FEEDACD9A059F3FE59632D759B4BC284442C7EC15287CC6C104B337FBEF8303D3A1B1DCDE7B3D1FC78EA8F2EAF2F1723FF6436B93ABEBA3ABBF87006EC6DF29C5A99125C609680FE9EDDD00FC6EA4D2DBA45601FD771CE188E3590009516AB4B9060015B35E09BB41F7D2551E3B596B0F13C57EF2D0B8D
310
E1599B4ADFAC6140B4E8822076BB4AE2EADA942FDFFC0D828B2146C90596C0AD901CB46BE1E1E0156E3809C666340C363B5D10E16448624E107528D970C4412930554D0903B3C09251CEC18194A324D09A33AFDBB6059EF9B6EBECE3725B52AA3CC30DB56345E07E580ACD19F907F31DF74D64802790B6244C9E5A2EE57381
310
DDF02C18EBC1305097D9D4BE34403A5B8A52A111316F3B825E29D75F2EDCF0E3F5E669A5C2C1FECD0B9E17984B65744A8F9A2F30647B5528D96DFD419A530B401803AA5DB903E52B20FF09A2C78E15D01B274FF3A7B99D2B3962629BF30C74E34C9CD104FE268EAFFFD57DE32E18D78BDBDAEBC313DC544175FAE378B665D0
310
5859FE1B7086C103187CCE67F6D52A4614ECF996300048198943731882D0BEDD3CB9E1120227047A588568E883C8C0EE03DC06634B66A795CABDACD73140D4EE311BA224804D5B24B0D1A3A71BC81E9CC43B353545EC83F7E85DCCF562B1FAB82AF916C5F8D6FAF4026F092312B2E67E865A98B724BAC7CF8F394F40D09778
310
AF9A7867762B01682BCC15F06905827AD8EDDCDA20867569AEC24DF0C60E2084CAD50DFAB744C49852C4705E56FBD6D14D196AEDF1B66670C3A9817836ED9830C70F445515E034BB192D4621EFC79C140A4437BC3192D541D3EB91EEDBF21358643DBF67D69241E86588FEA983D61E1C5A965D216D81A805DEECC2799CD39C
310
479BE7C8443A176A0960A3ED2DDF5B4421D61B25292AE041DAEFAA90921A69A3846CB7A580B8BA87C5EFCBABA6394CBC997FE434FF3BCE3887680BBE8BB8F5BBCE1E11C9508AA32D4AFAB66BEE56D3169A640F698EB714E4220F443E4748469304A787407310F1B377A59ED25C08C2B0807CB517FC261A130F0289D166C5B2
310
D26A076822A20C4B440F414091E90157A71D5DE3C6503ABCCD636DBDAF69AC49F47FB2088EA096CC5944A014851CF226E3BE770431A48DAE41B9832F585B455B8B414B2821E2E7E81193F44E1E82BA21DF837B0C4792524679816230EB01645FF88A526A87F70D8AEF55FE88E292BE9781084CB711A1B4CC22F81106278F21
310
AE5D07A65751681037B14FE20C8A32244B3E6493E3A3C98B7D4CCDD00D818D8DB68442D88E3254F4A0DE0A88BA1E716AF02DF51EA56ECAAC885096976C90A178B3AE3759F25DB52AB203F955A522948D15614B300C08937556AD623698BA0EACE0463A503D4702650535A7B037128F5F7B93A6DCBB01B77EFABE1B6450F8F5
310
68AF1951E7150C96C75661201E918CEFDC70A5AFA34BA8BF139CEC527D556B362B40404C45F29213ABA26F4B286F6C8DE686B7488AF58DC9BAD5F5DBD283EE4730863550BBD40B970AE80C3389546572AB6EE8570421B845C38C2F554E3D84CA4592E8AA11D16BD2A7CE5619D1DA34235E7187599EC18FAD098B6999E0354A
310
C47D742B69B4228A752BA597910AE35705FC7CB3EAC003230344FAA20A3CFCD8596B47AF54B9B49788BC2BB30D430482604BB4D4E8C62B586A355269B9BEAA3305D45D606056C5F39F278B663BE2E7C922B586F163270B9A6F10DD459B46368F95591F740AA8D393A2F21EA700DD75A8A9D649C4E4722BBEF5A508626215E4
310
07176355CC3004FB38FECF49BB2F099AED3AFC1F96B4FD1705C74149A5355935A9F614AECB660ABBF617C727537F365A5CCCA03F7B7A723DBABC9CF9A3D9D9E9E5897F31FD7076B9AB22B49F86411DCB74EA826713D3AA61F5643180A6ACC82949E0309F382986902FE1483FA07BCE332C2077367BDD89EDC90F58FD60DA9C
310
126D28AE38B943D01FA602B23A6054C6B23DEEFC029D4909E7EC73177A46DE3DFC59AB741D483CE72E740A2489B1F036D06552FD3C4D1C32AE4EFD9618E08358AA32A259543FD7AB1436ADE85F4F199205AC5CAD1606D46D0534BF5A0D0ACD9BE5293E48F08A1D0749B8DD94128A3523CB6EA016466FB353BF918D12766FB7
310
7E02D77D5D2CDFD3735A880CFA62F0AA1118AA238978AADBDD8A31CBD2C5E2CB18DA6CCEF2B353D032055D0EA734E2188CB954F51458115885A5592009A67AF5FBFA0BCFE10B4FE6E8A2C8F9F5E9F4F8B7F5559E65393343EB0B389425F09DC859DDC1579F640DB50356BD75B19E4EFCE95AF7B46D9B3DDA20813D5514C140
310
554B28413A260776F9A23F65BB9763A58ACEF4E5C2B141147A01C68E5EB478CD372E077C487D4D511EA3FDBC92F6D5B6F6584F059BE0D0900EFF05504B0304140006080000C56C0943000000000000000000000000350000006662782F35363931393535422D414538432D344433332D394341422D39343438313641324638
310
36332F76657274696365732E62696E504B0304140006080800C56C0943F270F1330600000004000000360000006662782F35363931393535422D414538432D344433332D394341422D3934343831364132463836332F747269616E676C65732E62696E636660600000504B0304140006080000C56C09430000000000000000
310
00000000370000006662782F35363931393535422D414538432D344433332D394341422D3934343831364132463836332F617474726962757465732E62696E504B0304140006080800C56C0943D5987DFC8F00000041010000360000006662782F35363931393535422D414538432D344433332D394341422D393434383136
310
4132463836332F6469726563746F72792E786D6C858F410EC2201045AF4266AF15DDB800BA74E7C21B903225242D6328188F2FA5C4183471359997F9FF81E89FF3C41E1816475E02DF1F80A11FC8386F25A438EECEC07A250251FC3803E6F58C12560C4AD840E95E91C151A72936F496F35732D860FE635F62C8F2DA16B505
310
C545B74125BAA2FA9E05D7CC053D063734D5C7665FD55B6B8D15D5E9BFEAFD8490FFA45E504B0304140006080800C56C0943DF68AC17FB000000A00100003B0000006662782F35363931393535422D414538432D344433332D394341422D3934343831364132463836332F7265736F75726365732F636F72652E786D6C8D50
310
4B6E833010BD0A9ABDC10ED050641C91869EA017B0CC84580936F2A7EAF16B0295DA5D371ECFFB689E1E3F7DCD8FEC139DD7D674C0720A191A65476DA60E62B89206B293E0CEDAF04B0699913376B0C220F8E46C5C76485913D084841A3BE20E4AEF3140A61EE9D38157379C652E63480A7FCF17A9EE72C29CE5894E3AC17D
310
702940B61D595F100EBD8D4EA1E7C5C60A1EA31E778D1ED34D7DD5E840D092D5F57064E4853615A9CAF33BE9FB6A2097B7A1EE87EADC5F8E9417AB59F0A0E79F8CCAA10C388238505612DA10FAFAC1CAB66C5A46D3DAD2645AE57F4C7119FF698ADA84F2B0C7DD6C1E044B419E84E0C5DA571ACF32D35CBB15DF504B010214
310
000A0000080000C56C09433DEE336E79000000790000001B00000000000000000000000000000000006175746F6465736B2D64657369676E2D7061636B6167652E786D6C504B01021400140006080800C56C0943D486FD9CA0000000F40000001300000000000000000000000000B20000005B436F6E74656E745F54797065
310
735D2E786D6C504B01021400140006080800C56C0943B782F126E90000007C010000080000000000000000000000000083010000636F72652E786D6C504B01021400140006080800C56C094355019EA25F0000007C000000070000000000000000000000000092020000636E782E786D6C504B01021400140006080800C56C
310
0943C324C0C566010000020300000C00000000000000000000000000160300006662782F636F72652E786D6C504B01021400140006080800C56C0943FD94F9B97E0000009D0000000B00000000000000000000000000A60400006662782F636E782E786D6C504B01021400140006080800C56C0943EFAC29C22A0100001402
310
000031000000000000000000000000004D0500006662782F35363931393535422D414538432D344433332D394341422D3934343831364132463836332F636F72652E786D6C504B01021400140006080800C56C0943CCE8302A54010000330300003000000000000000000000000000C60600006662782F3536393139353542
310
2D414538432D344433332D394341422D3934343831364132463836332F636E782E786D6C504B01021400140006080800C56C09438D3EA29661070000991B00003400000000000000000000000000680800006662782F35363931393535422D414538432D344433332D394341422D3934343831364132463836332F6F626A65
310
6374732E786D6C504B01021400140006080000C56C094300000000000000000000000035000000000000000000000000001B1000006662782F35363931393535422D414538432D344433332D394341422D3934343831364132463836332F76657274696365732E62696E504B01021400140006080800C56C0943F270F13306
310
0000000400000036000000000000000000000000006E1000006662782F35363931393535422D414538432D344433332D394341422D3934343831364132463836332F747269616E676C65732E62696E504B01021400140006080000C56C09430000000000000000000000003700000000000000000000000000C81000006662
310
782F35363931393535422D414538432D344433332D394341422D3934343831364132463836332F617474726962757465732E62696E504B01021400140006080800C56C0943D5987DFC8F0000004101000036000000000000000000000000001D1100006662782F35363931393535422D414538432D344433332D394341422D
310
3934343831364132463836332F6469726563746F72792E786D6C504B01021400140006080800C56C0943DF68AC17FB000000A00100003B00000000000000000000000000001200006662782F35363931393535422D414538432D344433332D394341422D3934343831364132463836332F7265736F75726365732F636F7265
310
2E786D6C504B0506000000000E000E0080040000541300000000
  0
XRECORD
  5
E
102
{ACAD_REACTORS
330
A
102
}
330
A
100
AcDbXrecord
280
     1
270
     1
271
     1
  0
XRECORD
  5
F
102
{ACAD_REACTORS
330
A
102
}
330
A
100
AcDbXrecord
280
     1
270
     1
271
     1
  0
XRECORD
  5
10
102
{ACAD_REACTORS
330
A
102
}
330
A
100
AcDbXrecord
280
     1
270
     1
271
     1
  0
XRECORD
  5
11
102
{ACAD_REACTORS
330
A
102
}
330
A
100
AcDbXrecord
280
     1
270
     1
271
     1
  0
XRECORD
  5
129
102
{ACAD_REACTORS
330
128
102
}
330
128
100
AcDbXrecord
280
     1
102
ACAD_ROUNDTRIP_2012_MLEADER_STYLE
298
     1
  0
CELLSTYLEMAP
  5
127
102
{ACAD_REACTORS
330
EC
102
}
330
EC
100
AcDbCellStyleMap
 90
        3
300
CELLSTYLE
  1
TABLEFORMAT_BEGIN
 90
        5
170
     1
 91
        0
 92
    32768
 62
   257
 93
        1
300
CONTENTFORMAT
  1
CONTENTFORMAT_BEGIN
 90
        0
 91
        0
 92
      512
 93
        0
300

 40
0.0
140
1.0
 94
        5
 62
     0
340
1C
144
0.25
309
CONTENTFORMAT_END
171
     0
 94
        0
309
TABLEFORMAT_END
  1
CELLSTYLE_BEGIN
 90
        1
 91
        1
300
_TITLE
309
CELLSTYLE_END
300
CELLSTYLE
  1
TABLEFORMAT_BEGIN
 90
        5
170
     1
 91
        0
 92
        0
 62
   257
 93
        1
300
CONTENTFORMAT
  1
CONTENTFORMAT_BEGIN
 90
        0
 91
        0
 92
      512
 93
        0
300

 40
0.0
140
1.0
 94
        5
 62
     0
340
1C
144
0.18
309
CONTENTFORMAT_END
171
     0
 94
        0
309
TABLEFORMAT_END
  1
CELLSTYLE_BEGIN
 90
        2
 91
        1
300
_HEADER
309
CELLSTYLE_END
300
CELLSTYLE
  1
TABLEFORMAT_BEGIN
 90
        5
170
     1
 91
        0
 92
        0
 62
   257
 93
        1
300
CONTENTFORMAT
  1
CONTENTFORMAT_BEGIN
 90
        0
 91
        0
 92
      512
 93
        0
300

 40
0.0
140
1.0
 94
        2
 62
     0
340
1C
144
0.18
309
CONTENTFORMAT_END
171
     0
 94
        0
309
TABLEFORMAT_END
  1
CELLSTYLE_BEGIN
 90
        3
 91
        2
300
_DATA
309
CELLSTYLE_END
  0
XRECORD
  5
135
102
{ACAD_REACTORS
330
EC
102
}
330
EC
100
AcDbXrecord
280
     1
102
ACAD_ROUNDTRIP_PRE2007_TABLESTYLE
 90
      512
 91
        0
  1

 92
      512
 93
        0
  2

 94
      512
 95
        0
  3

  0
XRECORD
  5
132
102
{ACAD_REACTORS
330
131
102
}
330
131
100
AcDbXrecord
280
     1
102
RTVSPropertyOp0
 70
     1
102
RTVSPropertyOp1
 70
     1
102
RTVSPropertyOp2
 70
     1
102
RTVSPropertyOp3
 70
     1
102
RTVSPropertyOp4
 70
     1
102
RTVSPropertyOp5
 70
     1
102
RTVSPropertyOp6
 70
     1
102
RTVSPropertyOp7
 70
     1
102
RTVSPropertyOp8
 70
     1
102
RTVSPropertyOp9
 70
     1
102
RTVSPropertyOp10
 70
     1
102
RTVSPropertyOp11
 70
     1
102
RTVSPropertyOp12
 70
     1
102
RTVSPropertyOp13
 70
     1
102
RTVSPropertyOp14
 70
     1
102
RTVSPropertyOp15
 70
     1
102
RTVSPropertyOp16
 70
     1
102
RTVSPropertyOp17
 70
     1
102
RTVSPropertyOp18
 70
     1
102
RTVSPropertyOp19
 70
     1
102
RTVSPropertyOp20
 70
     1
102
RTVSPropertyOp21
 70
     1
102
RTVSPropertyOp22
 70
     1
102
RTVSPropertyOp23
 70
     1
102
RTVSPropertyOp24
 70
     1
102
RTVSPropertyOp25
 70
     1
102
RTVSPropertyOp26
 70
     1
102
RTVSPropertyOp27
 70
     1
102
RTVSPropertyOp28
 70
     1
102
RTVSPropertyOp29
 70
     1
102
RTVSPropertyOp30
 70
     1
102
RTVSPropertyOp31
 70
     1
102
RTVSPropertyOp32
 70
     1
  0
XRECORD
  5
143
102
{ACAD_REACTORS
330
142
102
}
330
142
100
AcDbXrecord
280
     1
102
RTVSPropertyOp0
 70
     1
102
RTVSPropertyOp1
 70
     1
102
RTVSPropertyOp2
 70
     1
102
RTVSPropertyOp3
 70
     1
102
RTVSPropertyOp4
 70
     1
102
RTVSPropertyOp5
 70
     1
102
RTVSPropertyOp6
 70
     1
102
RTVSPropertyOp7
 70
     1
102
RTVSPropertyOp8
 70
     1
102
RTVSPropertyOp9
 70
     1
102
RTVSPropertyOp10
 70
     1
102
RTVSPropertyOp11
 70
     1
102
RTVSPropertyOp12
 70
     1
102
RTVSPropertyOp13
 70
     1
102
RTVSPropertyOp14
 70
     1
102
RTVSPropertyOp15
 70
     1
102
RTVSPropertyOp16
 70
     1
102
RTVSPropertyOp17
 70
     1
102
RTVSPropertyOp18
 70
     1
102
RTVSPropertyOp19
 70
     1
102
RTVSPropertyOp20
 70
     1
102
RTVSPropertyOp21
 70
     1
102
RTVSPropertyOp22
 70
     1
102
RTVSPropertyOp23
 70
     1
102
RTVSPropertyOp24
 70
     1
102
RTVSPropertyOp25
 70
     1
102
RTVSPropertyOp26
 70
     1
102
RTVSPropertyOp27
 70
     1
102
RTVSPropertyOp28
 70
     1
102
RTVSPropertyOp29
 70
     1
102
RTVSPropertyOp30
 70
     1
102
RTVSPropertyOp31
 70
     1
102
RTVSPropertyOp32
 70
     1
  0
XRECORD
  5
14B
102
{ACAD_REACTORS
330
14A
102
}
330
14A
100
AcDbXrecord
280
     1
102
RTVSPropertyOp0
 70
     1
102
RTVSPropertyOp1
 70
     1
102
RTVSPropertyOp2
 70
     1
102
RTVSPropertyOp3
 70
     1
102
RTVSPropertyOp4
 70
     1
102
RTVSPropertyOp5
 70
     1
102
RTVSPropertyOp6
 70
     1
102
RTVSPropertyOp7
 70
     1
102
RTVSPropertyOp8
 70
     1
102
RTVSPropertyOp9
 70
     1
102
RTVSPropertyOp10
 70
     1
102
RTVSPropertyOp11
 70
     1
102
RTVSPropertyOp12
 70
     1
102
RTVSPropertyOp13
 70
     1
102
RTVSPropertyOp14
 70
     1
102
RTVSPropertyOp15
 70
     1
102
RTVSPropertyOp16
 70
     1
102
RTVSPropertyOp17
 70
     1
102
RTVSPropertyOp18
 70
     1
102
RTVSPropertyOp19
 70
     1
102
RTVSPropertyOp20
 70
     1
102
RTVSPropertyOp21
 70
     1
102
RTVSPropertyOp22
 70
     1
102
RTVSPropertyOp23
 70
     1
102
RTVSPropertyOp24
 70
     1
102
RTVSPropertyOp25
 70
     1
102
RTVSPropertyOp26
 70
     1
102
RTVSPropertyOp27
 70
     1
102
RTVSPropertyOp28
 70
     1
102
RTVSPropertyOp29
 70
     1
102
RTVSPropertyOp30
 70
     1
102
RTVSPropertyOp31
 70
     1
102
RTVSPropertyOp32
 70
     1
  0
XRECORD
  5
153
102
{ACAD_REACTORS
330
152
102
}
330
152
100
AcDbXrecord
280
     1
102
RTVSPropertyOp0
 70
     1
102
RTVSPropertyOp1
 70
     1
102
RTVSPropertyOp2
 70
     1
102
RTVSPropertyOp3
 70
     1
102
RTVSPropertyOp4
 70
     1
102
RTVSPropertyOp5
 70
     1
102
RTVSPropertyOp6
 70
     1
102
RTVSPropertyOp7
 70
     1
102
RTVSPropertyOp8
 70
     1
102
RTVSPropertyOp9
 70
     1
102
RTVSPropertyOp10
 70
     1
102
RTVSPropertyOp11
 70
     1
102
RTVSPropertyOp12
 70
     1
102
RTVSPropertyOp13
 70
     1
102
RTVSPropertyOp14
 70
     1
102
RTVSPropertyOp15
 70
     1
102
RTVSPropertyOp16
 70
     1
102
RTVSPropertyOp17
 70
     1
102
RTVSPropertyOp18
 70
     1
102
RTVSPropertyOp19
 70
     1
102
RTVSPropertyOp20
 70
     1
102
RTVSPropertyOp21
 70
     1
102
RTVSPropertyOp22
 70
     1
102
RTVSPropertyOp23
 70
     1
102
RTVSPropertyOp24
 70
     1
102
RTVSPropertyOp25
 70
     1
102
RTVSPropertyOp26
 70
     1
102
RTVSPropertyOp27
 70
     1
102
RTVSPropertyOp28
 70
     1
102
RTVSPropertyOp29
 70
     1
102
RTVSPropertyOp30
 70
     1
102
RTVSPropertyOp31
 70
     1
102
RTVSPropertyOp32
 70
     1
  0
XRECORD
  5
147
102
{ACAD_REACTORS
330
146
102
}
330
146
100
AcDbXrecord
280
     1
102
RTVSPropertyOp0
 70
     1
102
RTVSPropertyOp1
 70
     1
102
RTVSPropertyOp2
 70
     1
102
RTVSPropertyOp3
 70
     1
102
RTVSPropertyOp4
 70
     1
102
RTVSPropertyOp5
 70
     1
102
RTVSPropertyOp6
 70
     1
102
RTVSPropertyOp7
 70
     1
102
RTVSPropertyOp8
 70
     1
102
RTVSPropertyOp9
 70
     1
102
RTVSPropertyOp10
 70
     1
102
RTVSPropertyOp11
 70
     1
102
RTVSPropertyOp12
 70
     1
102
RTVSPropertyOp13
 70
     1
102
RTVSPropertyOp14
 70
     1
102
RTVSPropertyOp15
 70
     1
102
RTVSPropertyOp16
 70
     1
102
RTVSPropertyOp17
 70
     1
102
RTVSPropertyOp18
 70
     1
102
RTVSPropertyOp19
 70
     1
102
RTVSPropertyOp20
 70
     1
102
RTVSPropertyOp21
 70
     1
102
RTVSPropertyOp22
 70
     1
102
RTVSPropertyOp23
 70
     1
102
RTVSPropertyOp24
 70
     1
102
RTVSPropertyOp25
 70
     1
102
RTVSPropertyOp26
 70
     1
102
RTVSPropertyOp27
 70
     1
102
RTVSPropertyOp28
 70
     1
102
RTVSPropertyOp29
 70
     1
102
RTVSPropertyOp30
 70
     1
102
RTVSPropertyOp31
 70
     1
102
RTVSPropertyOp32
 70
     1
  0
XRECORD
  5
149
102
{ACAD_REACTORS
330
148
102
}
330
148
100
AcDbXrecord
280
     1
102
RTVSPropertyOp0
 70
     1
102
RTVSPropertyOp1
 70
     1
102
RTVSPropertyOp2
 70
     1
102
RTVSPropertyOp3
 70
     1
102
RTVSPropertyOp4
 70
     1
102
RTVSPropertyOp5
 70
     1
102
RTVSPropertyOp6
 70
     1
102
RTVSPropertyOp7
 70
     1
102
RTVSPropertyOp8
 70
     1
102
RTVSPropertyOp9
 70
     1
102
RTVSPropertyOp10
 70
     1
102
RTVSPropertyOp11
 70
     1
102
RTVSPropertyOp12
 70
     1
102
RTVSPropertyOp13
 70
     1
102
RTVSPropertyOp14
 70
     1
102
RTVSPropertyOp15
 70
     1
102
RTVSPropertyOp16
 70
     1
102
RTVSPropertyOp17
 70
     1
102
RTVSPropertyOp18
 70
     1
102
RTVSPropertyOp19
 70
     1
102
RTVSPropertyOp20
 70
     1
102
RTVSPropertyOp21
 70
     1
102
RTVSPropertyOp22
 70
     1
102
RTVSPropertyOp23
 70
     1
102
RTVSPropertyOp24
 70
     1
102
RTVSPropertyOp25
 70
     1
102
RTVSPropertyOp26
 70
     1
102
RTVSPropertyOp27
 70
     1
102
RTVSPropertyOp28
 70
     1
102
RTVSPropertyOp29
 70
     1
102
RTVSPropertyOp30
 70
     1
102
RTVSPropertyOp31
 70
     1
102
RTVSPropertyOp32
 70
     1
  0
XRECORD
  5
163
102
{ACAD_REACTORS
330
162
102
}
330
162
100
AcDbXrecord
280
     1
102
RTVSPropertyOp0
 70
     0
102
RTVSPropertyOp1
 70
     0
102
RTVSPropertyOp2
 70
     0
102
RTVSPropertyOp3
 70
     0
102
RTVSPropertyOp4
 70
     0
102
RTVSPropertyOp5
 70
     0
102
RTVSPropertyOp6
 70
     0
102
RTVSPropertyOp7
 70
     0
102
RTVSPropertyOp8
 70
     0
102
RTVSPropertyOp9
 70
     0
102
RTVSPropertyOp10
 70
     0
102
RTVSPropertyOp11
 70
     0
102
RTVSPropertyOp12
 70
     0
102
RTVSPropertyOp13
 70
     0
102
RTVSPropertyOp14
 70
     2
102
RTVSPropertyOp15
 70
     0
102
RTVSPropertyOp16
 70
     0
102
RTVSPropertyOp17
 70
     0
102
RTVSPropertyOp18
 70
     0
102
RTVSPropertyOp19
 70
     0
102
RTVSPropertyOp20
 70
     0
102
RTVSPropertyOp21
 70
     0
102
RTVSPropertyOp22
 70
     0
102
RTVSPropertyOp23
 70
     0
102
RTVSPropertyOp24
 70
     0
102
RTVSPropertyOp25
 70
     0
102
RTVSPropertyOp26
 70
     0
102
RTVSPropertyOp27
 70
     0
102
RTVSPropertyOp28
 70
     0
102
RTVSPropertyOp29
 70
     0
102
RTVSPropertyOp30
 70
     0
102
RTVSPropertyOp31
 70
     0
102
RTVSPropertyOp32
 70
     0
  0
XRECORD
  5
151
102
{ACAD_REACTORS
330
150
102
}
330
150
100
AcDbXrecord
280
     1
102
RTVSPropertyOp0
 70
     1
102
RTVSPropertyOp1
 70
     1
102
RTVSPropertyOp2
 70
     1
102
RTVSPropertyOp3
 70
     1
102
RTVSPropertyOp4
 70
     1
102
RTVSPropertyOp5
 70
     1
102
RTVSPropertyOp6
 70
     1
102
RTVSPropertyOp7
 70
     1
102
RTVSPropertyOp8
 70
     1
102
RTVSPropertyOp9
 70
     1
102
RTVSPropertyOp10
 70
     1
102
RTVSPropertyOp11
 70
     1
102
RTVSPropertyOp12
 70
     1
102
RTVSPropertyOp13
 70
     1
102
RTVSPropertyOp14
 70
     1
102
RTVSPropertyOp15
 70
     1
102
RTVSPropertyOp16
 70
     1
102
RTVSPropertyOp17
 70
     1
102
RTVSPropertyOp18
 70
     1
102
RTVSPropertyOp19
 70
     1
102
RTVSPropertyOp20
 70
     1
102
RTVSPropertyOp21
 70
     1
102
RTVSPropertyOp22
 70
     1
102
RTVSPropertyOp23
 70
     1
102
RTVSPropertyOp24
 70
     1
102
RTVSPropertyOp25
 70
     1
102
RTVSPropertyOp26
 70
     1
102
RTVSPropertyOp27
 70
     1
102
RTVSPropertyOp28
 70
     1
102
RTVSPropertyOp29
 70
     1
102
RTVSPropertyOp30
 70
     1
102
RTVSPropertyOp31
 70
     1
102
RTVSPropertyOp32
 70
     1
  0
XRECORD
  5
13B
102
{ACAD_REACTORS
330
13A
102
}
330
13A
100
AcDbXrecord
280
     1
102
RTVSPropertyOp0
 70
     1
102
RTVSPropertyOp1
 70
     1
102
RTVSPropertyOp2
 70
     1
102
RTVSPropertyOp3
 70
     1
102
RTVSPropertyOp4
 70
     1
102
RTVSPropertyOp5
 70
     1
102
RTVSPropertyOp6
 70
     1
102
RTVSPropertyOp7
 70
     1
102
RTVSPropertyOp8
 70
     1
102
RTVSPropertyOp9
 70
     1
102
RTVSPropertyOp10
 70
     1
102
RTVSPropertyOp11
 70
     1
102
RTVSPropertyOp12
 70
     1
102
RTVSPropertyOp13
 70
     1
102
RTVSPropertyOp14
 70
     1
102
RTVSPropertyOp15
 70
     1
102
RTVSPropertyOp16
 70
     1
102
RTVSPropertyOp17
 70
     1
102
RTVSPropertyOp18
 70
     1
102
RTVSPropertyOp19
 70
     1
102
RTVSPropertyOp20
 70
     1
102
RTVSPropertyOp21
 70
     1
102
RTVSPropertyOp22
 70
     1
102
RTVSPropertyOp23
 70
     1
102
RTVSPropertyOp24
 70
     1
102
RTVSPropertyOp25
 70
     1
102
RTVSPropertyOp26
 70
     1
102
RTVSPropertyOp27
 70
     1
102
RTVSPropertyOp28
 70
     1
102
RTVSPropertyOp29
 70
     1
102
RTVSPropertyOp30
 70
     1
102
RTVSPropertyOp31
 70
     1
102
RTVSPropertyOp32
 70
     1
  0
XRECORD
  5
13D
102
{ACAD_REACTORS
330
13C
102
}
330
13C
100
AcDbXrecord
280
     1
102
RTVSPropertyOp0
 70
     1
102
RTVSPropertyOp1
 70
     1
102
RTVSPropertyOp2
 70
     1
102
RTVSPropertyOp3
 70
     1
102
RTVSPropertyOp4
 70
     1
102
RTVSPropertyOp5
 70
     1
102
RTVSPropertyOp6
 70
     1
102
RTVSPropertyOp7
 70
     1
102
RTVSPropertyOp8
 70
     1
102
RTVSPropertyOp9
 70
     1
102
RTVSPropertyOp10
 70
     1
102
RTVSPropertyOp11
 70
     1
102
RTVSPropertyOp12
 70
     1
102
RTVSPropertyOp13
 70
     1
102
RTVSPropertyOp14
 70
     1
102
RTVSPropertyOp15
 70
     1
102
RTVSPropertyOp16
 70
     1
102
RTVSPropertyOp17
 70
     1
102
RTVSPropertyOp18
 70
     1
102
RTVSPropertyOp19
 70
     1
102
RTVSPropertyOp20
 70
     1
102
RTVSPropertyOp21
 70
     1
102
RTVSPropertyOp22
 70
     1
102
RTVSPropertyOp23
 70
     1
102
RTVSPropertyOp24
 70
     1
102
RTVSPropertyOp25
 70
     1
102
RTVSPropertyOp26
 70
     1
102
RTVSPropertyOp27
 70
     1
102
RTVSPropertyOp28
 70
     1
102
RTVSPropertyOp29
 70
     1
102
RTVSPropertyOp30
 70
     1
102
RTVSPropertyOp31
 70
     1
102
RTVSPropertyOp32
 70
     1
  0
XRECORD
  5
13F
102
{ACAD_REACTORS
330
13E
102
}
330
13E
100
AcDbXrecord
280
     1
102
RTVSPropertyOp0
 70
     1
102
RTVSPropertyOp1
 70
     1
102
RTVSPropertyOp2
 70
     1
102
RTVSPropertyOp3
 70
     1
102
RTVSPropertyOp4
 70
     1
102
RTVSPropertyOp5
 70
     1
102
RTVSPropertyOp6
 70
     1
102
RTVSPropertyOp7
 70
     1
102
RTVSPropertyOp8
 70
     1
102
RTVSPropertyOp9
 70
     1
102
RTVSPropertyOp10
 70
     1
102
RTVSPropertyOp11
 70
     1
102
RTVSPropertyOp12
 70
     1
102
RTVSPropertyOp13
 70
     1
102
RTVSPropertyOp14
 70
     1
102
RTVSPropertyOp15
 70
     1
102
RTVSPropertyOp16
 70
     1
102
RTVSPropertyOp17
 70
     1
102
RTVSPropertyOp18
 70
     1
102
RTVSPropertyOp19
 70
     1
102
RTVSPropertyOp20
 70
     1
102
RTVSPropertyOp21
 70
     1
102
RTVSPropertyOp22
 70
     1
102
RTVSPropertyOp23
 70
     1
102
RTVSPropertyOp24
 70
     1
102
RTVSPropertyOp25
 70
     1
102
RTVSPropertyOp26
 70
     1
102
RTVSPropertyOp27
 70
     1
102
RTVSPropertyOp28
 70
     1
102
RTVSPropertyOp29
 70
     1
102
RTVSPropertyOp30
 70
     1
102
RTVSPropertyOp31
 70
     1
102
RTVSPropertyOp32
 70
     1
  0
XRECORD
  5
141
102
{ACAD_REACTORS
330
140
102
}
330
140
100
AcDbXrecord
280
     1
102
RTVSPropertyOp0
 70
     1
102
RTVSPropertyOp1
 70
     1
102
RTVSPropertyOp2
 70
     1
102
RTVSPropertyOp3
 70
     1
102
RTVSPropertyOp4
 70
     1
102
RTVSPropertyOp5
 70
     1
102
RTVSPropertyOp6
 70
     1
102
RTVSPropertyOp7
 70
     1
102
RTVSPropertyOp8
 70
     1
102
RTVSPropertyOp9
 70
     1
102
RTVSPropertyOp10
 70
     1
102
RTVSPropertyOp11
 70
     1
102
RTVSPropertyOp12
 70
     1
102
RTVSPropertyOp13
 70
     1
102
RTVSPropertyOp14
 70
     1
102
RTVSPropertyOp15
 70
     1
102
RTVSPropertyOp16
 70
     1
102
RTVSPropertyOp17
 70
     1
102
RTVSPropertyOp18
 70
     1
102
RTVSPropertyOp19
 70
     1
102
RTVSPropertyOp20
 70
     1
102
RTVSPropertyOp21
 70
     1
102
RTVSPropertyOp22
 70
     1
102
RTVSPropertyOp23
 70
     1
102
RTVSPropertyOp24
 70
     1
102
RTVSPropertyOp25
 70
     1
102
RTVSPropertyOp26
 70
     1
102
RTVSPropertyOp27
 70
     1
102
RTVSPropertyOp28
 70
     1
102
RTVSPropertyOp29
 70
     1
102
RTVSPropertyOp30
 70
     1
102
RTVSPropertyOp31
 70
     1
102
RTVSPropertyOp32
 70
     1
  0
XRECORD
  5
145
102
{ACAD_REACTORS
330
144
102
}
330
144
100
AcDbXrecord
280
     1
102
RTVSPropertyOp0
 70
     1
102
RTVSPropertyOp1
 70
     1
102
RTVSPropertyOp2
 70
     1
102
RTVSPropertyOp3
 70
     1
102
RTVSPropertyOp4
 70
     1
102
RTVSPropertyOp5
 70
     1
102
RTVSPropertyOp6
 70
     1
102
RTVSPropertyOp7
 70
     1
102
RTVSPropertyOp8
 70
     1
102
RTVSPropertyOp9
 70
     1
102
RTVSPropertyOp10
 70
     1
102
RTVSPropertyOp11
 70
     1
102
RTVSPropertyOp12
 70
     1
102
RTVSPropertyOp13
 70
     1
102
RTVSPropertyOp14
 70
     1
102
RTVSPropertyOp15
 70
     1
102
RTVSPropertyOp16
 70
     1
102
RTVSPropertyOp17
 70
     1
102
RTVSPropertyOp18
 70
     1
102
RTVSPropertyOp19
 70
     1
102
RTVSPropertyOp20
 70
     1
102
RTVSPropertyOp21
 70
     1
102
RTVSPropertyOp22
 70
     1
102
RTVSPropertyOp23
 70
     1
102
RTVSPropertyOp24
 70
     1
102
RTVSPropertyOp25
 70
     1
102
RTVSPropertyOp26
 70
     1
102
RTVSPropertyOp27
 70
     1
102
RTVSPropertyOp28
 70
     1
102
RTVSPropertyOp29
 70
     1
102
RTVSPropertyOp30
 70
     1
102
RTVSPropertyOp31
 70
     1
102
RTVSPropertyOp32
 70
     1
  0
XRECORD
  5
15F
102
{ACAD_REACTORS
330
15E
102
}
330
15E
100
AcDbXrecord
280
     1
102
RTVSPropertyOp0
 70
     0
102
RTVSPropertyOp1
 70
     0
102
RTVSPropertyOp2
 70
     0
102
RTVSPropertyOp3
 70
     0
102
RTVSPropertyOp4
 70
     0
102
RTVSPropertyOp5
 70
     0
102
RTVSPropertyOp6
 70
     0
102
RTVSPropertyOp7
 70
     0
102
RTVSPropertyOp8
 70
     0
102
RTVSPropertyOp9
 70
     0
102
RTVSPropertyOp10
 70
     0
102
RTVSPropertyOp11
 70
     0
102
RTVSPropertyOp12
 70
     0
102
RTVSPropertyOp13
 70
     0
102
RTVSPropertyOp14
 70
     2
102
RTVSPropertyOp15
 70
     0
102
RTVSPropertyOp16
 70
     0
102
RTVSPropertyOp17
 70
     0
102
RTVSPropertyOp18
 70
     0
102
RTVSPropertyOp19
 70
     0
102
RTVSPropertyOp20
 70
     0
102
RTVSPropertyOp21
 70
     0
102
RTVSPropertyOp22
 70
     0
102
RTVSPropertyOp23
 70
     0
102
RTVSPropertyOp24
 70
     0
102
RTVSPropertyOp25
 70
     0
102
RTVSPropertyOp26
 70
     0
102
RTVSPropertyOp27
 70
     0
102
RTVSPropertyOp28
 70
     0
102
RTVSPropertyOp29
 70
     0
102
RTVSPropertyOp30
 70
     0
102
RTVSPropertyOp31
 70
     0
102
RTVSPropertyOp32
 70
     0
  0
XRECORD
  5
14F
102
{ACAD_REACTORS
330
14E
102
}
330
14E
100
AcDbXrecord
280
     1
102
RTVSPropertyOp0
 70
     1
102
RTVSPropertyOp1
 70
     1
102
RTVSPropertyOp2
 70
     1
102
RTVSPropertyOp3
 70
     1
102
RTVSPropertyOp4
 70
     1
102
RTVSPropertyOp5
 70
     1
102
RTVSPropertyOp6
 70
     1
102
RTVSPropertyOp7
 70
     1
102
RTVSPropertyOp8
 70
     1
102
RTVSPropertyOp9
 70
     1
102
RTVSPropertyOp10
 70
     1
102
RTVSPropertyOp11
 70
     1
102
RTVSPropertyOp12
 70
     1
102
RTVSPropertyOp13
 70
     1
102
RTVSPropertyOp14
 70
     1
102
RTVSPropertyOp15
 70
     1
102
RTVSPropertyOp16
 70
     1
102
RTVSPropertyOp17
 70
     1
102
RTVSPropertyOp18
 70
     1
102
RTVSPropertyOp19
 70
     1
102
RTVSPropertyOp20
 70
     1
102
RTVSPropertyOp21
 70
     1
102
RTVSPropertyOp22
 70
     1
102
RTVSPropertyOp23
 70
     1
102
RTVSPropertyOp24
 70
     1
102
RTVSPropertyOp25
 70
     1
102
RTVSPropertyOp26
 70
     1
102
RTVSPropertyOp27
 70
     1
102
RTVSPropertyOp28
 70
     1
102
RTVSPropertyOp29
 70
     1
102
RTVSPropertyOp30
 70
     1
102
RTVSPropertyOp31
 70
     1
102
RTVSPropertyOp32
 70
     1
  0
XRECORD
  5
161
102
{ACAD_REACTORS
330
160
102
}
330
160
100
AcDbXrecord
280
     1
102
RTVSPropertyOp0
 70
     0
102
RTVSPropertyOp1
 70
     0
102
RTVSPropertyOp2
 70
     0
102
RTVSPropertyOp3
 70
     0
102
RTVSPropertyOp4
 70
     0
102
RTVSPropertyOp5
 70
     0
102
RTVSPropertyOp6
 70
     0
102
RTVSPropertyOp7
 70
     0
102
RTVSPropertyOp8
 70
     0
102
RTVSPropertyOp9
 70
     0
102
RTVSPropertyOp10
 70
     0
102
RTVSPropertyOp11
 70
     0
102
RTVSPropertyOp12
 70
     0
102
RTVSPropertyOp13
 70
     0
102
RTVSPropertyOp14
 70
     2
102
RTVSPropertyOp15
 70
     0
102
RTVSPropertyOp16
 70
     0
102
RTVSPropertyOp17
 70
     0
102
RTVSPropertyOp18
 70
     0
102
RTVSPropertyOp19
 70
     0
102
RTVSPropertyOp20
 70
     0
102
RTVSPropertyOp21
 70
     0
102
RTVSPropertyOp22
 70
     0
102
RTVSPropertyOp23
 70
     0
102
RTVSPropertyOp24
 70
     0
102
RTVSPropertyOp25
 70
     0
102
RTVSPropertyOp26
 70
     0
102
RTVSPropertyOp27
 70
     0
102
RTVSPropertyOp28
 70
     0
102
RTVSPropertyOp29
 70
     0
102
RTVSPropertyOp30
 70
     0
102
RTVSPropertyOp31
 70
     0
102
RTVSPropertyOp32
 70
     0
  0
XRECORD
  5
137
102
{ACAD_REACTORS
330
136
102
}
330
136
100
AcDbXrecord
280
     1
102
RTVSPropertyOp0
 70
     1
102
RTVSPropertyOp1
 70
     1
102
RTVSPropertyOp2
 70
     1
102
RTVSPropertyOp3
 70
     1
102
RTVSPropertyOp4
 70
     1
102
RTVSPropertyOp5
 70
     1
102
RTVSPropertyOp6
 70
     1
102
RTVSPropertyOp7
 70
     1
102
RTVSPropertyOp8
 70
     1
102
RTVSPropertyOp9
 70
     1
102
RTVSPropertyOp10
 70
     1
102
RTVSPropertyOp11
 70
     1
102
RTVSPropertyOp12
 70
     1
102
RTVSPropertyOp13
 70
     1
102
RTVSPropertyOp14
 70
     1
102
RTVSPropertyOp15
 70
     1
102
RTVSPropertyOp16
 70
     1
102
RTVSPropertyOp17
 70
     1
102
RTVSPropertyOp18
 70
     1
102
RTVSPropertyOp19
 70
     1
102
RTVSPropertyOp20
 70
     1
102
RTVSPropertyOp21
 70
     1
102
RTVSPropertyOp22
 70
     1
102
RTVSPropertyOp23
 70
     1
102
RTVSPropertyOp24
 70
     1
102
RTVSPropertyOp25
 70
     1
102
RTVSPropertyOp26
 70
     1
102
RTVSPropertyOp27
 70
     1
102
RTVSPropertyOp28
 70
     1
102
RTVSPropertyOp29
 70
     1
102
RTVSPropertyOp30
 70
     1
102
RTVSPropertyOp31
 70
     1
102
RTVSPropertyOp32
 70
     1
  0
XRECORD
  5
15D
102
{ACAD_REACTORS
330
15C
102
}
330
15C
100
AcDbXrecord
280
     1
102
RTVSPropertyOp0
 70
     1
102
RTVSPropertyOp1
 70
     1
102
RTVSPropertyOp2
 70
     1
102
RTVSPropertyOp3
 70
     1
102
RTVSPropertyOp4
 70
     1
102
RTVSPropertyOp5
 70
     1
102
RTVSPropertyOp6
 70
     1
102
RTVSPropertyOp7
 70
     1
102
RTVSPropertyOp8
 70
     1
102
RTVSPropertyOp9
 70
     1
102
RTVSPropertyOp10
 70
     1
102
RTVSPropertyOp11
 70
     1
102
RTVSPropertyOp12
 70
     1
102
RTVSPropertyOp13
 70
     1
102
RTVSPropertyOp14
 70
     1
102
RTVSPropertyOp15
 70
     1
102
RTVSPropertyOp16
 70
     1
102
RTVSPropertyOp17
 70
     1
102
RTVSPropertyOp18
 70
     1
102
RTVSPropertyOp19
 70
     1
102
RTVSPropertyOp20
 70
     1
102
RTVSPropertyOp21
 70
     1
102
RTVSPropertyOp22
 70
     1
102
RTVSPropertyOp23
 70
     1
102
RTVSPropertyOp24
 70
     1
102
RTVSPropertyOp25
 70
     1
102
RTVSPropertyOp26
 70
     1
102
RTVSPropertyOp27
 70
     1
102
RTVSPropertyOp28
 70
     1
102
RTVSPropertyOp29
 70
     1
102
RTVSPropertyOp30
 70
     1
102
RTVSPropertyOp31
 70
     1
102
RTVSPropertyOp32
 70
     1
  0
XRECORD
  5
15B
102
{ACAD_REACTORS
330
15A
102
}
330
15A
100
AcDbXrecord
280
     1
102
RTVSPropertyOp0
 70
     1
102
RTVSPropertyOp1
 70
     1
102
RTVSPropertyOp2
 70
     1
102
RTVSPropertyOp3
 70
     1
102
RTVSPropertyOp4
 70
     1
102
RTVSPropertyOp5
 70
     1
102
RTVSPropertyOp6
 70
     1
102
RTVSPropertyOp7
 70
     1
102
RTVSPropertyOp8
 70
     1
102
RTVSPropertyOp9
 70
     1
102
RTVSPropertyOp10
 70
     1
102
RTVSPropertyOp11
 70
     1
102
RTVSPropertyOp12
 70
     1
102
RTVSPropertyOp13
 70
     1
102
RTVSPropertyOp14
 70
     1
102
RTVSPropertyOp15
 70
     1
102
RTVSPropertyOp16
 70
     1
102
RTVSPropertyOp17
 70
     1
102
RTVSPropertyOp18
 70
     1
102
RTVSPropertyOp19
 70
     1
102
RTVSPropertyOp20
 70
     1
102
RTVSPropertyOp21
 70
     1
102
RTVSPropertyOp22
 70
     1
102
RTVSPropertyOp23
 70
     1
102
RTVSPropertyOp24
 70
     1
102
RTVSPropertyOp25
 70
     1
102
RTVSPropertyOp26
 70
     1
102
RTVSPropertyOp27
 70
     1
102
RTVSPropertyOp28
 70
     1
102
RTVSPropertyOp29
 70
     1
102
RTVSPropertyOp30
 70
     1
102
RTVSPropertyOp31
 70
     1
102
RTVSPropertyOp32
 70
     1
  0
XRECORD
  5
155
102
{ACAD_REACTORS
330
154
102
}
330
154
100
AcDbXrecord
280
     1
102
RTVSPropertyOp0
 70
     1
102
RTVSPropertyOp1
 70
     1
102
RTVSPropertyOp2
 70
     1
102
RTVSPropertyOp3
 70
     1
102
RTVSPropertyOp4
 70
     1
102
RTVSPropertyOp5
 70
     1
102
RTVSPropertyOp6
 70
     1
102
RTVSPropertyOp7
 70
     1
102
RTVSPropertyOp8
 70
     1
102
RTVSPropertyOp9
 70
     1
102
RTVSPropertyOp10
 70
     1
102
RTVSPropertyOp11
 70
     1
102
RTVSPropertyOp12
 70
     1
102
RTVSPropertyOp13
 70
     1
102
RTVSPropertyOp14
 70
     1
102
RTVSPropertyOp15
 70
     1
102
RTVSPropertyOp16
 70
     1
102
RTVSPropertyOp17
 70
     1
102
RTVSPropertyOp18
 70
     1
102
RTVSPropertyOp19
 70
     1
102
RTVSPropertyOp20
 70
     1
102
RTVSPropertyOp21
 70
     1
102
RTVSPropertyOp22
 70
     1
102
RTVSPropertyOp23
 70
     1
102
RTVSPropertyOp24
 70
     1
102
RTVSPropertyOp25
 70
     1
102
RTVSPropertyOp26
 70
     1
102
RTVSPropertyOp27
 70
     1
102
RTVSPropertyOp28
 70
     1
102
RTVSPropertyOp29
 70
     1
102
RTVSPropertyOp30
 70
     1
102
RTVSPropertyOp31
 70
     1
102
RTVSPropertyOp32
 70
     1
  0
XRECORD
  5
157
102
{ACAD_REACTORS
330
156
102
}
330
156
100
AcDbXrecord
280
     1
102
RTVSPropertyOp0
 70
     1
102
RTVSPropertyOp1
 70
     1
102
RTVSPropertyOp2
 70
     1
102
RTVSPropertyOp3
 70
     1
102
RTVSPropertyOp4
 70
     1
102
RTVSPropertyOp5
 70
     1
102
RTVSPropertyOp6
 70
     1
102
RTVSPropertyOp7
 70
     1
102
RTVSPropertyOp8
 70
     1
102
RTVSPropertyOp9
 70
     1
102
RTVSPropertyOp10
 70
     1
102
RTVSPropertyOp11
 70
     1
102
RTVSPropertyOp12
 70
     1
102
RTVSPropertyOp13
 70
     1
102
RTVSPropertyOp14
 70
     1
102
RTVSPropertyOp15
 70
     1
102
RTVSPropertyOp16
 70
     1
102
RTVSPropertyOp17
 70
     1
102
RTVSPropertyOp18
 70
     1
102
RTVSPropertyOp19
 70
     1
102
RTVSPropertyOp20
 70
     1
102
RTVSPropertyOp21
 70
     1
102
RTVSPropertyOp22
 70
     1
102
RTVSPropertyOp23
 70
     1
102
RTVSPropertyOp24
 70
     1
102
RTVSPropertyOp25
 70
     1
102
RTVSPropertyOp26
 70
     1
102
RTVSPropertyOp27
 70
     1
102
RTVSPropertyOp28
 70
     1
102
RTVSPropertyOp29
 70
     1
102
RTVSPropertyOp30
 70
     1
102
RTVSPropertyOp31
 70
     1
102
RTVSPropertyOp32
 70
     1
  0
XRECORD
  5
14D
102
{ACAD_REACTORS
330
14C
102
}
330
14C
100
AcDbXrecord
280
     1
102
RTVSPropertyOp0
 70
     1
102
RTVSPropertyOp1
 70
     1
102
RTVSPropertyOp2
 70
     1
102
RTVSPropertyOp3
 70
     1
102
RTVSPropertyOp4
 70
     1
102
RTVSPropertyOp5
 70
     1
102
RTVSPropertyOp6
 70
     1
102
RTVSPropertyOp7
 70
     1
102
RTVSPropertyOp8
 70
     1
102
RTVSPropertyOp9
 70
     1
102
RTVSPropertyOp10
 70
     1
102
RTVSPropertyOp11
 70
     1
102
RTVSPropertyOp12
 70
     1
102
RTVSPropertyOp13
 70
     1
102
RTVSPropertyOp14
 70
     1
102
RTVSPropertyOp15
 70
     1
102
RTVSPropertyOp16
 70
     1
102
RTVSPropertyOp17
 70
     1
102
RTVSPropertyOp18
 70
     1
102
RTVSPropertyOp19
 70
     1
102
RTVSPropertyOp20
 70
     1
102
RTVSPropertyOp21
 70
     1
102
RTVSPropertyOp22
 70
     1
102
RTVSPropertyOp23
 70
     1
102
RTVSPropertyOp24
 70
     1
102
RTVSPropertyOp25
 70
     1
102
RTVSPropertyOp26
 70
     1
102
RTVSPropertyOp27
 70
     1
102
RTVSPropertyOp28
 70
     1
102
RTVSPropertyOp29
 70
     1
102
RTVSPropertyOp30
 70
     1
102
RTVSPropertyOp31
 70
     1
102
RTVSPropertyOp32
 70
     1
  0
XRECORD
  5
139
102
{ACAD_REACTORS
330
138
102
}
330
138
100
AcDbXrecord
280
     1
102
RTVSPropertyOp0
 70
     1
102
RTVSPropertyOp1
 70
     1
102
RTVSPropertyOp2
 70
     1
102
RTVSPropertyOp3
 70
     1
102
RTVSPropertyOp4
 70
     1
102
RTVSPropertyOp5
 70
     1
102
RTVSPropertyOp6
 70
     1
102
RTVSPropertyOp7
 70
     1
102
RTVSPropertyOp8
 70
     1
102
RTVSPropertyOp9
 70
     1
102
RTVSPropertyOp10
 70
     1
102
RTVSPropertyOp11
 70
     1
102
RTVSPropertyOp12
 70
     1
102
RTVSPropertyOp13
 70
     1
102
RTVSPropertyOp14
 70
     1
102
RTVSPropertyOp15
 70
     1
102
RTVSPropertyOp16
 70
     1
102
RTVSPropertyOp17
 70
     1
102
RTVSPropertyOp18
 70
     1
102
RTVSPropertyOp19
 70
     1
102
RTVSPropertyOp20
 70
     1
102
RTVSPropertyOp21
 70
     1
102
RTVSPropertyOp22
 70
     1
102
RTVSPropertyOp23
 70
     1
102
RTVSPropertyOp24
 70
     1
102
RTVSPropertyOp25
 70
     1
102
RTVSPropertyOp26
 70
     1
102
RTVSPropertyOp27
 70
     1
102
RTVSPropertyOp28
 70
     1
102
RTVSPropertyOp29
 70
     1
102
RTVSPropertyOp30
 70
     1
102
RTVSPropertyOp31
 70
     1
102
RTVSPropertyOp32
 70
     1
  0
XRECORD
  5
159
102
{ACAD_REACTORS
330
158
102
}
330
158
100
AcDbXrecord
280
     1
102
RTVSPropertyOp0
 70
     1
102
RTVSPropertyOp1
 70
     1
102
RTVSPropertyOp2
 70
     1
102
RTVSPropertyOp3
 70
     1
102
RTVSPropertyOp4
 70
     1
102
RTVSPropertyOp5
 70
     1
102
RTVSPropertyOp6
 70
     1
102
RTVSPropertyOp7
 70
     1
102
RTVSPropertyOp8
 70
     1
102
RTVSPropertyOp9
 70
     1
102
RTVSPropertyOp10
 70
     1
102
RTVSPropertyOp11
 70
     1
102
RTVSPropertyOp12
 70
     1
102
RTVSPropertyOp13
 70
     1
102
RTVSPropertyOp14
 70
     1
102
RTVSPropertyOp15
 70
     1
102
RTVSPropertyOp16
 70
     1
102
RTVSPropertyOp17
 70
     1
102
RTVSPropertyOp18
 70
     1
102
RTVSPropertyOp19
 70
     1
102
RTVSPropertyOp20
 70
     1
102
RTVSPropertyOp21
 70
     1
102
RTVSPropertyOp22
 70
     1
102
RTVSPropertyOp23
 70
     1
102
RTVSPropertyOp24
 70
     1
102
RTVSPropertyOp25
 70
     1
102
RTVSPropertyOp26
 70
     1
102
RTVSPropertyOp27
 70
     1
102
RTVSPropertyOp28
 70
     1
102
RTVSPropertyOp29
 70
     1
102
RTVSPropertyOp30
 70
     1
102
RTVSPropertyOp31
 70
     1
102
RTVSPropertyOp32
 70
     1
  0
ENDSEC
  0
EOF
