  0
SECTION
  2
HEADER
  9
$ACADVER
  1
AC1015
  9
$ACADMAINTVER
 70
     6
  9
$DWGCODEPAGE
  3
ANSI_1252
  9
$INSBASE
 10
0.0
 20
0.0
 30
0.0
  9
$EXTMIN
 10
-14.15072481700921
 20
-0.041007142674936
 30
0.0
  9
$EXTMAX
 10
16.44342041537908
 20
22.83160759019131
 30
0.0
  9
$LIMMIN
 10
0.0
 20
0.0
  9
$LIMMAX
 10
26.6664
 20
34.99965
  9
$ORTHOMODE
 70
     0
  9
$REGENMODE
 70
     1
  9
$FILLMODE
 70
     1
  9
$QTEXTMODE
 70
     0
  9
$MIRRTEXT
 70
     0
  9
$LTSCALE
 40
0.75
  9
$ATTMODE
 70
     1
  9
$TEXTSIZE
 40
0.299997
  9
$TRACEWID
 40
0.05
  9
$TEXTSTYLE
  7
STANDARD
  9
$CLAYER
  8
0
  9
$CELTYPE
  6
BYLAYER
  9
$CECOLOR
 62
   256
  9
$CELTSCALE
 40
1.0
  9
$DISPSILH
 70
     0
  9
$DIMSCALE
 40
3.3333
  9
$DIMASZ
 40
0.125
  9
$DIMEXO
 40
0.062
  9
$DIMDLI
 40
0.375
  9
$DIMRND
 40
0.0
  9
$DIMDLE
 40
0.0
  9
$DIMEXE
 40
0.08
  9
$DIMTP
 40
0.0
  9
$DIMTM
 40
0.0
  9
$DIMTXT
 40
0.09
  9
$DIMCEN
 40
-0.03125
  9
$DIMTSZ
 40
0.0
  9
$DIMTOL
 70
     0
  9
$DIMLIM
 70
     0
  9
$DIMTIH
 70
     1
  9
$DIMTOH
 70
     1
  9
$DIMSE1
 70
     0
  9
$DIMSE2
 70
     0
  9
$DIMTAD
 70
     0
  9
$DIMZIN
 70
     0
  9
$DIMBLK
  1

  9
$DIMASO
 70
     1
  9
$DIMSHO
 70
     0
  9
$DIMPOST
  1

  9
$DIMAPOST
  1

  9
$DIMALT
 70
     0
  9
$DIMALTD
 70
     2
  9
$DIMALTF
 40
25.4
  9
$DIMLFAC
 40
1.0
  9
$DIMTOFL
 70
     0
  9
$DIMTVP
 40
0.0
  9
$DIMTIX
 70
     0
  9
$DIMSOXD
 70
     0
  9
$DIMSAH
 70
     0
  9
$DIMBLK1
  1

  9
$DIMBLK2
  1

  9
$DIMSTYLE
  2
STANDARD
  9
$DIMCLRD
 70
     0
  9
$DIMCLRE
 70
     0
  9
$DIMCLRT
 70
     0
  9
$DIMTFAC
 40
1.0
  9
$DIMGAP
 40
0.09375
  9
$DIMJUST
 70
     0
  9
$DIMSD1
 70
     0
  9
$DIMSD2
 70
     0
  9
$DIMTOLJ
 70
     1
  9
$DIMTZIN
 70
     0
  9
$DIMALTZ
 70
     0
  9
$DIMALTTZ
 70
     0
  9
$DIMUPT
 70
     0
  9
$DIMDEC
 70
     5
  9
$DIMTDEC
 70
     4
  9
$DIMALTU
 70
     2
  9
$DIMALTTD
 70
     2
  9
$DIMTXSTY
  7
STANDARD
  9
$DIMAUNIT
 70
     0
  9
$DIMADEC
 70
     0
  9
$DIMALTRND
 40
0.0
  9
$DIMAZIN
 70
     0
  9
$DIMDSEP
 70
    46
  9
$DIMATFIT
 70
     3
  9
$DIMFRAC
 70
     2
  9
$DIMLDRBLK
  1

  9
$DIMLUNIT
 70
     5
  9
$DIMLWD
 70
    -2
  9
$DIMLWE
 70
    -2
  9
$DIMTMOVE
 70
     2
  9
$LUNITS
 70
     5
  9
$LUPREC
 70
     5
  9
$SKETCHINC
 40
0.1
  9
$FILLETRAD
 40
0.0
  9
$AUNITS
 70
     0
  9
$AUPREC
 70
     0
  9
$MENU
  1
acad
  9
$ELEVATION
 40
0.0
  9
$PELEVATION
 40
0.0
  9
$THICKNESS
 40
0.0
  9
$LIMCHECK
 70
     0
  9
$CHAMFERA
 40
0.0
  9
$CHAMFERB
 40
0.0
  9
$CHAMFERC
 40
0.0
  9
$CHAMFERD
 40
0.0
  9
$SKPOLY
 70
     0
  9
$TDCREATE
 40
2450606.751266088
  9
$TDUCREATE
 40
2450607.084599421
  9
$TDUPDATE
 40
2454160.585254665
  9
$TDUUPDATE
 40
2454160.918587998
  9
$TDINDWG
 40
0.3881469792
  9
$TDUSRTIMER
 40
0.3881469792
  9
$USRTIMER
 70
     1
  9
$ANGBASE
 50
0.0
  9
$ANGDIR
 70
     0
  9
$PDMODE
 70
     0
  9
$PDSIZE
 40
0.0
  9
$PLINEWID
 40
0.0
  9
$SPLFRAME
 70
     0
  9
$SPLINETYPE
 70
     6
  9
$SPLINESEGS
 70
     8
  9
$HANDSEED
  5
154
  9
$SURFTAB1
 70
     6
  9
$SURFTAB2
 70
     6
  9
$SURFTYPE
 70
     6
  9
$SURFU
 70
     6
  9
$SURFV
 70
     6
  9
$UCSBASE
  2

  9
$UCSNAME
  2

  9
$UCSORG
 10
0.0
 20
0.0
 30
0.0
  9
$UCSXDIR
 10
1.0
 20
0.0
 30
0.0
  9
$UCSYDIR
 10
0.0
 20
1.0
 30
0.0
  9
$UCSORTHOREF
  2

  9
$UCSORTHOVIEW
 70
     0
  9
$UCSORGTOP
 10
0.0
 20
0.0
 30
0.0
  9
$UCSORGBOTTOM
 10
0.0
 20
0.0
 30
0.0
  9
$UCSORGLEFT
 10
0.0
 20
0.0
 30
0.0
  9
$UCSORGRIGHT
 10
0.0
 20
0.0
 30
0.0
  9
$UCSORGFRONT
 10
0.0
 20
0.0
 30
0.0
  9
$UCSORGBACK
 10
0.0
 20
0.0
 30
0.0
  9
$PUCSBASE
  2

  9
$PUCSNAME
  2

  9
$PUCSORG
 10
0.0
 20
0.0
 30
0.0
  9
$PUCSXDIR
 10
1.0
 20
0.0
 30
0.0
  9
$PUCSYDIR
 10
0.0
 20
1.0
 30
0.0
  9
$PUCSORTHOREF
  2

  9
$PUCSORTHOVIEW
 70
     0
  9
$PUCSORGTOP
 10
0.0
 20
0.0
 30
0.0
  9
$PUCSORGBOTTOM
 10
0.0
 20
0.0
 30
0.0
  9
$PUCSORGLEFT
 10
0.0
 20
0.0
 30
0.0
  9
$PUCSORGRIGHT
 10
0.0
 20
0.0
 30
0.0
  9
$PUCSORGFRONT
 10
0.0
 20
0.0
 30
0.0
  9
$PUCSORGBACK
 10
0.0
 20
0.0
 30
0.0
  9
$USERI1
 70
     0
  9
$USERI2
 70
     0
  9
$USERI3
 70
     0
  9
$USERI4
 70
     0
  9
$USERI5
 70
     0
  9
$USERR1
 40
0.0
  9
$USERR2
 40
0.0
  9
$USERR3
 40
0.0
  9
$USERR4
 40
0.0
  9
$USERR5
 40
0.0
  9
$WORLDVIEW
 70
     1
  9
$SHADEDGE
 70
     3
  9
$SHADEDIF
 70
    70
  9
$TILEMODE
 70
     1
  9
$MAXACTVP
 70
    16
  9
$PINSBASE
 10
0.0
 20
0.0
 30
0.0
  9
$PLIMCHECK
 70
     0
  9
$PEXTMIN
 10
1.000000000000000E+20
 20
1.000000000000000E+20
 30
1.000000000000000E+20
  9
$PEXTMAX
 10
-1.000000000000000E+20
 20
-1.000000000000000E+20
 30
-1.000000000000000E+20
  9
$PLIMMIN
 10
0.0
 20
0.0
  9
$PLIMMAX
 10
12.0
 20
9.0
  9
$UNITMODE
 70
     0
  9
$VISRETAIN
 70
     0
  9
$PLINEGEN
 70
     1
  9
$PSLTSCALE
 70
     0
  9
$TREEDEPTH
 70
  3020
  9
$CMLSTYLE
  2
ANGLE
  9
$CMLJUST
 70
     0
  9
$CMLSCALE
 40
1.0
  9
$PROXYGRAPHICS
 70
     1
  9
$MEASUREMENT
 70
     0
  9
$CELWEIGHT
370
    -1
  9
$ENDCAPS
280
     0
  9
$JOINSTYLE
280
     0
  9
$LWDISPLAY
290
     0
  9
$INSUNITS
 70
     0
  9
$HYPERLINKBASE
  1

  9
$STYLESHEET
  1

  9
$XEDIT
290
     1
  9
$CEPSNTYPE
380
     0
  9
$PSTYLEMODE
290
     1
  9
$FINGERPRINTGUID
  2
{A5FB6520-BD1F-45B7-BEDC-890591FE2320}
  9
$VERSIONGUID
  2
{46A13037-736B-4851-A472-9EF8AE3413E1}
  9
$EXTNAMES
290
     1
  9
$PSVPSCALE
 40
0.0
  9
$OLESTARTUP
290
     0
  0
ENDSEC
  0
SECTION
  2
CLASSES
  0
CLASS
  1
DICTIONARYVAR
  2
AcDbDictionaryVar
  3
AutoCAD 2000
 90
        0
280
     0
281
     0
  0
CLASS
  1
LWPOLYLINE
  2
AcDbPolyline
  3
AutoCAD 2000
 90
        0
280
     0
281
     1
  0
CLASS
  1
IDBUFFER
  2
AcDbIdBuffer
  3
AutoCAD 2000
 90
        0
280
     0
281
     0
  0
CLASS
  1
ACDBDICTIONARYWDFLT
  2
AcDbDictionaryWithDefault
  3
AutoCAD 2000
 90
        0
280
     0
281
     0
  0
CLASS
  1
ACDBPLACEHOLDER
  2
AcDbPlaceHolder
  3
ObjectDBX Classes
 90
        0
280
     0
281
     0
  0
CLASS
  1
LAYOUT
  2
AcDbLayout
  3
ObjectDBX Classes
 90
        0
280
     0
281
     0
  0
CLASS
  1
TABLESTYLE
  2
AcDbTableStyle
  3
ObjectDBX Classes
 90
     2047
280
     1
281
     0
  0
CLASS
  1
SORTENTSTABLE
  2
AcDbSortentsTable
  3
AutoCAD 2000
 90
        0
280
     0
281
     0
  0
ENDSEC
  0
SECTION
  2
TABLES
  0
TABLE
  2
VPORT
  5
19
330
0
100
AcDbSymbolTable
 70
     2
  0
VPORT
  5
146
330
19
100
AcDbSymbolTableRecord
100
AcDbViewportTableRecord
  2
*Active
 70
     0
 10
0.0
 20
0.0
 11
1.0
 21
1.0
 12
6.257789093698268
 22
20.01421021988046
 13
0.0
 23
0.0
 14
0.063
 24
0.063
 15
0.25
 25
0.25
 16
0.0
 26
0.0
 36
1.0
 17
0.0
 27
0.0
 37
0.0
 40
40.67799387074478
 41
1.55012853470437
 42
50.0
 43
0.0
 44
0.0
 50
0.0
 51
0.0
 71
     0
 72
   100
 73
     1
 74
     0
 75
     0
 76
     0
 77
     0
 78
     0
281
     0
 65
     1
110
0.0
120
0.0
130
0.0
111
1.0
121
0.0
131
0.0
112
0.0
122
1.0
132
0.0
 79
     0
146
0.0
  0
ENDTAB
  0
TABLE
  2
LTYPE
  5
14
330
0
100
AcDbSymbolTable
 70
     1
  0
LTYPE
  5
15
330
14
100
AcDbSymbolTableRecord
100
AcDbLinetypeTableRecord
  2
BYBLOCK
 70
     0
  3

 72
    65
 73
     0
 40
0.0
  0
LTYPE
  5
16
330
14
100
AcDbSymbolTableRecord
100
AcDbLinetypeTableRecord
  2
BYLAYER
 70
     0
  3

 72
    65
 73
     0
 40
0.0
  0
LTYPE
  5
8
330
14
100
AcDbSymbolTableRecord
100
AcDbLinetypeTableRecord
  2
CONTINUOUS
 70
     0
  3
Solid line
 72
    65
 73
     0
 40
0.0
  0
ENDTAB
  0
TABLE
  2
LAYER
  5
10
102
{ACAD_XDICTIONARY
360
133
102
}
330
0
100
AcDbSymbolTable
 70
     1
  0
LAYER
  5
4
330
10
100
AcDbSymbolTableRecord
100
AcDbLayerTableRecord
  2
0
 70
     0
 62
     7
  6
CONTINUOUS
370
    -3
390
5
  0
ENDTAB
  0
TABLE
  2
STYLE
  5
11
330
0
100
AcDbSymbolTable
 70
     1
  0
STYLE
  5
12
330
11
100
AcDbSymbolTableRecord
100
AcDbTextStyleTableRecord
  2
STANDARD
 70
     0
 40
0.0
 41
1.0
 50
0.0
 71
     0
 42
0.299997
  3
TXT
  4

  0
ENDTAB
  0
TABLE
  2
VIEW
  5
17
330
0
100
AcDbSymbolTable
 70
     0
  0
ENDTAB
  0
TABLE
  2
UCS
  5
18
330
0
100
AcDbSymbolTable
 70
     0
  0
ENDTAB
  0
TABLE
  2
APPID
  5
1B
330
0
100
AcDbSymbolTable
 70
     1
  0
APPID
  5
1C
330
1B
100
AcDbSymbolTableRecord
100
AcDbRegAppTableRecord
  2
ACAD
 70
     0
  0
ENDTAB
  0
TABLE
  2
DIMSTYLE
  5
1D
330
0
100
AcDbSymbolTable
 70
     1
100
AcDbDimStyleTable
  0
DIMSTYLE
105
24
330
1D
100
AcDbSymbolTableRecord
100
AcDbDimStyleTableRecord
  2
STANDARD
 70
     0
  3

  4

340
12
  0
ENDTAB
  0
TABLE
  2
BLOCK_RECORD
  5
1
330
0
100
AcDbSymbolTable
 70
     0
  0
BLOCK_RECORD
  5
2
102
{ACAD_XDICTIONARY
360
C0
102
}
330
1
100
AcDbSymbolTableRecord
100
AcDbBlockTableRecord
  2
*MODEL_SPACE
340
A
  0
BLOCK_RECORD
  5
C
330
1
100
AcDbSymbolTableRecord
100
AcDbBlockTableRecord
  2
*PAPER_SPACE
340
F
  0
ENDTAB
  0
ENDSEC
  0
SECTION
  2
BLOCKS
  0
BLOCK
  5
3
330
2
100
AcDbEntity
  8
0
100
AcDbBlockBegin
  2
*MODEL_SPACE
 70
     0
 10
0.0
 20
0.0
 30
0.0
  3
*MODEL_SPACE
  1

  4

  0
ENDBLK
  5
9
330
2
100
AcDbEntity
  8
0
100
AcDbBlockEnd
  0
BLOCK
  5
D
330
C
100
AcDbEntity
 67
     1
  8
0
100
AcDbBlockBegin
  2
*PAPER_SPACE
 70
     0
 10
0.0
 20
0.0
 30
0.0
  3
*PAPER_SPACE
  1

  4

  0
ENDBLK
  5
E
330
C
100
AcDbEntity
 67
     1
  8
0
100
AcDbBlockEnd
  0
ENDSEC
  0
SECTION
  2
ENTITIES
  0
CIRCLE
  5
C5
330
2
100
AcDbEntity
  8
0
100
AcDbCircle
 10
-2.190451692161487
 20
8.591627531057679
 30
0.0
 40
0.0859375
  0
LINE
  5
C6
330
2
100
AcDbEntity
  8
0
100
AcDbLine
 10
1.850053978855746
 20
0.846143536795207
 30
0.0
 11
3.755250000000004
 21
13.87134039389678
 31
0.0
  0
LINE
  5
C7
330
2
100
AcDbEntity
  8
0
100
AcDbLine
 10
1.75525
 20
0.1980000000000004
 30
0.0
 11
1.755249999999993
 21
13.16212054509956
 31
0.0
  0
LINE
  5
C8
330
2
100
AcDbEntity
  8
0
100
AcDbLine
 10
-1.75525
 20
0.1980000000000004
 30
0.0
 11
-1.755250000000004
 21
11.91726240549826
 31
0.0
  0
LINE
  5
C9
330
2
100
AcDbEntity
  8
0
100
AcDbLine
 10
1.65625
 20
0.1980000000000004
 30
0.0
 11
1.656249999999995
 21
12.099
 31
0.0
  0
LINE
  5
CA
330
2
100
AcDbEntity
  8
0
100
AcDbLine
 10
-1.65625
 20
0.1980000000000004
 30
0.0
 11
-1.656250000000004
 21
11.95236878801372
 31
0.0
  0
LINE
  5
CB
330
2
100
AcDbEntity
  8
0
100
AcDbLine
 10
-1.827099895441115
 20
0.846143536795207
 30
0.0
 11
-3.005250000000004
 21
11.474
 31
0.0
  0
LINE
  5
CC
330
2
100
AcDbEntity
  8
0
100
AcDbLine
 10
-1.55725
 20
0.0
 30
0.0
 11
1.55725
 21
0.0
 31
0.0
  0
LINE
  5
CD
330
2
100
AcDbEntity
  8
0
100
AcDbLine
 10
-1.55725
 20
0.0990000000000002
 30
0.0
 11
1.55725
 21
0.0990000000000002
 31
0.0
  0
ARC
  5
CE
330
2
100
AcDbEntity
  8
0
100
AcDbCircle
 10
-1.55725
 20
0.1980000000000004
 30
0.0
 40
0.198
100
AcDbArc
 50
180.0
 51
270.0
  0
ARC
  5
CF
330
2
100
AcDbEntity
  8
0
100
AcDbCircle
 10
-1.55725
 20
0.1980000000000004
 30
0.0
 40
0.099
100
AcDbArc
 50
180.0
 51
270.0
  0
LINE
  5
D0
330
2
100
AcDbEntity
  8
0
100
AcDbLine
 10
-1.827099895441116
 20
0.846143536795207
 30
0.0
 11
-1.75525
 21
0.846143536795207
 31
0.0
  0
ARC
  5
D1
330
2
100
AcDbEntity
  8
0
100
AcDbCircle
 10
1.55725
 20
0.1980000000000004
 30
0.0
 40
0.198
100
AcDbArc
 50
270.0
 51
0.0000000000000254
  0
ARC
  5
D2
330
2
100
AcDbEntity
  8
0
100
AcDbCircle
 10
1.55725
 20
0.1980000000000004
 30
0.0
 40
0.099
100
AcDbArc
 50
270.0
 51
0.0000000000000254
  0
LINE
  5
D3
330
2
100
AcDbEntity
  8
0
100
AcDbLine
 10
1.850053978855748
 20
0.846143536795207
 30
0.0
 11
1.75525
 21
0.846143536795207
 31
0.0
  0
LINE
  5
D4
330
2
100
AcDbEntity
  8
0
100
AcDbLine
 10
-3.005250000000004
 20
11.474
 30
0.0
 11
-1.160178659881296
 21
12.12828060842953
 31
0.0
  0
CIRCLE
  5
D5
330
2
100
AcDbEntity
  8
0
100
AcDbCircle
 10
-2.345648696768086
 20
9.591627531057679
 30
0.0
 40
0.0859375
  0
CIRCLE
  5
D6
330
2
100
AcDbEntity
  8
0
100
AcDbCircle
 10
-2.477329206597435
 20
10.46662753105768
 30
0.0
 40
0.0859375
  0
LINE
  5
D7
330
2
100
AcDbEntity
  8
0
100
AcDbLine
 10
-1.160178659881296
 20
12.12828060842953
 30
0.0
 11
-1.160178659881296
 21
12.00554997718264
 31
0.0
  0
LINE
  5
D8
330
2
100
AcDbEntity
  8
0
100
AcDbLine
 10
-1.656250000000005
 20
11.82963815676683
 30
0.0
 11
-1.160178659881296
 21
12.00554997718264
 31
0.0
  0
LINE
  5
D9
330
2
100
AcDbEntity
  8
0
100
AcDbLine
 10
-1.755250000000004
 20
11.47400000000001
 30
0.0
 11
-1.656250000000003
 21
11.47400000000001
 31
0.0
  0
CIRCLE
  5
DA
330
2
100
AcDbEntity
  8
0
100
AcDbCircle
 10
3.046768417026208
 20
11.03085725211272
 30
0.0
 40
0.0859375
  0
LINE
  5
DB
330
2
100
AcDbEntity
  8
0
100
AcDbLine
 10
1.755249999999991
 20
13.16212054509956
 30
0.0
 11
4.350321340118709
 21
14.08235859682804
 31
0.0
  0
LINE
  5
DC
330
2
100
AcDbEntity
  8
0
100
AcDbLine
 10
1.656249999999996
 20
11.474
 30
0.0
 11
1.755249999999993
 21
11.474
 31
0.0
  0
LINE
  5
DD
330
2
100
AcDbEntity
  8
0
100
AcDbLine
 10
1.656250000000004
 20
12.099
 30
0.0
 11
1.755250000000004
 21
12.099
 31
0.0
  0
LINE
  5
DE
330
2
100
AcDbEntity
  8
0
100
AcDbLine
 10
1.755250000000004
 20
12.198
 30
0.0
 11
1.755250000000004
 21
12.099
 31
0.0
  0
CIRCLE
  5
DF
330
2
100
AcDbEntity
  8
0
100
AcDbCircle
 10
3.201965421632806
 20
12.03085725211272
 30
0.0
 40
0.0859375
  0
CIRCLE
  5
E0
330
2
100
AcDbEntity
  8
0
100
AcDbCircle
 10
3.333645931462156
 20
12.90585725211272
 30
0.0
 40
0.0859375
  0
LINE
  5
E1
330
2
100
AcDbEntity
  8
0
100
AcDbLine
 10
3.736316107674655
 20
13.74189561652382
 30
0.0
 11
4.350321340118709
 21
13.95962796558116
 31
0.0
  0
LINE
  5
E2
330
2
100
AcDbEntity
  8
0
100
AcDbLine
 10
4.350321340118711
 20
14.08235859682804
 30
0.0
 11
4.350321340118709
 21
13.95962796558116
 31
0.0
  0
LINE
  5
E3
330
2
100
AcDbEntity
  8
0
100
AcDbLine
 10
-1.75525
 20
20.23260759019131
 30
0.0
 11
-3.755250000000002
 21
20.23260759019131
 31
0.0
  0
LINE
  5
E4
330
2
100
AcDbEntity
  8
0
100
AcDbLine
 10
-1.160178659881296
 20
22.83160759019131
 30
0.0
 11
-3.160178659881295
 21
22.83160759019131
 31
0.0
  0
LINE
  5
E5
330
2
100
AcDbEntity
  8
0
100
AcDbLine
 10
-3.755250000000002
 20
20.23260759019131
 30
0.0
 11
-3.160178659881295
 21
22.83160759019131
 31
0.0
  0
CIRCLE
  5
E6
330
2
100
AcDbEntity
  8
0
100
AcDbCircle
 10
-2.88562710809703
 20
22.47216112576399
 30
0.0
 40
0.0855
  0
LINE
  5
E7
330
2
100
AcDbEntity
  8
0
100
AcDbLine
 10
1.656249999999993
 20
18.23260759019131
 30
0.0
 11
1.656249999999993
 21
20.13360759019131
 31
0.0
  0
LINE
  5
E8
330
2
100
AcDbEntity
  8
0
100
AcDbLine
 10
1.75524999999999
 20
18.23260759019131
 30
0.0
 11
1.75524999999999
 21
20.13360759019131
 31
0.0
  0
LINE
  5
E9
330
2
100
AcDbEntity
  8
0
100
AcDbLine
 10
-1.656250000000004
 20
18.23260759019131
 30
0.0
 11
-1.656250000000002
 21
20.13360759019131
 31
0.0
  0
LINE
  5
EA
330
2
100
AcDbEntity
  8
0
100
AcDbLine
 10
-1.755250000000004
 20
18.23260759019131
 30
0.0
 11
-1.755250000000002
 21
20.13360759019131
 31
0.0
  0
LINE
  5
EB
330
2
100
AcDbEntity
  8
0
100
AcDbLine
 10
1.75524999999999
 20
18.23260759019131
 30
0.0
 11
-1.755250000000004
 21
18.23260759019131
 31
0.0
  0
LINE
  5
EC
330
2
100
AcDbEntity
  8
0
100
AcDbLine
 10
1.682776970050686
 20
20.23260759019131
 30
0.0
 11
-1.682776970050682
 21
20.23260759019131
 31
0.0
  0
CIRCLE
  5
ED
330
2
100
AcDbEntity
  8
0
100
AcDbCircle
 10
-1.632178687341256
 20
22.34716112576399
 30
0.0
 40
0.0855
  0
LINE
  5
EE
330
2
100
AcDbEntity
  8
0
100
AcDbLine
 10
-1.75525
 20
20.23260759019131
 30
0.0
 11
-1.160178659881296
 21
22.83160759019131
 31
0.0
  0
ARC
  5
EF
330
2
100
AcDbEntity
  8
0
100
AcDbCircle
 10
-1.854250000000002
 20
20.13360759019131
 30
0.0
 40
0.198
100
AcDbArc
 50
359.9999999999999
 51
59.99999999999968
  0
ARC
  5
F0
330
2
100
AcDbEntity
  8
0
100
AcDbCircle
 10
-1.854250000000002
 20
20.13360759019131
 30
0.0
 40
0.099
100
AcDbArc
 50
359.9999999999999
 51
90.0
  0
CIRCLE
  5
F1
330
2
100
AcDbEntity
  8
0
100
AcDbCircle
 10
2.659052327669787
 20
22.34716112576399
 30
0.0
 40
0.0855
  0
LINE
  5
F2
330
2
100
AcDbEntity
  8
0
100
AcDbLine
 10
3.755250000000004
 20
20.23260759019131
 30
0.0
 11
4.350321340118711
 21
22.83160759019131
 31
0.0
  0
LINE
  5
F3
330
2
100
AcDbEntity
  8
0
100
AcDbLine
 10
1.755250000000002
 20
20.23260759019131
 30
0.0
 11
2.350321340118711
 21
22.83160759019131
 31
0.0
  0
LINE
  5
F4
330
2
100
AcDbEntity
  8
0
100
AcDbLine
 10
1.755250000000002
 20
20.23260759019131
 30
0.0
 11
3.755250000000004
 21
20.23260759019131
 31
0.0
  0
ARC
  5
F5
330
2
100
AcDbEntity
  8
0
100
AcDbCircle
 10
1.854250000000004
 20
20.13360759019131
 30
0.0
 40
0.099
100
AcDbArc
 50
90.0
 51
180.0000000000001
  0
ARC
  5
F6
330
2
100
AcDbEntity
  8
0
100
AcDbCircle
 10
1.854250000000004
 20
20.13360759019131
 30
0.0
 40
0.198
100
AcDbArc
 50
120.0000000000003
 51
180.0000000000001
  0
LINE
  5
F7
330
2
100
AcDbEntity
  8
0
100
AcDbLine
 10
2.350321340118711
 20
22.83160759019131
 30
0.0
 11
4.350321340118711
 21
22.83160759019131
 31
0.0
  0
CIRCLE
  5
F8
330
2
100
AcDbEntity
  8
0
100
AcDbCircle
 10
3.855245657121333
 20
22.47216112576399
 30
0.0
 40
0.0855
  0
LINE
  5
F9
330
2
100
AcDbEntity
  8
0
100
AcDbLine
 10
13.94342041537908
 20
0.846143536795207
 30
0.0
 11
13.94342041537908
 21
13.86457261357655
 31
0.0
  0
LINE
  5
FA
330
2
100
AcDbEntity
  8
0
100
AcDbLine
 10
11.84442041537908
 20
0.0990000000000002
 30
0.0
 11
13.09442041537908
 21
11.47400000000001
 31
0.0
  0
LINE
  5
FB
330
2
100
AcDbEntity
  8
0
100
AcDbLine
 10
13.84442041537908
 20
0.0
 30
0.0
 11
13.84442041537908
 21
13.86457261357655
 31
0.0
  0
CIRCLE
  5
FC
330
2
100
AcDbEntity
  8
0
100
AcDbCircle
 10
12.55493825334267
 20
3.099230093237889
 30
0.0
 40
0.078125
  0
LINE
  5
FD
330
2
100
AcDbEntity
  8
0
100
AcDbLine
 10
11.84801049899671
 20
0.0002300932378887
 30
0.0
 11
13.84801049899671
 21
0.0002300932378887
 31
0.0
  0
LINE
  5
FE
330
2
100
AcDbEntity
  8
0
100
AcDbLine
 10
11.84442041537908
 20
0.0
 30
0.0
 11
13.84442041537908
 21
0.0
 31
0.0
  0
LINE
  5
FF
330
2
100
AcDbEntity
  8
0
100
AcDbLine
 10
11.84801049899671
 20
0.0992300932378889
 30
0.0
 11
11.84801049899671
 21
0.0002300932378887
 31
0.0
  0
CIRCLE
  5
100
330
2
100
AcDbEntity
  8
0
100
AcDbCircle
 10
12.44504814345256
 20
2.099230093237889
 30
0.0
 40
0.078125
  0
LINE
  5
101
330
2
100
AcDbEntity
  8
0
100
AcDbLine
 10
13.84801049899671
 20
0.846143536795207
 30
0.0
 11
13.94701049899671
 21
0.846143536795207
 31
0.0
  0
ARC
  5
106
330
2
100
AcDbEntity
  8
0
100
AcDbCircle
 10
14.04242041537908
 20
13.86457261357655
 30
0.0
 40
0.198
100
AcDbArc
 50
90.0
 51
180.0
  0
LINE
  5
107
330
2
100
AcDbEntity
  8
0
100
AcDbLine
 10
16.440741323358
 20
11.37414787690907
 30
0.0
 11
13.9442433443341
 21
11.37414787690907
 31
0.0
  0
LINE
  5
108
330
2
100
AcDbEntity
  8
0
100
AcDbLine
 10
16.44342041537908
 20
13.04239801207701
 30
0.0
 11
13.94529832518555
 21
13.04239801207701
 31
0.0
  0
ARC
  5
109
330
2
100
AcDbEntity
  8
0
100
AcDbCircle
 10
14.04242041537908
 20
13.86457261357655
 30
0.0
 40
0.099
100
AcDbArc
 50
90.0
 51
180.0
  0
ARC
  5
10A
330
2
100
AcDbEntity
  8
0
100
AcDbCircle
 10
14.04242041537908
 20
12.0
 30
0.0
 40
0.198
100
AcDbArc
 50
90.0
 51
119.9999999999987
  0
ARC
  5
10B
330
2
100
AcDbEntity
  8
0
100
AcDbCircle
 10
14.04242041537908
 20
12.0
 30
0.0
 40
0.099
100
AcDbArc
 50
90.0
 51
180.0
  0
LINE
  5
10C
330
2
100
AcDbEntity
  8
0
100
AcDbLine
 10
13.84442041537908
 20
12.0
 30
0.0
 11
13.09442041537908
 21
11.47400000000001
 31
0.0
  0
ARC
  5
10D
330
2
100
AcDbEntity
  8
0
100
AcDbCircle
 10
14.04242041537908
 20
12.0
 30
0.0
 40
0.198
100
AcDbArc
 50
178.3387439066559
 51
180.0
  0
LINE
  5
10E
330
2
100
AcDbEntity
  8
0
100
AcDbLine
 10
14.04242041537908
 20
13.96357261357654
 30
0.0
 11
16.44342041537908
 21
13.96357261357655
 31
0.0
  0
LINE
  5
10F
330
2
100
AcDbEntity
  8
0
100
AcDbLine
 10
14.04242041537908
 20
14.06257261357655
 30
0.0
 11
16.44342041537908
 21
14.06257261357655
 31
0.0
  0
LINE
  5
110
330
2
100
AcDbEntity
  8
0
100
AcDbLine
 10
14.04242041537908
 20
12.198
 30
0.0
 11
16.44342041537908
 21
12.198
 31
0.0
  0
LINE
  5
111
330
2
100
AcDbEntity
  8
0
100
AcDbLine
 10
14.04242041537908
 20
12.099
 30
0.0
 11
16.44342041537908
 21
12.099
 31
0.0
  0
LINE
  5
112
330
2
100
AcDbEntity
  8
0
100
AcDbLine
 10
16.44342041537908
 20
12.099
 30
0.0
 11
16.44342041537908
 21
11.36275627614814
 31
0.0
  0
LINE
  5
113
330
2
100
AcDbEntity
  8
0
100
AcDbLine
 10
16.44342041537908
 20
12.099
 30
0.0
 11
16.44342041537908
 21
12.198
 31
0.0
  0
LINE
  5
114
330
2
100
AcDbEntity
  8
0
100
AcDbLine
 10
16.44342041537908
 20
13.96357261357655
 30
0.0
 11
16.44342041537908
 21
13.04239801207701
 31
0.0
  0
LINE
  5
115
330
2
100
AcDbEntity
  8
0
100
AcDbLine
 10
16.44342041537908
 20
13.96357261357655
 30
0.0
 11
16.44342041537908
 21
14.06257261357655
 31
0.0
  0
LINE
  5
116
330
2
100
AcDbEntity
  8
0
100
AcDbLine
 10
-11.55172481700921
 20
0.0
 30
0.0
 11
-11.5517248170092
 21
13.86457261357655
 31
0.0
  0
LINE
  5
117
330
2
100
AcDbEntity
  8
0
100
AcDbLine
 10
-9.551724817009209
 20
0.0990000000000002
 30
0.0
 11
-10.8017248170092
 21
11.47400000000001
 31
0.0
  0
LINE
  5
118
330
2
100
AcDbEntity
  8
0
100
AcDbLine
 10
-11.65072481700921
 20
0.846143536795207
 30
0.0
 11
-11.65072481700921
 21
13.86457261357655
 31
0.0
  0
CIRCLE
  5
119
330
2
100
AcDbEntity
  8
0
100
AcDbCircle
 10
-10.31718770991785
 20
3.599230093237889
 30
0.0
 40
0.078125
  0
LINE
  5
11A
330
2
100
AcDbEntity
  8
0
100
AcDbLine
 10
-9.551724817009209
 20
0.0
 30
0.0
 11
-11.55172481700921
 21
0.0
 31
0.0
  0
LINE
  5
11B
330
2
100
AcDbEntity
  8
0
100
AcDbLine
 10
-9.555314900626833
 20
0.0002300932378887
 30
0.0
 11
-11.55531490062683
 21
0.0002300932378887
 31
0.0
  0
LINE
  5
11C
330
2
100
AcDbEntity
  8
0
100
AcDbLine
 10
-11.55531490062683
 20
0.846143536795207
 30
0.0
 11
-11.65431490062683
 21
0.846143536795207
 31
0.0
  0
LINE
  5
11D
330
2
100
AcDbEntity
  8
0
100
AcDbLine
 10
-9.555314900626833
 20
0.0992300932378889
 30
0.0
 11
-9.555314900626833
 21
0.0002300932378887
 31
0.0
  0
CIRCLE
  5
11E
330
2
100
AcDbEntity
  8
0
100
AcDbCircle
 10
-10.20729760002774
 20
2.599230093237889
 30
0.0
 40
0.078125
  0
ARC
  5
123
330
2
100
AcDbEntity
  8
0
100
AcDbCircle
 10
-11.74972481700921
 20
13.86457261357655
 30
0.0
 40
0.198
100
AcDbArc
 50
0.000000000000007
 51
90.0
  0
LINE
  5
124
330
2
100
AcDbEntity
  8
0
100
AcDbLine
 10
-11.5517248170092
 20
12.0
 30
0.0
 11
-10.8017248170092
 21
11.47400000000001
 31
0.0
  0
LINE
  5
125
330
2
100
AcDbEntity
  8
0
100
AcDbLine
 10
-11.74972481700921
 20
12.099
 30
0.0
 11
-14.15072481700921
 21
12.099
 31
0.0
  0
LINE
  5
126
330
2
100
AcDbEntity
  8
0
100
AcDbLine
 10
-11.74972481700921
 20
12.198
 30
0.0
 11
-14.15072481700921
 21
12.198
 31
0.0
  0
LINE
  5
127
330
2
100
AcDbEntity
  8
0
100
AcDbLine
 10
-11.74972481700921
 20
14.06257261357655
 30
0.0
 11
-14.15072481700921
 21
14.06257261357655
 31
0.0
  0
LINE
  5
128
330
2
100
AcDbEntity
  8
0
100
AcDbLine
 10
-11.74972481700921
 20
13.96357261357654
 30
0.0
 11
-14.15072481700921
 21
13.96357261357655
 31
0.0
  0
LINE
  5
129
330
2
100
AcDbEntity
  8
0
100
AcDbLine
 10
-14.15072481700921
 20
13.04239801207701
 30
0.0
 11
-11.65260272681567
 21
13.04239801207701
 31
0.0
  0
LINE
  5
12A
330
2
100
AcDbEntity
  8
0
100
AcDbLine
 10
-14.14804572498812
 20
11.37414787690907
 30
0.0
 11
-11.65154774596422
 21
11.37414787690907
 31
0.0
  0
LINE
  5
12B
330
2
100
AcDbEntity
  8
0
100
AcDbLine
 10
-14.15072481700921
 20
12.099
 30
0.0
 11
-14.15072481700921
 21
11.36275627614814
 31
0.0
  0
LINE
  5
12C
330
2
100
AcDbEntity
  8
0
100
AcDbLine
 10
-14.15072481700921
 20
12.099
 30
0.0
 11
-14.15072481700921
 21
12.198
 31
0.0
  0
LINE
  5
12D
330
2
100
AcDbEntity
  8
0
100
AcDbLine
 10
-14.15072481700921
 20
13.96357261357655
 30
0.0
 11
-14.15072481700921
 21
13.04239801207701
 31
0.0
  0
LINE
  5
12E
330
2
100
AcDbEntity
  8
0
100
AcDbLine
 10
-14.15072481700921
 20
13.96357261357655
 30
0.0
 11
-14.15072481700921
 21
14.06257261357655
 31
0.0
  0
ARC
  5
12F
330
2
100
AcDbEntity
  8
0
100
AcDbCircle
 10
-11.74972481700921
 20
12.0
 30
0.0
 40
0.099
100
AcDbArc
 50
0.000000000000007
 51
90.0
  0
ARC
  5
130
330
2
100
AcDbEntity
  8
0
100
AcDbCircle
 10
-11.74972481700921
 20
12.0
 30
0.0
 40
0.198
100
AcDbArc
 50
0.000000000000007
 51
1.661256093344074
  0
ARC
  5
131
330
2
100
AcDbEntity
  8
0
100
AcDbCircle
 10
-11.74972481700921
 20
12.0
 30
0.0
 40
0.198
100
AcDbArc
 50
60.00000000000128
 51
90.0
  0
ARC
  5
132
330
2
100
AcDbEntity
  8
0
100
AcDbCircle
 10
-11.74972481700921
 20
13.86457261357655
 30
0.0
 40
0.099
100
AcDbArc
 50
0.000000000000007
 51
90.0
  0
ENDSEC
  0
SECTION
  2
OBJECTS
  0
DICTIONARY
  5
7
330
0
100
AcDbDictionary
281
     1
  3
ACAD_COLOR
350
BA
  3
ACAD_GROUP
350
1F
  3
ACAD_LAYOUT
350
B
  3
ACAD_MATERIAL
350
B9
  3
ACAD_MLINESTYLE
350
20
  3
ACAD_PLOTSETTINGS
350
21
  3
ACAD_PLOTSTYLENAME
350
6
  3
ACAD_TABLESTYLE
350
BB
  3
ACDBHEADERROUNDTRIPXREC
350
14D
  3
AcDbVariableDictionary
350
B5
  0
DICTIONARY
  5
133
330
10
100
AcDbDictionary
280
     1
281
     1
  3
ACAD_LAYERFILTERS
360
135
  3
ACLYDICTIONARY
360
134
  0
DICTIONARY
  5
C0
330
2
100
AcDbDictionary
280
     1
281
     1
  3
ACAD_SORTENTS
360
C1
  0
DICTIONARY
  5
BA
102
{ACAD_REACTORS
330
7
102
}
330
7
100
AcDbDictionary
281
     1
  0
DICTIONARY
  5
1F
102
{ACAD_REACTORS
330
7
102
}
330
7
100
AcDbDictionary
281
     1
  0
DICTIONARY
  5
B
102
{ACAD_REACTORS
330
7
102
}
330
7
100
AcDbDictionary
281
     1
  3
Layout1
350
F
  3
Model
350
A
  0
DICTIONARY
  5
B9
102
{ACAD_REACTORS
330
7
102
}
330
7
100
AcDbDictionary
281
     1
  0
DICTIONARY
  5
20
102
{ACAD_REACTORS
330
7
102
}
330
7
100
AcDbDictionary
281
     1
  3
ANGLE
350
23
  3
STANDARD
350
25
  0
DICTIONARY
  5
21
102
{ACAD_REACTORS
330
7
102
}
330
7
100
AcDbDictionary
281
     1
  0
ACDBDICTIONARYWDFLT
  5
6
102
{ACAD_REACTORS
330
7
102
}
330
7
100
AcDbDictionary
281
     1
  3
Normal
350
5
100
AcDbDictionaryWithDefault
340
5
  0
DICTIONARY
  5
BB
102
{ACAD_REACTORS
330
7
102
}
330
7
100
AcDbDictionary
281
     1
  3
Standard
350
BC
  0
DICTIONARY
  5
14D
102
{ACAD_REACTORS
330
7
102
}
330
7
100
AcDbDictionary
281
     1
  3
COLORDICT
350
14E
  3
MATERIALDICT
350
14F
  0
DICTIONARY
  5
B5
102
{ACAD_REACTORS
330
7
102
}
330
7
100
AcDbDictionary
281
     1
  3
CTABLESTYLE
350
13D
  3
HIDETEXT
350
14C
  0
DICTIONARY
  5
135
102
{ACAD_REACTORS
330
133
102
}
330
133
100
AcDbDictionary
281
     1
  0
DICTIONARY
  5
134
102
{ACAD_REACTORS
330
133
102
}
330
133
100
AcDbDictionary
281
     1
1001
ACAD
1000
<All
  0
SORTENTSTABLE
  5
C1
102
{ACAD_REACTORS
330
C0
102
}
330
C0
100
AcDbSortentsTable
330
2
331
111
  5
FA
331
E8
  5
104
331
112
  5
FB
331
108
  5
F1
331
11C
  5
CB
331
FE
  5
E7
331
E0
  5
130
331
E2
  5
132
331
F0
  5
10C
331
109
  5
F2
331
F1
  5
10D
331
F9
  5
E2
331
106
  5
EF
331
F5
  5
111
331
CE
  5
11E
331
124
  5
D3
331
C8
  5
118
331
D3
  5
123
331
12F
  5
DE
331
E4
  5
100
331
EE
  5
10A
331
EF
  5
10B
331
CD
  5
11D
331
10A
  5
F3
331
100
  5
E9
331
FC
  5
E5
331
FF
  5
E8
331
126
  5
D5
331
117
  5
C6
331
D7
  5
127
331
C9
  5
119
331
DB
  5
12B
331
129
  5
D8
331
127
  5
D6
331
12C
  5
DB
331
D5
  5
125
331
D4
  5
124
331
E5
  5
101
331
C5
  5
115
331
D9
  5
129
331
110
  5
F9
331
D1
  5
121
331
10B
  5
F4
331
114
  5
FD
331
11E
  5
CD
331
ED
  5
109
331
101
  5
EA
331
D2
  5
122
331
10D
  5
F6
331
107
  5
F0
331
F4
  5
110
331
DC
  5
12C
331
10F
  5
F8
331
C6
  5
116
331
116
  5
C5
331
12B
  5
DA
331
EB
  5
107
331
EC
  5
108
331
CF
  5
11F
331
130
  5
DF
331
E1
  5
131
331
E9
  5
105
331
E7
  5
103
331
FA
  5
E3
331
DE
  5
12E
331
D0
  5
120
331
CA
  5
11A
331
12A
  5
D9
331
D6
  5
126
331
113
  5
FC
331
125
  5
D4
331
F3
  5
10F
331
118
  5
C7
331
119
  5
C8
331
12D
  5
DC
331
11D
  5
CC
331
123
  5
D2
331
E6
  5
102
331
D8
  5
128
331
F7
  5
113
331
CC
  5
11C
331
FD
  5
E6
331
DA
  5
12A
331
10E
  5
F7
331
C7
  5
117
331
F8
  5
114
331
CB
  5
11B
331
DF
  5
12F
331
10C
  5
F5
331
FB
  5
E4
331
11B
  5
CA
331
E3
  5
FF
331
DD
  5
12D
331
EA
  5
106
331
12E
  5
DD
331
F6
  5
112
331
128
  5
D7
331
132
  5
E1
331
115
  5
FE
331
131
  5
E0
331
11A
  5
C9
331
F2
  5
10E
  0
LAYOUT
  5
F
102
{ACAD_REACTORS
330
B
102
}
102
{ACAD_XDICTIONARY
360
150
102
}
330
B
100
AcDbPlotSettings
  1

  2
X:\Program Files\AutoCAD2002\plotters\DWF ePlot (optimized for plotting).pc3
  4

  6

 40
0.0
 41
0.0
 42
0.0
 43
0.0
 44
0.0
 45
0.0
 46
0.0
 47
0.0
 48
0.0
 49
0.0
140
0.0
141
0.0
142
1.0
143
1.0
 70
   688
 72
     0
 73
     0
 74
     5
  7

 75
    16
147
1.0
148
0.0
149
0.0
100
AcDbLayout
  1
Layout1
 70
     0
 71
     1
 10
0.0
 20
0.0
 11
12.0
 21
9.0
 12
0.0
 22
0.0
 32
0.0
 14
1.000000000000000E+20
 24
1.000000000000000E+20
 34
1.000000000000000E+20
 15
-1.000000000000000E+20
 25
-1.000000000000000E+20
 35
-1.000000000000000E+20
146
0.0
 13
0.0
 23
0.0
 33
0.0
 16
1.0
 26
0.0
 36
0.0
 17
0.0
 27
1.0
 37
0.0
 76
     0
330
C
  0
LAYOUT
  5
A
102
{ACAD_REACTORS
330
B
102
}
102
{ACAD_XDICTIONARY
360
152
102
}
330
B
100
AcDbPlotSettings
  1

  2
X:\Program Files\AutoCAD2002\plotters\DWF ePlot (optimized for plotting).pc3
  4

  6

 40
0.0
 41
0.0
 42
0.0
 43
0.0
 44
0.0
 45
0.0
 46
0.0
 47
0.0
 48
0.0
 49
0.0
140
0.0
141
0.0
142
1.0
143
1.0
 70
  1712
 72
     0
 73
     0
 74
     0
  7

 75
     0
147
1.0
148
0.0
149
0.0
100
AcDbLayout
  1
Model
 70
     1
 71
     0
 10
0.0
 20
0.0
 11
12.0
 21
9.0
 12
0.0
 22
0.0
 32
0.0
 14
0.0
 24
0.0
 34
0.0
 15
0.0
 25
0.0
 35
0.0
146
0.0
 13
0.0
 23
0.0
 33
0.0
 16
1.0
 26
0.0
 36
0.0
 17
0.0
 27
1.0
 37
0.0
 76
     0
330
2
  0
MLINESTYLE
  5
23
102
{ACAD_REACTORS
330
20
102
}
330
20
100
AcDbMlineStyle
  2
ANGLE
 70
     0
  3

 62
   256
 51
35.0
 52
35.0
 71
     2
 49
0.5
 62
   256
  6
BYLAYER
 49
-0.5
 62
   256
  6
BYLAYER
  0
MLINESTYLE
  5
25
102
{ACAD_REACTORS
330
20
102
}
330
20
100
AcDbMlineStyle
  2
STANDARD
 70
     0
  3

 62
   256
 51
90.0
 52
90.0
 71
     2
 49
0.5
 62
   256
  6
BYLAYER
 49
-0.5
 62
   256
  6
BYLAYER
  0
ACDBPLACEHOLDER
  5
5
102
{ACAD_REACTORS
330
6
102
}
330
6
  0
ACAD_PROXY_OBJECT
  5
BC
102
{ACAD_REACTORS
330
BB
102
}
330
BB
100
AcDbProxyObject
 90
      499
 91
      506
 95
   983063
 70
     0
 93
     1841
310
4214DD185B99185C9928B81E85EB51B8AE3F2E07A17AD46E2B8FC02B5E8DC0F42B1CFD028000000C1008070000C3001FDFF8000000C1003FBFF000000182007F7FE00000030400FEFFC00000060801FDFF8000000C1003FBFF00000018200000000000000681FA0B0000001820100E000186003FBFF000000182007F7FE000
310
00030400FEFFC00000060801FDFF8000000C1003FBFF000000182007F7FE000000304000AD7A3703D0AC73F4160000003040201C00030C007F7FE00000030400FEFFC00000060801FDFF8000000C1003FBFF000000182007F7FE00000030400FEFFC000000608000
340
12
340
12
340
12
 94
        0
  0
XRECORD
  5
14E
102
{ACAD_REACTORS
330
14D
102
}
330
14D
100
AcDbXrecord
340
BA
  0
XRECORD
  5
14F
102
{ACAD_REACTORS
330
14D
102
}
330
14D
100
AcDbXrecord
340
B9
  0
DICTIONARYVAR
  5
13D
102
{ACAD_REACTORS
330
B5
102
}
330
B5
100
DictionaryVariables
280
     0
  1
STANDARD
  0
DICTIONARYVAR
  5
14C
102
{ACAD_REACTORS
330
B5
102
}
330
B5
100
DictionaryVariables
280
     0
  1
1
  0
DICTIONARY
  5
150
330
F
100
AcDbDictionary
280
     1
281
     1
  3
ACAD_XREC_ROUNDTRIP
360
151
  0
DICTIONARY
  5
152
330
A
100
AcDbDictionary
280
     1
281
     1
  3
ACAD_XREC_ROUNDTRIP
360
153
  0
XRECORD
  5
151
102
{ACAD_REACTORS
330
150
102
}
330
150
100
AcDbXrecord
102
SHADEPLOT
 70
     0
102
SHADEPLOTRESLEVEL
 70
     2
102
SHADEPLOTCUSTOMDPI
 70
   300
  0
XRECORD
  5
153
102
{ACAD_REACTORS
330
152
102
}
330
152
100
AcDbXrecord
102
SHADEPLOT
 70
     0
102
SHADEPLOTRESLEVEL
 70
     2
102
SHADEPLOTCUSTOMDPI
 70
   300
  0
ENDSEC
  0
EOF
