  0
SECTION
  2
HEADER
  9
$ACADVER
  1
AC1015
  9
$ACADMAINTVER
 70
     6
  9
$DWGCODEPAGE
  3
ANSI_1252
  9
$INSBASE
 10
0.0
 20
0.0
 30
0.0
  9
$EXTMIN
 10
-14.88560443855061
 20
-0.0289949493661232
 30
0.0
  9
$EXTMAX
 10
14.88560443855062
 20
19.62741064490752
 30
0.0
  9
$LIMMIN
 10
0.0
 20
0.0
  9
$LIMMAX
 10
26.6664
 20
34.99965
  9
$ORTHOMODE
 70
     1
  9
$REGENMODE
 70
     1
  9
$FILLMODE
 70
     1
  9
$QTEXTMODE
 70
     0
  9
$MIRRTEXT
 70
     0
  9
$LTSCALE
 40
1.0
  9
$ATTMODE
 70
     1
  9
$TEXTSIZE
 40
0.299997
  9
$TRACEWID
 40
0.05
  9
$TEXTSTYLE
  7
STANDARD
  9
$CLAYER
  8
0
  9
$CELTYPE
  6
ByLayer
  9
$CECOLOR
 62
   256
  9
$CELTSCALE
 40
1.0
  9
$DISPSILH
 70
     0
  9
$DIMSCALE
 40
3.3333
  9
$DIMASZ
 40
0.125
  9
$DIMEXO
 40
0.062
  9
$DIMDLI
 40
0.375
  9
$DIMRND
 40
0.0
  9
$DIMDLE
 40
0.0
  9
$DIMEXE
 40
0.08
  9
$DIMTP
 40
0.0
  9
$DIMTM
 40
0.0
  9
$DIMTXT
 40
0.09
  9
$DIMCEN
 40
-0.03125
  9
$DIMTSZ
 40
0.0
  9
$DIMTOL
 70
     0
  9
$DIMLIM
 70
     0
  9
$DIMTIH
 70
     1
  9
$DIMTOH
 70
     1
  9
$DIMSE1
 70
     0
  9
$DIMSE2
 70
     0
  9
$DIMTAD
 70
     0
  9
$DIMZIN
 70
     0
  9
$DIMBLK
  1

  9
$DIMASO
 70
     0
  9
$DIMSHO
 70
     0
  9
$DIMPOST
  1

  9
$DIMAPOST
  1

  9
$DIMALT
 70
     0
  9
$DIMALTD
 70
     2
  9
$DIMALTF
 40
25.4
  9
$DIMLFAC
 40
1.0
  9
$DIMTOFL
 70
     0
  9
$DIMTVP
 40
0.0
  9
$DIMTIX
 70
     0
  9
$DIMSOXD
 70
     0
  9
$DIMSAH
 70
     0
  9
$DIMBLK1
  1

  9
$DIMBLK2
  1

  9
$DIMSTYLE
  2
Standard
  9
$DIMCLRD
 70
     0
  9
$DIMCLRE
 70
     0
  9
$DIMCLRT
 70
     0
  9
$DIMTFAC
 40
1.0
  9
$DIMGAP
 40
0.09
  9
$DIMJUST
 70
     0
  9
$DIMSD1
 70
     0
  9
$DIMSD2
 70
     0
  9
$DIMTOLJ
 70
     1
  9
$DIMTZIN
 70
     0
  9
$DIMALTZ
 70
     0
  9
$DIMALTTZ
 70
     0
  9
$DIMUPT
 70
     0
  9
$DIMDEC
 70
     5
  9
$DIMTDEC
 70
     5
  9
$DIMALTU
 70
     2
  9
$DIMALTTD
 70
     2
  9
$DIMTXSTY
  7
STANDARD
  9
$DIMAUNIT
 70
     0
  9
$DIMADEC
 70
     0
  9
$DIMALTRND
 40
0.0
  9
$DIMAZIN
 70
     0
  9
$DIMDSEP
 70
    46
  9
$DIMATFIT
 70
     3
  9
$DIMFRAC
 70
     2
  9
$DIMLDRBLK
  1

  9
$DIMLUNIT
 70
     5
  9
$DIMLWD
 70
    -2
  9
$DIMLWE
 70
    -2
  9
$DIMTMOVE
 70
     2
  9
$LUNITS
 70
     2
  9
$LUPREC
 70
     4
  9
$SKETCHINC
 40
0.1
  9
$FILLETRAD
 40
0.0
  9
$AUNITS
 70
     0
  9
$AUPREC
 70
     0
  9
$MENU
  1
acad
  9
$ELEVATION
 40
0.0
  9
$PELEVATION
 40
0.0
  9
$THICKNESS
 40
0.0
  9
$LIMCHECK
 70
     0
  9
$CHAMFERA
 40
0.0
  9
$CHAMFERB
 40
0.0
  9
$CHAMFERC
 40
0.0
  9
$CHAMFERD
 40
0.0
  9
$SKPOLY
 70
     0
  9
$TDCREATE
 40
2450606.846187731
  9
$TDUCREATE
 40
2450607.179521065
  9
$TDUPDATE
 40
2454495.931266343
  9
$TDUUPDATE
 40
2454496.264599676
  9
$TDINDWG
 40
0.4023554282
  9
$TDUSRTIMER
 40
0.4023554282
  9
$USRTIMER
 70
     1
  9
$ANGBASE
 50
0.0
  9
$ANGDIR
 70
     0
  9
$PDMODE
 70
     0
  9
$PDSIZE
 40
0.0
  9
$PLINEWID
 40
0.0
  9
$SPLFRAME
 70
     0
  9
$SPLINETYPE
 70
     6
  9
$SPLINESEGS
 70
     8
  9
$HANDSEED
  5
2082
  9
$SURFTAB1
 70
     6
  9
$SURFTAB2
 70
     6
  9
$SURFTYPE
 70
     6
  9
$SURFU
 70
     6
  9
$SURFV
 70
     6
  9
$UCSBASE
  2

  9
$UCSNAME
  2

  9
$UCSORG
 10
0.0
 20
0.0
 30
0.0
  9
$UCSXDIR
 10
1.0
 20
0.0
 30
0.0
  9
$UCSYDIR
 10
0.0
 20
1.0
 30
0.0
  9
$UCSORTHOREF
  2

  9
$UCSORTHOVIEW
 70
     0
  9
$UCSORGTOP
 10
0.0
 20
0.0
 30
0.0
  9
$UCSORGBOTTOM
 10
0.0
 20
0.0
 30
0.0
  9
$UCSORGLEFT
 10
0.0
 20
0.0
 30
0.0
  9
$UCSORGRIGHT
 10
0.0
 20
0.0
 30
0.0
  9
$UCSORGFRONT
 10
0.0
 20
0.0
 30
0.0
  9
$UCSORGBACK
 10
0.0
 20
0.0
 30
0.0
  9
$PUCSBASE
  2

  9
$PUCSNAME
  2

  9
$PUCSORG
 10
0.0
 20
0.0
 30
0.0
  9
$PUCSXDIR
 10
1.0
 20
0.0
 30
0.0
  9
$PUCSYDIR
 10
0.0
 20
1.0
 30
0.0
  9
$PUCSORTHOREF
  2

  9
$PUCSORTHOVIEW
 70
     0
  9
$PUCSORGTOP
 10
0.0
 20
0.0
 30
0.0
  9
$PUCSORGBOTTOM
 10
0.0
 20
0.0
 30
0.0
  9
$PUCSORGLEFT
 10
0.0
 20
0.0
 30
0.0
  9
$PUCSORGRIGHT
 10
0.0
 20
0.0
 30
0.0
  9
$PUCSORGFRONT
 10
0.0
 20
0.0
 30
0.0
  9
$PUCSORGBACK
 10
0.0
 20
0.0
 30
0.0
  9
$USERI1
 70
     0
  9
$USERI2
 70
     0
  9
$USERI3
 70
     0
  9
$USERI4
 70
     0
  9
$USERI5
 70
     0
  9
$USERR1
 40
0.0
  9
$USERR2
 40
0.0
  9
$USERR3
 40
0.0
  9
$USERR4
 40
0.0
  9
$USERR5
 40
0.0
  9
$WORLDVIEW
 70
     1
  9
$SHADEDGE
 70
     3
  9
$SHADEDIF
 70
    70
  9
$TILEMODE
 70
     1
  9
$MAXACTVP
 70
    16
  9
$PINSBASE
 10
0.0
 20
0.0
 30
0.0
  9
$PLIMCHECK
 70
     0
  9
$PEXTMIN
 10
1.000000000000000E+20
 20
1.000000000000000E+20
 30
1.000000000000000E+20
  9
$PEXTMAX
 10
-1.000000000000000E+20
 20
-1.000000000000000E+20
 30
-1.000000000000000E+20
  9
$PLIMMIN
 10
0.0
 20
0.0
  9
$PLIMMAX
 10
12.0
 20
9.0
  9
$UNITMODE
 70
     0
  9
$VISRETAIN
 70
     0
  9
$PLINEGEN
 70
     1
  9
$PSLTSCALE
 70
     0
  9
$TREEDEPTH
 70
  3020
  9
$CMLSTYLE
  2
Standard
  9
$CMLJUST
 70
     0
  9
$CMLSCALE
 40
1.0
  9
$PROXYGRAPHICS
 70
     1
  9
$MEASUREMENT
 70
     0
  9
$CELWEIGHT
370
    -1
  9
$ENDCAPS
280
     0
  9
$JOINSTYLE
280
     0
  9
$LWDISPLAY
290
     0
  9
$INSUNITS
 70
     0
  9
$HYPERLINKBASE
  1

  9
$STYLESHEET
  1
monochrome.ctb
  9
$XEDIT
290
     1
  9
$CEPSNTYPE
380
     0
  9
$PSTYLEMODE
290
     1
  9
$FINGERPRINTGUID
  2
{3ADB8775-CCC7-496E-BAAD-1186F1B407E7}
  9
$VERSIONGUID
  2
{CD3F14E7-291A-4AC0-9764-2A7942F4CF07}
  9
$EXTNAMES
290
     1
  9
$PSVPSCALE
 40
0.0
  9
$OLESTARTUP
290
     0
  0
ENDSEC
  0
SECTION
  2
CLASSES
  0
CLASS
  1
ACDBDICTIONARYWDFLT
  2
AcDbDictionaryWithDefault
  3
AutoCAD 2000
 90
        0
280
     0
281
     0
  0
CLASS
  1
ACDBPLACEHOLDER
  2
AcDbPlaceHolder
  3
ObjectDBX Classes
 90
        0
280
     0
281
     0
  0
CLASS
  1
LAYOUT
  2
AcDbLayout
  3
ObjectDBX Classes
 90
        0
280
     0
281
     0
  0
CLASS
  1
LONG_TRANSACTION
  2
AcDbLongTransaction
  3
ObjectDBX Classes
 90
   -65536
280
     1
281
     0
  0
CLASS
  1
LWPOLYLINE
  2
AcDbPolyline
  3
AutoCAD 2000
 90
        0
280
     0
281
     1
  0
CLASS
  1
HATCH
  2
AcDbHatch
  3
AutoCAD 2000
 90
        0
280
     0
281
     1
  0
CLASS
  1
XRECORD
  2
AcDbXrecord
  3
AutoCAD 2000
 90
        0
280
     0
281
     0
  0
CLASS
  1
LONG_TRANSACTION
  2
AcDbLongTransaction
  3
ObjectDBX Classes
 90
   -65536
280
     1
281
     0
  0
CLASS
  1
LWPOLYLINE
  2
AcDbPolyline
  3
AutoCAD 2000
 90
        0
280
     0
281
     1
  0
CLASS
  1
HATCH
  2
AcDbHatch
  3
AutoCAD 2000
 90
        0
280
     0
281
     1
  0
CLASS
  1
XRECORD
  2
AcDbXrecord
  3
AutoCAD 2000
 90
        0
280
     0
281
     0
  0
CLASS
  1
LONG_TRANSACTION
  2
AcDbLongTransaction
  3
ObjectDBX Classes
 90
   -65536
280
     1
281
     0
  0
CLASS
  1
LWPOLYLINE
  2
AcDbPolyline
  3
AutoCAD 2000
 90
        0
280
     0
281
     1
  0
CLASS
  1
HATCH
  2
AcDbHatch
  3
AutoCAD 2000
 90
        0
280
     0
281
     1
  0
CLASS
  1
XRECORD
  2
AcDbXrecord
  3
AutoCAD 2000
 90
        0
280
     0
281
     0
  0
CLASS
  1
LONG_TRANSACTION
  2
AcDbLongTransaction
  3
ObjectDBX Classes
 90
   -65536
280
     1
281
     0
  0
CLASS
  1
LWPOLYLINE
  2
AcDbPolyline
  3
AutoCAD 2000
 90
        0
280
     0
281
     1
  0
CLASS
  1
HATCH
  2
AcDbHatch
  3
AutoCAD 2000
 90
        0
280
     0
281
     1
  0
CLASS
  1
XRECORD
  2
AcDbXrecord
  3
AutoCAD 2000
 90
        0
280
     0
281
     0
  0
CLASS
  1
LONG_TRANSACTION
  2
AcDbLongTransaction
  3
ObjectDBX Classes
 90
   -65536
280
     1
281
     0
  0
CLASS
  1
LWPOLYLINE
  2
AcDbPolyline
  3
AutoCAD 2000
 90
        0
280
     0
281
     1
  0
CLASS
  1
HATCH
  2
AcDbHatch
  3
AutoCAD 2000
 90
        0
280
     0
281
     1
  0
CLASS
  1
XRECORD
  2
AcDbXrecord
  3
AutoCAD 2000
 90
        0
280
     0
281
     0
  0
CLASS
  1
TABLESTYLE
  2
AcDbTableStyle
  3
ObjectDBX Classes
 90
     2047
280
     1
281
     0
  0
CLASS
  1
DICTIONARYVAR
  2
AcDbDictionaryVar
  3
AutoCAD 2000
 90
        0
280
     0
281
     0
  0
CLASS
  1
SORTENTSTABLE
  2
AcDbSortentsTable
  3
AutoCAD 2000
 90
        0
280
     0
281
     0
  0
ENDSEC
  0
SECTION
  2
TABLES
  0
TABLE
  2
VPORT
  5
8
330
0
100
AcDbSymbolTable
 70
     3
  0
VPORT
  5
2074
330
8
100
AcDbSymbolTableRecord
100
AcDbViewportTableRecord
  2
*Active
 70
     0
 10
0.0
 20
0.0
 11
1.0
 21
1.0
 12
5.010998089835262
 22
13.08917511276587
 13
0.0
 23
0.0
 14
0.063
 24
0.063
 15
0.25
 25
0.25
 16
0.0
 26
0.0
 36
1.0
 17
0.0
 27
0.0
 37
0.0
 40
35.43113458459285
 41
1.692748091603054
 42
50.0
 43
0.0
 44
0.0
 50
0.0
 51
0.0
 71
     0
 72
   100
 73
     1
 74
     0
 75
     0
 76
     0
 77
     0
 78
     0
281
     0
 65
     1
110
0.0
120
0.0
130
0.0
111
1.0
121
0.0
131
0.0
112
0.0
122
1.0
132
0.0
 79
     0
146
0.0
  0
ENDTAB
  0
TABLE
  2
LTYPE
  5
5
330
0
100
AcDbSymbolTable
 70
     5
  0
LTYPE
  5
13
330
5
100
AcDbSymbolTableRecord
100
AcDbLinetypeTableRecord
  2
ByBlock
 70
     0
  3

 72
    65
 73
     0
 40
0.0
  0
LTYPE
  5
14
330
5
100
AcDbSymbolTableRecord
100
AcDbLinetypeTableRecord
  2
ByLayer
 70
     0
  3

 72
    65
 73
     0
 40
0.0
  0
LTYPE
  5
15
330
5
100
AcDbSymbolTableRecord
100
AcDbLinetypeTableRecord
  2
CONTINUOUS
 70
     0
  3
Solid line
 72
    65
 73
     0
 40
0.0
  0
LTYPE
  5
3A
330
5
100
AcDbSymbolTableRecord
100
AcDbLinetypeTableRecord
  2
HIDDEN
 70
     0
  3
_ _ _ _ _ _ _ _ _ _ _ _ _ _ _ _ _ _ _ _ _ _ _
 72
    65
 73
     2
 40
0.375
 49
0.25
 74
     0
 49
-0.125
 74
     0
  0
LTYPE
  5
3B
330
5
100
AcDbSymbolTableRecord
100
AcDbLinetypeTableRecord
  2
DASHED
 70
     0
  3
__ __ __ __ __ __ __ __ __ __ __ __ __ __ __
 72
    65
 73
     2
 40
0.75
 49
0.5
 74
     0
 49
-0.25
 74
     0
  0
LTYPE
  5
B57
330
5
100
AcDbSymbolTableRecord
100
AcDbLinetypeTableRecord
  2
THD
 70
     0
  3
_ _ _ _ _ _ _ _ _ _ _ _ _ _ _ _ _ _ _ _ _ _ _ _
 72
    65
 73
     2
 40
0.15
 49
0.11
 74
     0
 49
-0.04
 74
     0
  0
LTYPE
  5
1720
330
5
100
AcDbSymbolTableRecord
100
AcDbLinetypeTableRecord
  2
PHANTOM
 70
     0
  3
_____ _ _ _____ _ _ _____ _ _ _____ _ _ ____
 72
    65
 73
     6
 40
2.5
 49
1.25
 74
     0
 49
-0.25
 74
     0
 49
0.25
 74
     0
 49
-0.25
 74
     0
 49
0.25
 74
     0
 49
-0.25
 74
     0
  0
ENDTAB
  0
TABLE
  2
LAYER
  5
2
102
{ACAD_XDICTIONARY
360
1FD8
102
}
330
0
100
AcDbSymbolTable
 70
    10
  0
LAYER
  5
10
330
2
100
AcDbSymbolTableRecord
100
AcDbLayerTableRecord
  2
0
 70
     0
 62
     7
  6
CONTINUOUS
370
    -3
390
F
  0
LAYER
  5
41
330
2
100
AcDbSymbolTableRecord
100
AcDbLayerTableRecord
  2
NOTE
 70
     0
 62
     1
  6
CONTINUOUS
370
    -3
390
F
  0
LAYER
  5
42
330
2
100
AcDbSymbolTableRecord
100
AcDbLayerTableRecord
  2
TITLE
 70
     0
 62
     5
  6
CONTINUOUS
370
    -3
390
F
  0
LAYER
  5
43
330
2
100
AcDbSymbolTableRecord
100
AcDbLayerTableRecord
  2
BORDER
 70
     0
 62
     7
  6
CONTINUOUS
370
    -3
390
F
  0
LAYER
  5
44
330
2
100
AcDbSymbolTableRecord
100
AcDbLayerTableRecord
  2
ATTRIBUTES
 70
     0
 62
     1
  6
CONTINUOUS
370
    -3
390
F
  0
LAYER
  5
45
330
2
100
AcDbSymbolTableRecord
100
AcDbLayerTableRecord
  2
REV
 70
     0
 62
     1
  6
CONTINUOUS
370
    -3
390
F
  0
LAYER
  5
46
330
2
100
AcDbSymbolTableRecord
100
AcDbLayerTableRecord
  2
DIM
 70
     0
 62
     5
  6
CONTINUOUS
370
    -3
390
F
  0
LAYER
  5
49
330
2
100
AcDbSymbolTableRecord
100
AcDbLayerTableRecord
  2
HIDDEN
 70
     0
 62
     8
  6
HIDDEN
370
    -3
390
F
  0
LAYER
  5
4B
330
2
100
AcDbSymbolTableRecord
100
AcDbLayerTableRecord
  2
DASHED
 70
     0
 62
     8
  6
DASHED
370
    -3
390
F
  0
LAYER
  5
50
330
2
100
AcDbSymbolTableRecord
100
AcDbLayerTableRecord
  2
OBJECT
 70
     0
 62
     7
  6
CONTINUOUS
370
    -3
390
F
  0
ENDTAB
  0
TABLE
  2
STYLE
  5
3
330
0
100
AcDbSymbolTable
 70
     4
  0
STYLE
  5
11
330
3
100
AcDbSymbolTableRecord
100
AcDbTextStyleTableRecord
  2
STANDARD
 70
     0
 40
0.0
 41
1.0
 50
0.0
 71
     0
 42
0.299997
  3
TXT
  4

  0
STYLE
  5
37
330
3
100
AcDbSymbolTableRecord
100
AcDbTextStyleTableRecord
  2
COMPLEX
 70
     0
 40
0.0
 41
1.0
 50
0.0
 71
     0
 42
0.125
  3
COMPLEX
  4

  0
STYLE
  5
38
330
3
100
AcDbSymbolTableRecord
100
AcDbTextStyleTableRecord
  2
HELVETICA
 70
     0
 40
0.0
 41
1.0
 50
0.0
 71
     0
 42
0.27
  3
SIMPLEX.SHX
  4

  0
STYLE
  5
39
330
3
100
AcDbSymbolTableRecord
100
AcDbTextStyleTableRecord
  2
ITALIC
 70
     0
 40
0.0
 41
1.0
 50
0.0
 71
     0
 42
0.1
  3
ITALIC
  4

  0
ENDTAB
  0
TABLE
  2
VIEW
  5
6
330
0
100
AcDbSymbolTable
 70
     0
  0
ENDTAB
  0
TABLE
  2
UCS
  5
7
330
0
100
AcDbSymbolTable
 70
     0
  0
ENDTAB
  0
TABLE
  2
APPID
  5
9
330
0
100
AcDbSymbolTable
 70
     3
  0
APPID
  5
12
330
9
100
AcDbSymbolTableRecord
100
AcDbRegAppTableRecord
  2
ACAD
 70
     0
  0
APPID
  5
16DA
330
9
100
AcDbSymbolTableRecord
100
AcDbRegAppTableRecord
  2
CONTENTBLOCKICON
 70
     0
  0
APPID
  5
1EF8
330
9
100
AcDbSymbolTableRecord
100
AcDbRegAppTableRecord
  2
ACAD_PSEXT
 70
     0
  0
ENDTAB
  0
TABLE
  2
DIMSTYLE
  5
A
330
0
100
AcDbSymbolTable
 70
     1
100
AcDbDimStyleTable
  0
DIMSTYLE
105
43F
330
A
100
AcDbSymbolTableRecord
100
AcDbDimStyleTableRecord
  2
Standard
 70
     0
  3

  4

340
11
  0
ENDTAB
  0
TABLE
  2
BLOCK_RECORD
  5
1
330
0
100
AcDbSymbolTable
 70
     8
  0
BLOCK_RECORD
  5
1E
330
1
100
AcDbSymbolTableRecord
100
AcDbBlockTableRecord
  2
*Model_Space
340
21
  0
BLOCK_RECORD
  5
1A
330
1
100
AcDbSymbolTableRecord
100
AcDbBlockTableRecord
  2
*Paper_Space
340
1D
  0
BLOCK_RECORD
  5
28
330
1
100
AcDbSymbolTableRecord
100
AcDbBlockTableRecord
  2
REVISION
340
0
  0
BLOCK_RECORD
  5
2B
330
1
100
AcDbSymbolTableRecord
100
AcDbBlockTableRecord
  2
03A1T157
340
0
  0
BLOCK_RECORD
  5
2C
330
1
100
AcDbSymbolTableRecord
100
AcDbBlockTableRecord
  2
REGTRADE
340
0
102
{BLKREFS
331
13C
102
}
  0
BLOCK_RECORD
  5
35
330
1
100
AcDbSymbolTableRecord
100
AcDbBlockTableRecord
  2
REV
340
0
  0
BLOCK_RECORD
  5
36
330
1
100
AcDbSymbolTableRecord
100
AcDbBlockTableRecord
  2
TRIANGLE
340
0
102
{BLKREFS
331
314
102
}
  0
BLOCK_RECORD
  5
4F6
330
1
100
AcDbSymbolTableRecord
100
AcDbBlockTableRecord
  2
HUBORDER
340
0
  0
BLOCK_RECORD
  5
1678
330
1
100
AcDbSymbolTableRecord
100
AcDbBlockTableRecord
  2
Notes1Port
340
0
310
2800000020000000200000000100080000000000000400000000000000000000000000000000000000000000000080000080000000808000800000008000800080800000C0C0C000C0DCC000F0CAA6000000FF007F7FFF000000A5005252A50000007F003F3F7F0000004C0026264C000000260013132600003FFF007F9FFF
310
000029A5005267A500001F7F003F4F7F0000134C00262F4C000009260013172600007FFF007FBFFF000052A500527CA500003F7F003F5F7F0000264C0026394C0000132600131C260000BFFF007FDFFF00007CA5005291A500005F7F003F6F7F0000394C0026424C00001C26001321260000FFFF007FFFFF0000A5A50052A5
310
A500007F7F003F7F7F00004C4C00264C4C00002626001326260000FFBF007FFFDF0000A57C0052A59100007F5F003F7F6F00004C3900264C420000261C001326210000FF7F007FFFBF0000A5520052A57C00007F3F003F7F5F00004C2600264C39000026130013261C0000FF3F007FFF9F0000A5290052A56700007F1F003F
310
7F4F00004C1300264C2F00002609001326170000FF00007FFF7F0000A5000052A55200007F00003F7F3F00004C0000264C260000260000132613003FFF00009FFF7F0029A5000067A552001F7F00004F7F3F00134C00002F4C260009260000172613007FFF0000BFFF7F0052A500007CA552003F7F00005F7F3F00264C0000
310
394C2600132600001C261300BFFF0000DFFF7F007CA5000091A552005F7F00006F7F3F00394C0000424C26001C26000021261300FFFF0000FFFF7F00A5A50000A5A552007F7F00007F7F3F004C4C00004C4C26002626000026261300FFBF0000FFDF7F00A57C0000A59152007F5F00007F6F3F004C3900004C422600261C00
310
0026211300FF7F0000FFBF7F00A5520000A57C52007F3F00007F5F3F004C2600004C39260026130000261C1300FF3F0000FF9F7F00A5290000A56752007F1F00007F4F3F004C1300004C2F26002609000026171300FF000000FF7F7F00A5000000A55252007F0000007F3F3F004C0000004C2626002600000026131300FF00
310
3F00FF7F9F00A5002900A55267007F001F007F3F4F004C0013004C262F002600090026131700FF007F00FF7FBF00A5005200A5527C007F003F007F3F5F004C0026004C2639002600130026131C00FF00BF00FF7FDF00A5007C00A55291007F005F007F3F6F004C0039004C26420026001C0026132100FF00FF00FF7FFF00A5
310
00A500A552A5007F007F007F3F7F004C004C004C264C002600260026132600BF00FF00DF7FFF007C00A5009152A5005F007F006F3F7F0039004C0042264C001C002600211326007F00FF00BF7FFF005200A5007C52A5003F007F005F3F7F0026004C0039264C00130026001C1326003F00FF009F7FFF002900A5006752A500
310
1F007F004F3F7F00F0FBFF00A56E3A00808080000000FF0000FF000000FFFF00FF000000FF00FF00FFFF0000FFFFFF0007070707070707070707070707070707070707070707070707070707070707070707070707070707070707070707070707070707070707070707070707070707070707070707070707070707070707
310
07070707070707070707070707070707070707070707070707070707070707070707070707070707070707070707070707070707070707070707070707070707070707070707070707070707070707070707070707070707070707070707070707070707070707070707070707070707070707070707070707070707070707
310
070707070707070707070707070707070707070707070707070707070707B4B4B4B4B4070707070707070707070707070707070707070707070707070707B4B4B4B4B4070707070707070707070707070707070707070707070707070707070707070707070707070707070707070707070707070707070707070707070707
310
07070707070707070707070707070707070707070707070707070707070707070707070707070707070707070707070707070707070707070707070707070707070707070707070707070707070707070707070707070707070707070707070707070707B4B4B4B4B407070707070707070707070707070707070707070707
310
0707070707B4B4B4B4B40707070707070707070707070707070707070707070707070707070707070707070707070707070707070707070707070707070707070707070707070707070707070707070707070707070707070707070707070707070707070707070707070707B4B4B4B4B40707070707070707070707070707
310
0707070707070707070707B4B407B4B4B4B4070707070707070707070707070707070707070707070707B407B4B4070707070707070707070707070707070707070707070707070707070707070707070707070707070707070707070707070707070707070707070707070707070707070707070707070707070707070707
310
07070707070707070707070707070707070707070707070707070707070707070707070707070707070707070707070707070707070707070707070707070707070707070707070707070707070707070707070707070707070707070707070707070707070707070707070707070707070707070707070707070707070707
310
07070707070707070707070707070707070707070707070707070707070707070707070707070707070707070707070707070707070707070707070707070707070707070707070707070707070707070707070707070707070707070707070707070707070707070707070707070707070707070707070707070707070707
310
0707070707070707070707070707070707070707070707070707070707070707070707070707070707070707070707070707070707070707
  0
BLOCK_RECORD
  5
1EF0
102
{ACAD_XDICTIONARY
360
1EF1
102
}
330
1
100
AcDbSymbolTableRecord
100
AcDbBlockTableRecord
  2
Copyright tag
340
0
  0
ENDTAB
  0
ENDSEC
  0
SECTION
  2
BLOCKS
  0
BLOCK
  5
55
330
1E
100
AcDbEntity
  8
0
100
AcDbBlockBegin
  2
*Model_Space
 70
     0
 10
0.0
 20
0.0
 30
0.0
  3
*Model_Space
  1

  4

  0
ENDBLK
  5
56
330
1E
100
AcDbEntity
  8
0
100
AcDbBlockEnd
  0
BLOCK
  5
53
330
1A
100
AcDbEntity
 67
     1
  8
0
100
AcDbBlockBegin
  2
*Paper_Space
 70
     0
 10
0.0
 20
0.0
 30
0.0
  3
*Paper_Space
  1

  4

  0
ENDBLK
  5
54
330
1A
100
AcDbEntity
 67
     1
  8
0
100
AcDbBlockEnd
  0
BLOCK
  5
100
330
28
100
AcDbEntity
  8
0
100
AcDbBlockBegin
  2
REVISION
 70
     2
 10
0.0
 20
0.0
 30
0.0
  3
REVISION
  1

  4

  0
ATTDEF
  5
101
330
28
100
AcDbEntity
  8
0
100
AcDbText
 10
-2.815
 20
1.601
 30
0.0
 40
0.09
  1

 72
     1
 11
-2.815
 21
1.601
 31
0.0
100
AcDbAttributeDefinition
  3
Enter revision level.
  2
REV
 70
     4
  0
ATTDEF
  5
102
330
28
100
AcDbEntity
  8
0
100
AcDbText
 10
-2.286927849525391
 20
1.601
 30
0.0
 40
0.09
  1

 72
     1
 11
-2.286927849525391
 21
1.601
 31
0.0
100
AcDbAttributeDefinition
  3
Enter date.
  2
DATE
 70
     4
  0
ATTDEF
  5
103
330
28
100
AcDbEntity
  8
0
100
AcDbText
 10
-0.2146447286802076
 20
1.601
 30
0.0
 40
0.09
  1

 72
     1
 11
-0.2146447286802076
 21
1.601
 31
0.0
100
AcDbAttributeDefinition
  3
Enter drafter's initials.
  2
INIT
 70
     4
  0
ENDBLK
  5
104
330
28
100
AcDbEntity
  8
0
100
AcDbBlockEnd
  0
BLOCK
  5
139
330
2B
100
AcDbEntity
  8
0
100
AcDbBlockBegin
  2
03A1T157
 70
     0
 10
0.0
 20
0.0
 30
0.0
  3
03A1T157
  1

  4

  0
TEXT
  5
13A
330
2B
100
AcDbEntity
  8
0
100
AcDbText
 10
-0.4749468064104967
 20
0.1023153099673699
 30
0.0
 40
0.08999991
  1
 SIMPSON
  7
HELVETICA
100
AcDbText
  0
INSERT
  5
13C
330
2B
100
AcDbEntity
  8
0
100
AcDbBlockReference
  2
REGTRADE
 10
0.2908665873180283
 20
-0.010775783230546
 30
0.0
 41
1.1666655
 42
1.1666655
 43
1.1666655
  0
TEXT
  5
13D
330
2B
100
AcDbEntity
  8
0
100
AcDbText
 10
-0.4749468064104967
 20
-0.0476845400326305
 30
0.0
 40
0.08999991
  1
Strong-Tie
  7
HELVETICA
100
AcDbText
  0
ENDBLK
  5
13E
330
2B
100
AcDbEntity
  8
0
100
AcDbBlockEnd
  0
BLOCK
  5
13F
330
2C
100
AcDbEntity
  8
0
100
AcDbBlockBegin
  2
REGTRADE
 70
     0
 10
6.754739829018028
 20
4.627294914098755
 30
0.0
  3
REGTRADE
  1

  4

  0
LINE
  5
140
330
2C
100
AcDbEntity
  8
0
100
AcDbLine
 10
6.771984786407902
 20
4.635039856277119
 30
0.0
 11
6.771984786407902
 21
4.630463299535358
 31
0.0
  0
TEXT
  5
141
330
2C
100
AcDbEntity
  8
0
100
AcDbText
 10
6.771949592617311
 20
4.633455663558817
 30
0.0
 40
0.05
  1
R
100
AcDbText
  0
CIRCLE
  5
142
330
2C
100
AcDbEntity
  8
0
100
AcDbCircle
 10
6.786005112734824
 20
4.658450704225352
 30
0.0
 40
0.03125
  0
ENDBLK
  5
143
330
2C
100
AcDbEntity
  8
0
100
AcDbBlockEnd
  0
BLOCK
  5
313
330
35
100
AcDbEntity
  8
0
100
AcDbBlockBegin
  2
REV
 70
     2
 10
0.0
 20
0.0
 30
0.0
  3
REV
  1

  4

  0
INSERT
  5
314
330
35
100
AcDbEntity
  8
0
100
AcDbBlockReference
  2
TRIANGLE
 10
0.0292890000000003
 20
0.0634589999999999
 30
0.0
 41
0.9
 42
0.9
 43
0.9
  0
ATTDEF
  5
315
330
35
100
AcDbEntity
  8
0
100
AcDbText
 10
-0.0301599999999995
 20
-0.044543
 30
0.0
 40
0.09
  1
A
100
AcDbAttributeDefinition
  3
Enter revision letter
  2
REVISION
 70
     0
  0
ENDBLK
  5
316
330
35
100
AcDbEntity
  8
0
100
AcDbBlockEnd
  0
BLOCK
  5
317
330
36
100
AcDbEntity
  8
0
100
AcDbBlockBegin
  2
TRIANGLE
 70
     0
 10
5.451708999999999
 20
5.353121
 30
0.0
  3
TRIANGLE
  1

  4

  0
LINE
  5
318
330
36
100
AcDbEntity
  8
0
100
AcDbLine
 10
5.418628
 20
5.413703
 30
0.0
 11
5.324878
 21
5.226203
 31
0.0
  0
LINE
  5
319
330
36
100
AcDbEntity
  8
0
100
AcDbLine
 10
5.418628
 20
5.413703
 30
0.0
 11
5.512378
 21
5.226203
 31
0.0
  0
LINE
  5
31A
330
36
100
AcDbEntity
  8
0
100
AcDbLine
 10
5.324878
 20
5.226203
 30
0.0
 11
5.512378
 21
5.226203
 31
0.0
  0
ENDBLK
  5
31B
330
36
100
AcDbEntity
  8
0
100
AcDbBlockEnd
  0
BLOCK
  5
52E
330
4F6
100
AcDbEntity
  8
0
100
AcDbBlockBegin
  2
HUBORDER
 70
     2
 10
0.0
 20
0.0
 30
0.0
  3
HUBORDER
  1

  4

  0
TRACE
  5
4F7
330
4F6
100
AcDbEntity
  8
BORDER
100
AcDbTrace
 10
5.061
 20
0.2505000000000006
 30
0.0
 11
5.061
 21
0.275500000000001
 31
0.0
 12
3.336
 22
0.2505000000000006
 32
0.0
 13
3.336
 23
0.275500000000001
 33
0.0
  0
TRACE
  5
4F8
330
4F6
100
AcDbEntity
  8
BORDER
100
AcDbTrace
 10
5.061
 20
1.5015
 30
0.0
 11
5.086
 21
1.5265
 31
0.0
 12
3.336
 22
1.5015
 32
0.0
 13
3.311
 23
1.5265
 33
0.0
  0
LINE
  5
4F9
330
4F6
100
AcDbEntity
  8
BORDER
100
AcDbLine
 10
5.061
 20
0.2629999999999999
 30
0.0
 11
3.336
 21
0.2629999999999999
 31
0.0
  0
LINE
  5
4FA
330
4F6
100
AcDbEntity
  8
BORDER
100
AcDbLine
 10
5.0735
 20
1.514
 30
0.0
 11
3.3235
 21
1.514
 31
0.0
  0
TEXT
  5
4FB
330
4F6
100
AcDbEntity
  8
TITLE
100
AcDbText
 10
3.810611302202785
 20
1.303578326506746
 30
0.0
 40
0.07
  1
%%UCONFIDENTIAL
 72
     1
 11
4.196777968869451
 21
1.303578326506746
 31
0.0
100
AcDbText
  0
TEXT
  5
4FC
330
4F6
100
AcDbEntity
  8
TITLE
100
AcDbText
 10
3.483777968869451
 20
0.4035783265067465
 30
0.0
 40
0.062
  1
EXPRESS WRITTEN CONSENT!
 72
     1
 11
4.196777968869451
 21
0.4035783265067465
 31
0.0
100
AcDbText
  0
TEXT
  5
4FD
330
4F6
100
AcDbEntity
  8
TITLE
100
AcDbText
 10
3.473444635536119
 20
0.5535783265067469
 30
0.0
 40
0.062
  1
REPRODUCED WITHOUT THEIR
 72
     1
 11
4.196777968869451
 21
0.5535783265067469
 31
0.0
100
AcDbText
  0
TEXT
  5
4FE
330
4F6
100
AcDbEntity
  8
TITLE
100
AcDbText
 10
3.773111302202785
 20
0.7035783265067472
 30
0.0
 40
0.062
  1
AND MAY NOT BE
 72
     1
 11
4.196777968869451
 21
0.7035783265067472
 31
0.0
100
AcDbText
  0
TEXT
  5
4FF
330
4F6
100
AcDbEntity
  8
TITLE
100
AcDbText
 10
3.426944635536118
 20
0.8535783265067467
 30
0.0
 40
0.062
  1
SIMPSON STRONG-TIE CO., INC.
 72
     1
 11
4.196777968869451
 21
0.8535783265067467
 31
0.0
100
AcDbText
  0
TEXT
  5
500
330
4F6
100
AcDbEntity
  8
TITLE
100
AcDbText
 10
3.432111302202785
 20
1.003578326506746
 30
0.0
 40
0.062
  1
EXCLUSIVE PROPERTY OF THE
 72
     1
 11
4.196777968869451
 21
1.003578326506746
 31
0.0
100
AcDbText
  0
TEXT
  5
501
330
4F6
100
AcDbEntity
  8
TITLE
100
AcDbText
 10
3.638777968869452
 20
1.153578326506747
 30
0.0
 40
0.062
  1
THIS DRAWING IS THE
 72
     1
 11
4.196777968869451
 21
1.153578326506747
 31
0.0
100
AcDbText
  0
TRACE
  5
502
330
4F6
100
AcDbEntity
  8
BORDER
100
AcDbTrace
 10
0.2742754745401044
 20
0.0250000000000004
 30
0.0
 11
0.2750000000000004
 21
0.0
 31
0.0
 12
8.1
 22
0.0250000000000004
 32
0.0
 13
8.125
 23
0.0
 33
0.0
  0
TRACE
  5
503
330
4F6
100
AcDbEntity
  8
BORDER
100
AcDbTrace
 10
8.1
 20
10.475
 30
0.0
 11
8.125
 21
10.5
 31
0.0
 12
0.2750000000000004
 22
10.475
 32
0.0
 13
0.25
 23
10.5
 33
0.0
  0
ATTDEF
  5
504
330
4F6
100
AcDbEntity
  8
ATTRIBUTES
100
AcDbText
 10
3.989822651218851
 20
0.0863844168490946
 30
0.0
 40
0.1
  1

100
AcDbAttributeDefinition
  3
Enter drawing number.
  2
DRAWING#
 70
     0
  0
TRACE
  5
505
330
4F6
100
AcDbEntity
  8
BORDER
100
AcDbTrace
 10
0.2750000000000004
 20
10.475
 30
0.0
 11
0.25
 21
10.5
 31
0.0
 12
0.2750000000000004
 22
0.0
 32
0.0
 13
0.25
 23
0.0
 33
0.0
  0
TRACE
  5
506
330
4F6
100
AcDbEntity
  8
BORDER
100
AcDbTrace
 10
3.336
 20
1.5015
 30
0.0
 11
3.311
 21
1.5265
 31
0.0
 12
3.336
 22
0.0250000000000004
 32
0.0
 13
3.311
 23
0.0250000000000004
 33
0.0
  0
LINE
  5
507
330
4F6
100
AcDbEntity
  8
BORDER
100
AcDbLine
 10
3.3235
 20
1.514
 30
0.0
 11
3.3235
 21
0.0250000000000004
 31
0.0
  0
TEXT
  5
508
330
4F6
100
AcDbEntity
  8
TITLE
100
AcDbText
 10
3.397338185056593
 20
0.1114913747683604
 30
0.0
 40
0.062
  1
DWG. NO.:
100
AcDbText
  0
TRACE
  5
509
330
4F6
100
AcDbEntity
  8
BORDER
100
AcDbTrace
 10
8.1
 20
0.0250000000000004
 30
0.0
 11
8.125
 21
0.0
 31
0.0
 12
8.1
 22
10.475
 32
0.0
 13
8.125
 23
10.5
 33
0.0
  0
TEXT
  5
50A
330
4F6
100
AcDbEntity
  8
NOTE
100
AcDbText
 10
5.916996487904117
 20
0.5884199549783267
 30
0.0
 40
0.1
  1
HELGA ELDER
100
AcDbText
  0
TRACE
  5
50B
330
4F6
100
AcDbEntity
  8
BORDER
100
AcDbTrace
 10
8.1
 20
1.006500000000001
 30
0.0
 11
8.1
 21
1.0315
 31
0.0
 12
5.086
 22
1.006500000000001
 32
0.0
 13
5.086
 23
1.0315
 33
0.0
  0
TRACE
  5
50C
330
4F6
100
AcDbEntity
  8
BORDER
100
AcDbTrace
 10
8.1
 20
1.251500000000001
 30
0.0
 11
8.1
 21
1.2765
 31
0.0
 12
5.086
 22
1.251500000000001
 32
0.0
 13
5.086
 23
1.2765
 33
0.0
  0
LINE
  5
50D
330
4F6
100
AcDbEntity
  8
BORDER
100
AcDbLine
 10
8.1
 20
1.264
 30
0.0
 11
5.086
 21
1.264
 31
0.0
  0
LINE
  5
50E
330
4F6
100
AcDbEntity
  8
BORDER
100
AcDbLine
 10
8.102
 20
1.763
 30
0.0
 11
5.086
 21
1.763000000000001
 31
0.0
  0
LINE
  5
50F
330
4F6
100
AcDbEntity
  8
BORDER
100
AcDbLine
 10
8.102
 20
0.7629999999999999
 30
0.0
 11
5.086
 21
0.7629999999999999
 31
0.0
  0
LINE
  5
510
330
4F6
100
AcDbEntity
  8
BORDER
100
AcDbLine
 10
5.086
 20
0.5129999999999999
 30
0.0
 11
8.102
 21
0.5129999999999999
 31
0.0
  0
LINE
  5
511
330
4F6
100
AcDbEntity
  8
BORDER
100
AcDbLine
 10
8.102
 20
0.2629999999999999
 30
0.0
 11
5.086
 21
0.2629999999999999
 31
0.0
  0
TEXT
  5
512
330
4F6
100
AcDbEntity
  8
TITLE
100
AcDbText
 10
5.335780933943137
 20
1.093049021513174
 30
0.0
 40
0.1
  1
SIMPSON STRONG-TIE CO., INC.
  7
COMPLEX
100
AcDbText
  0
TEXT
  5
513
330
4F6
100
AcDbEntity
  8
TITLE
100
AcDbText
 10
5.813000000000001
 20
0.8334363058419374
 30
0.0
 40
0.1
  1
PRODUCTION DRAWING
100
AcDbText
  0
TEXT
  5
514
330
4F6
100
AcDbEntity
  8
TITLE
100
AcDbText
 10
6.449
 20
1.364
 30
0.0
 40
0.062
  1
DESCRIPTION
 72
     1
 11
6.759
 21
1.364
 31
0.0
100
AcDbText
  0
LINE
  5
515
330
4F6
100
AcDbEntity
  8
TITLE
100
AcDbLine
 10
8.109
 20
1.514
 30
0.0
 11
5.086
 21
1.514
 31
0.0
  0
ATTDEF
  5
516
330
4F6
100
AcDbEntity
  8
ATTRIBUTES
100
AcDbText
 10
6.645
 20
0.0876862940230358
 30
0.0
 40
0.1
  1

100
AcDbAttributeDefinition
  3
Enter model number.
  2
MODEL#
 70
     0
  0
TEXT
  5
517
330
4F6
100
AcDbEntity
  8
TITLE
100
AcDbText
 10
5.152498431326378
 20
0.6072147858099539
 30
0.0
 40
0.062
  1
DRAWN BY:
100
AcDbText
  0
ATTDEF
  5
518
330
4F6
100
AcDbEntity
  8
ATTRIBUTES
100
AcDbText
 10
5.558787389033447
 20
0.3296652149299408
 30
0.0
 40
0.1
  1

100
AcDbAttributeDefinition
  3
Enter drawing scale.
  2
SCALE
 70
     0
  0
TRACE
  5
519
330
4F6
100
AcDbEntity
  8
BORDER
100
AcDbTrace
 10
5.061
 20
0.0250000000000004
 30
0.0
 11
5.086
 21
0.0250000000000004
 31
0.0
 12
5.061
 22
1.5015
 32
0.0
 13
5.086
 23
1.5265
 33
0.0
  0
LINE
  5
51A
330
4F6
100
AcDbEntity
  8
BORDER
100
AcDbLine
 10
5.086
 20
1.763000000000001
 30
0.0
 11
5.086
 21
0.0250000000000004
 31
0.0
  0
TEXT
  5
51B
330
4F6
100
AcDbEntity
  8
TITLE
100
AcDbText
 10
5.152
 20
0.1103400521755242
 30
0.0
 40
0.062
  1
REV.
100
AcDbText
  0
TEXT
  5
51C
330
4F6
100
AcDbEntity
  8
TITLE
100
AcDbText
 10
5.152498431326378
 20
0.3551032441129731
 30
0.0
 40
0.062
  1
SCALE:
100
AcDbText
  0
TEXT
  5
51D
330
4F6
100
AcDbEntity
  8
TITLE
100
AcDbText
 10
5.152498431326378
 20
0.8514120440465556
 30
0.0
 40
0.062
  1
TITLE:
100
AcDbText
  0
TEXT
  5
51E
330
4F6
100
AcDbEntity
  8
TITLE
100
AcDbText
 10
5.202890866545221
 20
1.364
 30
0.0
 40
0.062
  1
REV.
 72
     1
 11
5.306224199878555
 21
1.364
 31
0.0
100
AcDbText
  0
LINE
  5
51F
330
4F6
100
AcDbEntity
  8
TITLE
100
AcDbLine
 10
5.509
 20
1.764
 30
0.0
 11
5.509
 21
1.264
 31
0.0
  0
LINE
  5
520
330
4F6
100
AcDbEntity
  8
BORDER
100
AcDbLine
 10
6.856
 20
0.2629999999999999
 30
0.0
 11
6.855999999999999
 21
0.5129999999999999
 31
0.0
  0
LINE
  5
521
330
4F6
100
AcDbEntity
  8
TITLE
100
AcDbLine
 10
6.109
 20
0.5129999999999999
 30
0.0
 11
6.109
 21
0.2629999999999999
 31
0.0
  0
TEXT
  5
522
330
4F6
100
AcDbEntity
  8
TITLE
100
AcDbText
 10
5.799381379578701
 20
0.1115394323626822
 30
0.0
 40
0.062
  1
%%UMODEL NO.:
100
AcDbText
  0
LINE
  5
523
330
4F6
100
AcDbEntity
  8
BORDER
100
AcDbLine
 10
5.756
 20
0.2629999999999999
 30
0.0
 11
5.756
 21
0.0190000000000001
 31
0.0
  0
TEXT
  5
524
330
4F6
100
AcDbEntity
  8
TITLE
100
AcDbText
 10
6.154754318583582
 20
0.3556215754554888
 30
0.0
 40
0.062
  1
CHK.
100
AcDbText
  0
TEXT
  5
525
330
4F6
100
AcDbEntity
  8
TITLE
100
AcDbText
 10
5.72015086681692
 20
1.364
 30
0.0
 40
0.062
  1
DATE
 72
     1
 11
5.833817533483587
 21
1.364
 31
0.0
100
AcDbText
  0
LINE
  5
526
330
4F6
100
AcDbEntity
  8
TITLE
100
AcDbLine
 10
6.159
 20
1.764
 30
0.0
 11
6.159
 21
1.264
 31
0.0
  0
ATTDEF
  5
527
330
4F6
100
AcDbEntity
  8
ATTRIBUTES
100
AcDbText
 10
8.093283262767924
 20
0.0076218835614377
 30
0.0
 40
0.01
  1

100
AcDbAttributeDefinition
  3
Do not enter any value.
  2
DIE
 70
     0
  0
TEXT
  5
528
330
4F6
100
AcDbEntity
  8
TITLE
100
AcDbText
 10
7.425073022018955
 20
1.364
 30
0.0
 40
0.062
  1
APPR.
 72
     1
 11
7.549073022018955
 21
1.364
 31
0.0
100
AcDbText
  0
ATTDEF
  5
529
330
4F6
100
AcDbEntity
  8
ATTRIBUTES
100
AcDbText
 10
7.221246836614026
 20
0.3300000000000001
 30
0.0
 40
0.1
  1

100
AcDbAttributeDefinition
  3
Enter date.
  2
DATE
 70
     0
  0
TEXT
  5
52A
330
4F6
100
AcDbEntity
  8
TITLE
100
AcDbText
 10
6.888048693984509
 20
0.3579903068542611
 30
0.0
 40
0.062
  1
DATE:
100
AcDbText
  0
LINE
  5
52B
330
4F6
100
AcDbEntity
  8
TITLE
100
AcDbLine
 10
7.359
 20
1.764
 30
0.0
 11
7.359
 21
1.264
 31
0.0
  0
LINE
  5
52C
330
4F6
100
AcDbEntity
  8
TITLE
100
AcDbLine
 10
7.723000000000001
 20
1.764
 30
0.0
 11
7.723000000000001
 21
1.264
 31
0.0
  0
TEXT
  5
52D
330
4F6
100
AcDbEntity
  8
TITLE
100
AcDbText
 10
7.853004822779012
 20
1.364
 30
0.0
 40
0.062
  1
 BY
 72
     1
 11
7.966671489445679
 21
1.364
 31
0.0
100
AcDbText
  0
ENDBLK
  5
52F
330
4F6
100
AcDbEntity
  8
0
100
AcDbBlockEnd
  0
BLOCK
  5
1687
330
1678
100
AcDbEntity
  8
0
100
AcDbBlockBegin
  2
Notes1Port
 70
     2
 10
0.0
 20
0.0
 30
0.0
  3
Notes1Port
  1

  4

  0
TEXT
  5
1679
330
1678
100
AcDbEntity
  8
0
100
AcDbText
 10
1002.305248086982
 20
411.8419490597025
 30
0.0
 40
0.09
  1
IS LABELED; LABEL MUST ADHERE
100
AcDbText
  0
TEXT
  5
167A
330
1678
100
AcDbEntity
  8
0
100
AcDbText
 10
1002.305248086982
 20
411.6919490597025
 30
0.0
 40
0.09
  1
& UPC BARCODE BE SCANNABLE.
100
AcDbText
  0
TEXT
  5
167B
330
1678
100
AcDbEntity
  8
0
100
AcDbText
 10
1002.131981484477
 20
411.9919490597025
 30
0.0
 40
0.09
  1
6. OIL CHECK REQUIRED IF PART
100
AcDbText
  0
TEXT
  5
167C
330
1678
100
AcDbEntity
  8
0
100
AcDbText
 10
1002.13175632177
 20
411.5395773493063
 30
0.0
 40
0.09
  1
7. MATERIAL:
100
AcDbText
  0
ATTDEF
  5
167D
330
1678
100
AcDbEntity
  8
ATTRIBUTES
100
AcDbText
 10
1003.098482101809
 20
411.540519994046
 30
0.0
 40
0.09
  1
(MAT'L. SPEC.)
100
AcDbAttributeDefinition
  3
Enter material specification.
  2
GAUGE
 70
     0
  0
ATTDEF
  5
167E
330
1678
100
AcDbEntity
  8
ATTRIBUTES
100
AcDbText
 10
1003.660064077016
 20
412.127734890551
 30
0.0
 40
0.09
  1
1T
100
AcDbAttributeDefinition
  3
Enter bend radius.
  2
BEND
 70
     0
  0
TEXT
  5
167F
330
1678
100
AcDbEntity
  8
0
100
AcDbText
 10
1002.13175632177
 20
412.1279931588395
 30
0.0
 40
0.09
  1
5. ALL BEND RADII:
100
AcDbText
  0
TEXT
  5
1680
330
1678
100
AcDbEntity
  8
0
100
AcDbText
 10
1002.13175632177
 20
412.2821715857494
 30
0.0
 40
0.09
  1
4. ALL ANGLES: %%P1%%D
100
AcDbText
  0
TEXT
  5
1681
330
1678
100
AcDbEntity
  8
0
100
AcDbText
 10
1002.13175632177
 20
412.611756543576
 30
0.0
 40
0.09
  1
2. LINEAR DIMENSIONS: %%P
100
AcDbText
  0
TEXT
  5
1682
330
1678
100
AcDbEntity
  8
0
100
AcDbText
 10
1002.13175632177
 20
413.0563654256053
 30
0.0
 40
0.09
  1
UNLESS OTHERWISE NOTED
  7
COMPLEX
100
AcDbText
  0
TEXT
  5
1683
330
1678
100
AcDbEntity
  8
0
100
AcDbText
 10
1002.161433797869
 20
412.761756543576
 30
0.0
 40
0.09
  1
1. NO BURRS GREATER THAN 0.015
100
AcDbText
  0
ATTDEF
  5
1684
330
1678
100
AcDbEntity
  8
ATTRIBUTES
100
AcDbText
 10
1004.022980648538
 20
412.6114982752875
 30
0.0
 40
0.09
  1
1/16
100
AcDbAttributeDefinition
  3
Enter fractional tolerance.
  2
1/16
 70
     0
  0
TEXT
  5
1685
330
1678
100
AcDbEntity
  8
0
100
AcDbText
 10
1002.13175632177
 20
412.4546199988443
 30
0.0
 40
0.09
  1
3. HOLE/SLOT DIMENSIONS: %%P
100
AcDbText
  0
ATTDEF
  5
1686
330
1678
100
AcDbEntity
  8
ATTRIBUTES
100
AcDbText
 10
1004.31514148622
 20
412.4543617305558
 30
0.0
 40
0.09
  1
0.004
100
AcDbAttributeDefinition
  3
Enter DECIMAL tolerance.
  2
0.004
 70
     0
  0
ENDBLK
  5
1688
330
1678
100
AcDbEntity
  8
0
100
AcDbBlockEnd
  0
BLOCK
  5
1EF3
330
1EF0
100
AcDbEntity
  8
0
100
AcDbBlockBegin
  2
Copyright tag
 70
     0
 10
0.0
 20
0.0
 30
0.0
  3
Copyright tag
  1

  4

  0
CIRCLE
  5
1EF4
330
1EF0
100
AcDbEntity
  8
0
100
AcDbCircle
 10
0.0000737601064827
 20
0.0000852766280307
 30
0.0
 40
0.041765625
  0
MTEXT
  5
1EF5
330
1EF0
100
AcDbEntity
  8
0
100
AcDbMText
 10
0.0825534816164985
 20
0.0362021277494419
 30
0.0
 40
0.0675
 41
3.164072296866236
 71
     1
 72
     5
  1
{\C7;2007 Simpson Strong-Tie Co. Inc.}
 73
     1
 44
1.0
  0
MTEXT
  5
1EF6
330
1EF0
100
AcDbEntity
  8
0
100
AcDbMText
 10
-0.0258085912805495
 20
0.0299116244524237
 30
0.0
 40
0.06237
 41
0.2285185715941737
 71
     1
 72
     5
  1
{\Fcomplex.shx|c0;C}
  7
HELVETICA
 73
     1
 44
1.0
  0
ENDBLK
  5
1EF7
330
1EF0
100
AcDbEntity
  8
0
100
AcDbBlockEnd
  0
ENDSEC
  0
SECTION
  2
ENTITIES
  0
TEXT
  5
338
330
1E
100
AcDbEntity
  8
DIM
100
AcDbText
 10
12.53824757395154
 20
21.241477442257
 30
0.0
 40
0.299997
  1
   
 72
     1
 11
12.98824307395154
 21
21.391475942257
 31
0.0
100
AcDbText
 73
     2
  0
TEXT
  5
339
330
1E
100
AcDbEntity
  8
DIM
100
AcDbText
 10
18.51009402940854
 20
11.94308454351106
 30
0.0
 40
0.299997
  1
   
 72
     1
 11
18.96008952940854
 21
12.09308304351107
 31
0.0
100
AcDbText
 73
     2
  0
TEXT
  5
342
330
1E
100
AcDbEntity
  8
DIM
100
AcDbText
 10
12.97496841167832
 20
27.36113490023515
 30
0.0
 40
0.299997
  1
   
 11
12.97496841167832
 21
27.51113340023515
 31
0.0
100
AcDbText
 73
     2
  0
TEXT
  5
426
330
1E
100
AcDbEntity
  8
DIM
100
AcDbText
 10
19.5257908938138
 20
15.52606807154622
 30
0.0
 40
0.299997
  1
   
 72
     1
 11
19.9757863938138
 21
15.67606657154622
 31
0.0
100
AcDbText
 73
     2
  0
LINE
  5
200E
330
1E
100
AcDbEntity
  8
0
100
AcDbLine
 10
1.782025499078484
 20
1.035679582101992
 30
0.0
 11
1.967974500921626
 21
1.035679582101992
 31
0.0
  0
LINE
  5
200F
330
1E
100
AcDbEntity
  8
0
  6
HIDDEN
100
AcDbLine
 10
1.96667836393169
 20
1.085177056785057
 30
0.0
 11
1.78332163606842
 21
1.085177056785057
 31
0.0
  0
ARC
  5
2010
330
1E
100
AcDbEntity
  8
0
100
AcDbCircle
 10
1.875000000000055
 20
1.257157308624358
 30
0.0
 40
0.0873150977150265
100
AcDbArc
 50
5.076634500832909
 51
174.9233654991754
  0
ARC
  5
2011
330
1E
100
AcDbEntity
  8
0
100
AcDbCircle
 10
1.874999999999828
 20
1.1852723790781
 30
0.0
 40
0.1097025525782063
100
AcDbArc
 50
37.25445108739468
 51
142.7455489122072
  0
LINE
  5
2012
330
1E
100
AcDbEntity
  8
0
100
AcDbLine
 10
1.789529298714681
 20
1.322238129080333
 30
0.0
 11
1.782025499078484
 21
1.035679582101992
 31
0.0
  0
LINE
  5
2013
330
1E
100
AcDbEntity
  8
0
100
AcDbLine
 10
1.960470701285486
 20
1.322238129080333
 30
0.0
 11
1.967974500921626
 21
1.035679582101992
 31
0.0
  0
ARC
  5
2014
330
1E
100
AcDbEntity
  8
0
100
AcDbCircle
 10
1.875000000000055
 20
1.320000000000007
 30
0.0
 40
0.0855
100
AcDbArc
 50
1.499999999999456
 51
178.5000000000014
  0
ARC
  5
2015
330
1E
100
AcDbEntity
  8
0
100
AcDbCircle
 10
1.250000000295868
 20
2.12037958830274
 30
0.0
 40
0.03125
100
AcDbArc
 50
210.0000000962494
 51
330.0000000962507
  0
ARC
  5
2016
330
1E
100
AcDbEntity
  8
0
100
AcDbCircle
 10
1.169026624806405
 20
2.260629588166722
 30
0.0
 40
0.03125
100
AcDbArc
 50
90.00000009625082
 51
210.0000000962494
  0
ARC
  5
2017
330
1E
100
AcDbEntity
  8
0
100
AcDbCircle
 10
1.330973375471158
 20
2.260629588166722
 30
0.0
 40
0.03125
100
AcDbArc
 50
330.0000000962507
 51
90.00000009625245
  0
LINE
  5
2018
330
1E
100
AcDbEntity
  8
0
100
AcDbLine
 10
1.330973375418692
 20
2.291879588166722
 30
0.0
 11
1.169026624753938
 21
2.291879588166708
 31
0.0
  0
LINE
  5
2019
330
1E
100
AcDbEntity
  8
0
100
AcDbLine
 10
1.358036669365673
 20
2.245004588212197
 30
0.0
 11
1.277063294190382
 21
2.104754588348214
 31
0.0
  0
LINE
  5
201A
330
1E
100
AcDbEntity
  8
0
100
AcDbLine
 10
1.222936706453877
 20
2.104754588257279
 30
0.0
 11
1.141963330964414
 21
2.245004588121262
 31
0.0
  0
ARC
  5
201B
330
1E
100
AcDbEntity
  8
0
100
AcDbCircle
 10
0.8750000002958682
 20
2.74537958830274
 30
0.0
 40
0.03125
100
AcDbArc
 50
210.0000000962494
 51
330.0000000962507
  0
ARC
  5
201C
330
1E
100
AcDbEntity
  8
0
100
AcDbCircle
 10
0.7940266248064045
 20
2.885629588166722
 30
0.0
 40
0.03125
100
AcDbArc
 50
90.00000009625082
 51
210.0000000962494
  0
ARC
  5
201D
330
1E
100
AcDbEntity
  8
0
100
AcDbCircle
 10
0.9559733754711584
 20
2.885629588166722
 30
0.0
 40
0.03125
100
AcDbArc
 50
330.0000000962507
 51
90.00000009625245
  0
LINE
  5
201E
330
1E
100
AcDbEntity
  8
0
100
AcDbLine
 10
0.9559733754186919
 20
2.916879588166722
 30
0.0
 11
0.794026624753938
 21
2.916879588166708
 31
0.0
  0
LINE
  5
201F
330
1E
100
AcDbEntity
  8
0
100
AcDbLine
 10
0.9830366693656725
 20
2.870004588212197
 30
0.0
 11
0.9020632941903823
 21
2.729754588348214
 31
0.0
  0
LINE
  5
2020
330
1E
100
AcDbEntity
  8
0
100
AcDbLine
 10
0.8479367064538774
 20
2.729754588257279
 30
0.0
 11
0.7669633309644137
 21
2.870004588121262
 31
0.0
  0
ARC
  5
2021
330
1E
100
AcDbEntity
  8
0
100
AcDbCircle
 10
0.5000000002958682
 20
3.370379588237427
 30
0.0
 40
0.03125
100
AcDbArc
 50
210.0000000962494
 51
330.0000000962507
  0
ARC
  5
2022
330
1E
100
AcDbEntity
  8
0
100
AcDbCircle
 10
0.4190266248064045
 20
3.510629588101409
 30
0.0
 40
0.03125
100
AcDbArc
 50
90.00000009625082
 51
210.0000000962494
  0
ARC
  5
2023
330
1E
100
AcDbEntity
  8
0
100
AcDbCircle
 10
0.5809733754711584
 20
3.510629588101409
 30
0.0
 40
0.03125
100
AcDbArc
 50
330.0000000962507
 51
90.00000009625245
  0
LINE
  5
2024
330
1E
100
AcDbEntity
  8
0
100
AcDbLine
 10
0.5809733754186919
 20
3.541879588101409
 30
0.0
 11
0.419026624753938
 21
3.541879588101395
 31
0.0
  0
LINE
  5
2025
330
1E
100
AcDbEntity
  8
0
100
AcDbLine
 10
0.6080366693656725
 20
3.495004588146884
 30
0.0
 11
0.5270632941903823
 21
3.354754588282901
 31
0.0
  0
LINE
  5
2026
330
1E
100
AcDbEntity
  8
0
100
AcDbLine
 10
0.4729367064538774
 20
3.354754588191966
 30
0.0
 11
0.3919633309644137
 21
3.495004588055949
 31
0.0
  0
ARC
  5
2027
330
1E
100
AcDbEntity
  8
0
  6
HIDDEN
100
AcDbCircle
 10
0.6249999999999982
 20
0.569999999999979
 30
0.0
 40
0.1175
100
AcDbArc
 50
180.0000000000009
 51
0.0000000000008212
  0
ARC
  5
2028
330
1E
100
AcDbEntity
  8
0
100
AcDbCircle
 10
0.6249999999999982
 20
0.569999999999979
 30
0.0
 40
0.1875
100
AcDbArc
 50
180.0000000000009
 51
0.0000000000008212
  0
LINE
  5
2029
330
1E
100
AcDbEntity
  8
0
  6
HIDDEN
100
AcDbLine
 10
0.5074999999999914
 20
2.351894118149943
 30
0.0
 11
0.5074999999999914
 21
0.6504418988099303
 31
0.0
  0
LINE
  5
202A
330
1E
100
AcDbEntity
  8
0
  6
HIDDEN
100
AcDbLine
 10
0.742500000000005
 20
2.351894118149943
 30
0.0
 11
0.742500000000005
 21
0.6504418988099303
 31
0.0
  0
ARC
  5
202B
330
1E
100
AcDbEntity
  8
0
  6
HIDDEN
100
AcDbCircle
 10
0.6249999999999982
 20
2.444999999999979
 30
0.0
 40
0.1175
100
AcDbArc
 50
0.0000000000008212
 51
180.0000000000009
  0
ARC
  5
202C
330
1E
100
AcDbEntity
  8
0
100
AcDbCircle
 10
0.6249999999999982
 20
2.444999999999979
 30
0.0
 40
0.1875
100
AcDbArc
 50
0.0000000000008212
 51
180.0000000000009
  0
LINE
  5
202D
330
1E
100
AcDbEntity
  8
0
100
AcDbLine
 10
0.4374999999999982
 20
2.444999999999979
 30
0.0
 11
0.4374999999999982
 21
0.569999999999979
 31
0.0
  0
LINE
  5
202E
330
1E
100
AcDbEntity
  8
0
100
AcDbLine
 10
0.8124999999999982
 20
2.444999999999979
 30
0.0
 11
0.8124999999999982
 21
0.5699999999999932
 31
0.0
  0
LINE
  5
202F
330
1E
100
AcDbEntity
  8
0
100
AcDbLine
 10
2.999999999999998
 20
0.0
 30
0.0
 11
2.999999999999998
 21
0.0699999999999932
 31
0.0
  0
LINE
  5
2030
330
1E
100
AcDbEntity
  8
0
100
AcDbLine
 10
0.0
 20
0.0
 30
0.0
 11
2.999999999999998
 21
0.0
 31
0.0
  0
LINE
  5
2031
330
1E
100
AcDbEntity
  8
0
100
AcDbLine
 10
2.968749999999998
 20
0.1950000000000074
 30
0.0
 11
2.999999999999998
 21
0.1950000000000074
 31
0.0
  0
ARC
  5
2032
330
1E
100
AcDbEntity
  8
0
100
AcDbCircle
 10
2.968749999999998
 20
0.1324999999999932
 30
0.0
 40
0.0625
100
AcDbArc
 50
90.0
 51
180.0
  0
LINE
  5
2033
330
1E
100
AcDbEntity
  8
0
100
AcDbLine
 10
2.906249999999998
 20
0.0
 30
0.0
 11
2.906249999999998
 21
0.1325000000000074
 31
0.0
  0
LINE
  5
2034
330
1E
100
AcDbEntity
  8
0
100
AcDbLine
 10
2.999999999999998
 20
0.1950000000000074
 30
0.0
 11
2.999999999999998
 21
0.3719459699114651
 31
0.0
  0
LINE
  5
2035
330
1E
100
AcDbEntity
  8
0
100
AcDbLine
 10
2.953153893518332
 20
0.5832551007817841
 30
0.0
 11
1.250927739134736
 21
4.233690869129688
 31
0.0
  0
ARC
  5
2036
330
1E
100
AcDbEntity
  8
0
100
AcDbCircle
 10
2.499999999999998
 20
0.3719459699114225
 30
0.0
 40
0.5
100
AcDbArc
 50
0.0000000000016355
 51
25.00000000000006
  0
LINE
  5
2037
330
1E
100
AcDbEntity
  8
0
100
AcDbLine
 10
2.906249999999998
 20
0.0699999999999932
 30
0.0
 11
2.999999999999998
 21
0.0699999999999932
 31
0.0
  0
LINE
  5
2038
330
1E
100
AcDbEntity
  8
0
  6
HIDDEN
100
AcDbLine
 10
0.0937499999999982
 20
0.0699999999999932
 30
0.0
 11
2.906249999999998
 21
0.0699999999999932
 31
0.0
  0
LINE
  5
2039
330
1E
100
AcDbEntity
  8
0
100
AcDbLine
 10
0.0
 20
0.0699999999999932
 30
0.0
 11
0.0
 21
0.0
 31
0.0
  0
LINE
  5
203A
330
1E
100
AcDbEntity
  8
0
100
AcDbLine
 10
0.0
 20
0.0699999999999932
 30
0.0
 11
0.0937499999999982
 21
0.0699999999999932
 31
0.0
  0
LINE
  5
203B
330
1E
100
AcDbEntity
  8
0
100
AcDbLine
 10
-0.25
 20
1.018920031360289
 30
0.0
 11
-0.25
 21
9.124999999999984
 31
0.0
  0
LINE
  5
203C
330
1E
100
AcDbEntity
  8
0
100
AcDbLine
 10
-2.819999999999936
 20
9.19499999999999
 30
0.0
 11
-0.3899999999999864
 21
9.194999999999975
 31
0.0
  0
LINE
  5
203D
330
1E
100
AcDbEntity
  8
0
100
AcDbLine
 10
-0.3199999999999363
 20
1.169035515795815
 30
0.0
 11
-0.3199999999999363
 21
9.124999999999984
 31
0.0
  0
LINE
  5
203E
330
1E
100
AcDbEntity
  8
0
100
AcDbLine
 10
-2.819999999999993
 20
9.264999999999983
 30
0.0
 11
-0.3899999999999864
 21
9.264999999999983
 31
0.0
  0
ARC
  5
203F
330
1E
100
AcDbEntity
  8
0
100
AcDbCircle
 10
-0.3899999999999864
 20
9.124999999999984
 30
0.0
 40
0.07
100
AcDbArc
 50
0.000000000000007
 51
90.0
  0
ARC
  5
2040
330
1E
100
AcDbEntity
  8
0
100
AcDbCircle
 10
-0.3899999999999864
 20
9.124999999999984
 30
0.0
 40
0.14
100
AcDbArc
 50
0.000000000000007
 51
90.0
  0
LINE
  5
2041
330
1E
100
AcDbEntity
  8
0
100
AcDbLine
 10
-0.144999999999925
 20
6.893054417117311
 30
0.0
 11
-0.1449999999999818
 21
9.124999999999984
 31
0.0
  0
ARC
  5
2042
330
1E
100
AcDbEntity
  8
0
100
AcDbCircle
 10
-0.2849999999999113
 20
6.893054417117311
 30
0.0
 40
0.14
100
AcDbArc
 50
270.0
 51
0.000000000000007
  0
LINE
  5
2043
330
1E
100
AcDbEntity
  8
0
100
AcDbLine
 10
-0.3199999999999363
 20
6.75305441711731
 30
0.0
 11
-0.2849999999999113
 21
6.75305441711731
 31
0.0
  0
LINE
  5
2044
330
1E
100
AcDbEntity
  8
0
100
AcDbLine
 10
-0.9349999999999454
 20
9.369999999999987
 30
0.0
 11
-0.3899999999999864
 21
9.369999999999987
 31
0.0
  0
ARC
  5
2045
330
1E
100
AcDbEntity
  8
0
100
AcDbCircle
 10
-0.3899999999999864
 20
9.124999999999984
 30
0.0
 40
0.245
100
AcDbArc
 50
0.000000000000007
 51
90.0
  0
LINE
  5
2046
330
1E
100
AcDbEntity
  8
0
100
AcDbLine
 10
-2.819999999999993
 20
9.299999999999979
 30
0.0
 11
-1.043743556529819
 21
9.299999999999979
 31
0.0
  0
LINE
  5
2047
330
1E
100
AcDbEntity
  8
0
100
AcDbLine
 10
0.0937499999999982
 20
0.1325000000000074
 30
0.0
 11
0.0937499999999982
 21
0.0
 31
0.0
  0
ARC
  5
2048
330
1E
100
AcDbEntity
  8
0
100
AcDbCircle
 10
0.03125
 20
0.1324999999999932
 30
0.0
 40
0.0625
100
AcDbArc
 50
0.000000000000007
 51
90.0
  0
LINE
  5
2049
330
1E
100
AcDbEntity
  8
0
100
AcDbLine
 10
0.0
 20
0.1950000000000074
 30
0.0
 11
0.03125
 21
0.1950000000000074
 31
0.0
  0
LINE
  5
204A
330
1E
100
AcDbEntity
  8
0
100
AcDbLine
 10
0.0
 20
0.3719459699114367
 30
0.0
 11
0.0
 21
0.1950000000000074
 31
0.0
  0
ARC
  5
204B
330
1E
100
AcDbEntity
  8
0
100
AcDbCircle
 10
-0.5
 20
0.3719459699114225
 30
0.0
 40
0.5
100
AcDbArc
 50
0.0000000000016355
 51
25.00000000000006
  0
LINE
  5
204C
330
1E
100
AcDbEntity
  8
0
100
AcDbLine
 10
-0.0468461064816665
 20
0.5832551007817841
 30
0.0
 11
-0.3199999999999363
 21
1.169035515795812
 31
0.0
  0
LINE
  5
204D
330
1E
100
AcDbEntity
  8
0
100
AcDbLine
 10
1.20408163265307
 20
4.445000000000022
 30
0.0
 11
1.20408163265307
 21
6.444999999999991
 31
0.0
  0
ARC
  5
204E
330
1E
100
AcDbEntity
  8
0
100
AcDbCircle
 10
1.70408163265307
 20
4.445000000000022
 30
0.0
 40
0.5
100
AcDbArc
 50
180.0
 51
205.0000000000001
  0
ARC
  5
204F
330
1E
100
AcDbEntity
  8
0
100
AcDbCircle
 10
0.7040816326530699
 20
6.444999999999977
 30
0.0
 40
0.5
100
AcDbArc
 50
0.000000000000007
 51
25.00000000000006
  0
LINE
  5
2050
330
1E
100
AcDbEntity
  8
0
100
AcDbLine
 10
1.157235526171403
 20
6.656309130870339
 30
0.0
 11
0.323238089885022
 21
8.444822404673571
 31
0.0
  0
LINE
  5
2051
330
1E
100
AcDbEntity
  8
0
100
AcDbLine
 10
-0.1449999999999818
 20
8.898874062077224
 30
0.0
 11
0.1914780012099282
 21
8.616535495362824
 31
0.0
  0
ARC
  5
2052
330
1E
100
AcDbEntity
  8
0
100
AcDbCircle
 10
-0.1299158036333097
 20
8.233513273803295
 30
0.0
 40
0.5
100
AcDbArc
 50
25.00000000000154
 51
50.00000000000632
  0
LINE
  5
2053
330
1E
100
AcDbEntity
  8
0
100
AcDbLine
 10
-2.819999999999993
 20
9.299999999999979
 30
0.0
 11
-2.819999999999936
 21
9.19499999999999
 31
0.0
  0
ARC
  5
2054
330
1E
100
AcDbEntity
  8
0
100
AcDbCircle
 10
-0.2849999999999113
 20
8.768054417117304
 30
0.0
 40
0.14
100
AcDbArc
 50
284.4775121858909
 51
0.000000000000007
  0
LINE
  5
205B
330
1E
100
AcDbEntity
  8
0
100
AcDbLine
 10
-1.062499999999986
 20
9.194999999999983
 30
0.0
 11
-1.062499999999986
 21
9.229999999999979
 31
0.0
  0
ARC
  5
205C
330
1E
100
AcDbEntity
  8
0
100
AcDbCircle
 10
-0.9224999999999994
 20
9.229999999999979
 30
0.0
 40
0.14
100
AcDbArc
 50
90.0
 51
180.0
  0
ENDSEC
  0
SECTION
  2
OBJECTS
  0
DICTIONARY
  5
C
330
0
100
AcDbDictionary
281
     1
  3
ACAD_COLOR
350
1EC5
  3
ACAD_GROUP
350
D
  3
ACAD_LAYOUT
350
19
  3
ACAD_MATERIAL
350
1EC4
  3
ACAD_MLINESTYLE
350
16
  3
ACAD_PLOTSETTINGS
350
18
  3
ACAD_PLOTSTYLENAME
350
E
  3
ACAD_TABLESTYLE
350
1EC6
  3
ACDBHEADERROUNDTRIPXREC
350
207B
  3
AcDbVariableDictionary
350
1ED2
  0
DICTIONARY
  5
1FD8
330
2
100
AcDbDictionary
280
     1
281
     1
  3
ACAD_LAYERFILTERS
360
1FDA
  3
ACLYDICTIONARY
360
1FD9
  0
DICTIONARY
  5
1EF1
330
1EF0
100
AcDbDictionary
280
     1
281
     1
  3
ACAD_SORTENTS
360
1EF2
  0
DICTIONARY
  5
1EC5
102
{ACAD_REACTORS
330
C
102
}
330
C
100
AcDbDictionary
281
     1
  0
DICTIONARY
  5
D
102
{ACAD_REACTORS
330
C
102
}
330
C
100
AcDbDictionary
281
     1
  0
DICTIONARY
  5
19
102
{ACAD_REACTORS
330
C
102
}
330
C
100
AcDbDictionary
281
     1
  3
Layout1
350
1D
  3
Model
350
21
  0
DICTIONARY
  5
1EC4
102
{ACAD_REACTORS
330
C
102
}
330
C
100
AcDbDictionary
281
     1
  0
DICTIONARY
  5
16
102
{ACAD_REACTORS
330
C
102
}
330
C
100
AcDbDictionary
281
     1
  3
Standard
350
17
  0
DICTIONARY
  5
18
102
{ACAD_REACTORS
330
C
102
}
330
C
100
AcDbDictionary
281
     1
  0
ACDBDICTIONARYWDFLT
  5
E
102
{ACAD_REACTORS
330
C
102
}
330
C
100
AcDbDictionary
281
     1
  3
Normal
350
F
100
AcDbDictionaryWithDefault
340
F
  0
DICTIONARY
  5
1EC6
102
{ACAD_REACTORS
330
C
102
}
330
C
100
AcDbDictionary
281
     1
  3
Standard
350
1EC7
  0
DICTIONARY
  5
207B
102
{ACAD_REACTORS
330
C
102
}
330
C
100
AcDbDictionary
281
     1
  3
COLORDICT
350
207C
  3
MATERIALDICT
350
207D
  0
DICTIONARY
  5
1ED2
102
{ACAD_REACTORS
330
C
102
}
330
C
100
AcDbDictionary
281
     1
  3
CTABLESTYLE
350
1ED3
  0
DICTIONARY
  5
1FDA
102
{ACAD_REACTORS
330
1FD8
102
}
330
1FD8
100
AcDbDictionary
281
     1
  0
DICTIONARY
  5
1FD9
102
{ACAD_REACTORS
330
1FD8
102
}
330
1FD8
100
AcDbDictionary
281
     1
1001
ACAD
1000
<All
  0
SORTENTSTABLE
  5
1EF2
102
{ACAD_REACTORS
330
1EF1
102
}
330
1EF1
100
AcDbSortentsTable
330
1EF0
  0
LAYOUT
  5
1D
102
{ACAD_REACTORS
330
19
102
}
102
{ACAD_XDICTIONARY
360
207E
102
}
330
19
100
AcDbPlotSettings
  1

  2
HP LaserJet 2100 Series PS
  4

  6

 40
0.0
 41
0.0
 42
0.0
 43
0.0
 44
0.0
 45
0.0
 46
0.0
 47
0.0
 48
0.0
 49
0.0
140
0.0
141
0.0
142
1.0
143
1.0
 70
   688
 72
     0
 73
     0
 74
     5
  7
monochrome.ctb
 75
    16
147
1.0
148
0.0
149
0.0
100
AcDbLayout
  1
Layout1
 70
     0
 71
     1
 10
0.0
 20
0.0
 11
12.0
 21
9.0
 12
0.0
 22
0.0
 32
0.0
 14
1.000000000000000E+20
 24
1.000000000000000E+20
 34
1.000000000000000E+20
 15
-1.000000000000000E+20
 25
-1.000000000000000E+20
 35
-1.000000000000000E+20
146
0.0
 13
0.0
 23
0.0
 33
0.0
 16
1.0
 26
0.0
 36
0.0
 17
0.0
 27
1.0
 37
0.0
 76
     0
330
1A
  0
LAYOUT
  5
21
102
{ACAD_REACTORS
330
19
102
}
102
{ACAD_XDICTIONARY
360
2080
102
}
330
19
100
AcDbPlotSettings
  1

  2
HP LaserJet 2100 Series PS
  4
Letter
  6

 40
5.365749835968018
 41
5.408073902130127
 42
5.132904052734375
 43
5.090576171875
 44
215.8999938964844
 45
279.3999938964844
 46
0.0
 47
0.0
 48
0.0
 49
0.0
140
0.0
141
0.0
142
1.0
143
3.30601215063799
 70
 11952
 72
     0
 73
     0
 74
     2
  7
monochrome.ctb
 75
     0
147
0.3024792270672754
148
0.0
149
0.0
100
AcDbLayout
  1
Model
 70
     1
 71
     0
 10
0.0
 20
0.0
 11
12.0
 21
9.0
 12
0.0
 22
0.0
 32
0.0
 14
0.0
 24
0.0
 34
0.0
 15
0.0
 25
0.0
 35
0.0
146
0.0
 13
0.0
 23
0.0
 33
0.0
 16
1.0
 26
0.0
 36
0.0
 17
0.0
 27
1.0
 37
0.0
 76
     0
330
1E
1001
ACAD_PSEXT
1000
HP LaserJet 2100 Series PS
1000
HP LaserJet 2100 Series PS
1000
LPT1:
1000

1070
     0
  0
MLINESTYLE
  5
17
102
{ACAD_REACTORS
330
16
102
}
330
16
100
AcDbMlineStyle
  2
STANDARD
 70
     0
  3

 62
   256
 51
90.0
 52
90.0
 71
     2
 49
0.5
 62
   256
  6
BYLAYER
 49
-0.5
 62
   256
  6
BYLAYER
  0
ACDBPLACEHOLDER
  5
F
102
{ACAD_REACTORS
330
E
102
}
330
E
  0
ACAD_PROXY_OBJECT
  5
1EC7
102
{ACAD_REACTORS
330
1EC6
102
}
330
1EC6
100
AcDbProxyObject
 90
      499
 91
      523
 95
   983063
 70
     0
 93
     1841
310
4214DD185B99185C9928B81E85EB51B8AE3F2E07A17AD46E2B8FC02B5E8DC0F42B1CFD028000000C1008070000C3001FDFF8000000C1003FBFF000000182007F7FE00000030400FEFFC00000060801FDFF8000000C1003FBFF00000018200000000000000681FA0B0000001820100E000186003FBFF000000182007F7FE000
310
00030400FEFFC00000060801FDFF8000000C1003FBFF000000182007F7FE000000304000AD7A3703D0AC73F4160000003040201C00030C007F7FE00000030400FEFFC00000060801FDFF8000000C1003FBFF000000182007F7FE00000030400FEFFC000000608000
340
11
340
11
340
11
 94
        0
  0
XRECORD
  5
207C
102
{ACAD_REACTORS
330
207B
102
}
330
207B
100
AcDbXrecord
340
1EC5
  0
XRECORD
  5
207D
102
{ACAD_REACTORS
330
207B
102
}
330
207B
100
AcDbXrecord
340
1EC4
  0
DICTIONARYVAR
  5
1ED3
102
{ACAD_REACTORS
330
1ED2
102
}
330
1ED2
100
DictionaryVariables
280
     0
  1
STANDARD
  0
DICTIONARY
  5
207E
330
1D
100
AcDbDictionary
280
     1
281
     1
  3
ACAD_XREC_ROUNDTRIP
360
207F
  0
DICTIONARY
  5
2080
330
21
100
AcDbDictionary
280
     1
281
     1
  3
ACAD_XREC_ROUNDTRIP
360
2081
  0
XRECORD
  5
207F
102
{ACAD_REACTORS
330
207E
102
}
330
207E
100
AcDbXrecord
102
SHADEPLOT
 70
     0
102
SHADEPLOTRESLEVEL
 70
     2
102
SHADEPLOTCUSTOMDPI
 70
   300
  0
XRECORD
  5
2081
102
{ACAD_REACTORS
330
2080
102
}
330
2080
100
AcDbXrecord
102
SHADEPLOT
 70
     0
102
SHADEPLOTRESLEVEL
 70
     2
102
SHADEPLOTCUSTOMDPI
 70
   300
  0
ENDSEC
  0
EOF
