  0
SECTION
  2
HEADER
  9
$ACADVER
  1
AC1015
  9
$ACADMAINTVER
 70
     6
  9
$DWGCODEPAGE
  3
ANSI_1252
  9
$INSBASE
 10
0.0
 20
0.0
 30
0.0
  9
$EXTMIN
 10
-14.88637043593102
 20
-0.031132797689466
 30
-0.0000000349181948
  9
$EXTMAX
 10
14.88599536164352
 20
19.62818230387057
 30
0.0000000814935746
  9
$LIMMIN
 10
0.0
 20
0.0
  9
$LIMMAX
 10
26.6664
 20
34.99965
  9
$ORTHOMODE
 70
     1
  9
$REGENMODE
 70
     1
  9
$FILLMODE
 70
     1
  9
$QTEXTMODE
 70
     0
  9
$MIRRTEXT
 70
     0
  9
$LTSCALE
 40
1.0
  9
$ATTMODE
 70
     1
  9
$TEXTSIZE
 40
0.299997
  9
$TRACEWID
 40
0.05
  9
$TEXTSTYLE
  7
STANDARD
  9
$CLAYER
  8
0
  9
$CELTYPE
  6
ByLayer
  9
$CECOLOR
 62
   256
  9
$CELTSCALE
 40
1.0
  9
$DISPSILH
 70
     0
  9
$DIMSCALE
 40
3.3333
  9
$DIMASZ
 40
0.125
  9
$DIMEXO
 40
0.062
  9
$DIMDLI
 40
0.375
  9
$DIMRND
 40
0.0
  9
$DIMDLE
 40
0.0
  9
$DIMEXE
 40
0.08
  9
$DIMTP
 40
0.0
  9
$DIMTM
 40
0.0
  9
$DIMTXT
 40
0.09
  9
$DIMCEN
 40
-0.03125
  9
$DIMTSZ
 40
0.0
  9
$DIMTOL
 70
     0
  9
$DIMLIM
 70
     0
  9
$DIMTIH
 70
     1
  9
$DIMTOH
 70
     1
  9
$DIMSE1
 70
     0
  9
$DIMSE2
 70
     0
  9
$DIMTAD
 70
     0
  9
$DIMZIN
 70
     0
  9
$DIMBLK
  1

  9
$DIMASO
 70
     0
  9
$DIMSHO
 70
     0
  9
$DIMPOST
  1

  9
$DIMAPOST
  1

  9
$DIMALT
 70
     0
  9
$DIMALTD
 70
     2
  9
$DIMALTF
 40
25.4
  9
$DIMLFAC
 40
1.0
  9
$DIMTOFL
 70
     0
  9
$DIMTVP
 40
0.0
  9
$DIMTIX
 70
     0
  9
$DIMSOXD
 70
     0
  9
$DIMSAH
 70
     0
  9
$DIMBLK1
  1

  9
$DIMBLK2
  1

  9
$DIMSTYLE
  2
Standard
  9
$DIMCLRD
 70
     0
  9
$DIMCLRE
 70
     0
  9
$DIMCLRT
 70
     0
  9
$DIMTFAC
 40
1.0
  9
$DIMGAP
 40
0.09
  9
$DIMJUST
 70
     0
  9
$DIMSD1
 70
     0
  9
$DIMSD2
 70
     0
  9
$DIMTOLJ
 70
     1
  9
$DIMTZIN
 70
     0
  9
$DIMALTZ
 70
     0
  9
$DIMALTTZ
 70
     0
  9
$DIMUPT
 70
     0
  9
$DIMDEC
 70
     5
  9
$DIMTDEC
 70
     5
  9
$DIMALTU
 70
     2
  9
$DIMALTTD
 70
     2
  9
$DIMTXSTY
  7
STANDARD
  9
$DIMAUNIT
 70
     0
  9
$DIMADEC
 70
     0
  9
$DIMALTRND
 40
0.0
  9
$DIMAZIN
 70
     0
  9
$DIMDSEP
 70
    46
  9
$DIMATFIT
 70
     3
  9
$DIMFRAC
 70
     2
  9
$DIMLDRBLK
  1

  9
$DIMLUNIT
 70
     5
  9
$DIMLWD
 70
    -2
  9
$DIMLWE
 70
    -2
  9
$DIMTMOVE
 70
     2
  9
$LUNITS
 70
     2
  9
$LUPREC
 70
     4
  9
$SKETCHINC
 40
0.1
  9
$FILLETRAD
 40
0.0
  9
$AUNITS
 70
     0
  9
$AUPREC
 70
     0
  9
$MENU
  1
acad
  9
$ELEVATION
 40
0.0
  9
$PELEVATION
 40
0.0
  9
$THICKNESS
 40
0.0
  9
$LIMCHECK
 70
     0
  9
$CHAMFERA
 40
0.0
  9
$CHAMFERB
 40
0.0
  9
$CHAMFERC
 40
0.0
  9
$CHAMFERD
 40
0.0
  9
$SKPOLY
 70
     0
  9
$TDCREATE
 40
2450606.846187731
  9
$TDUCREATE
 40
2450607.179521065
  9
$TDUPDATE
 40
2454495.930593958
  9
$TDUUPDATE
 40
2454496.263927292
  9
$TDINDWG
 40
0.4019034954
  9
$TDUSRTIMER
 40
0.4019034954
  9
$USRTIMER
 70
     1
  9
$ANGBASE
 50
0.0
  9
$ANGDIR
 70
     0
  9
$PDMODE
 70
     0
  9
$PDSIZE
 40
0.0
  9
$PLINEWID
 40
0.0
  9
$SPLFRAME
 70
     0
  9
$SPLINETYPE
 70
     6
  9
$SPLINESEGS
 70
     8
  9
$HANDSEED
  5
2071
  9
$SURFTAB1
 70
     6
  9
$SURFTAB2
 70
     6
  9
$SURFTYPE
 70
     6
  9
$SURFU
 70
     6
  9
$SURFV
 70
     6
  9
$UCSBASE
  2

  9
$UCSNAME
  2

  9
$UCSORG
 10
0.0
 20
0.0
 30
0.0
  9
$UCSXDIR
 10
1.0
 20
0.0
 30
0.0
  9
$UCSYDIR
 10
0.0
 20
1.0
 30
0.0
  9
$UCSORTHOREF
  2

  9
$UCSORTHOVIEW
 70
     0
  9
$UCSORGTOP
 10
0.0
 20
0.0
 30
0.0
  9
$UCSORGBOTTOM
 10
0.0
 20
0.0
 30
0.0
  9
$UCSORGLEFT
 10
0.0
 20
0.0
 30
0.0
  9
$UCSORGRIGHT
 10
0.0
 20
0.0
 30
0.0
  9
$UCSORGFRONT
 10
0.0
 20
0.0
 30
0.0
  9
$UCSORGBACK
 10
0.0
 20
0.0
 30
0.0
  9
$PUCSBASE
  2

  9
$PUCSNAME
  2

  9
$PUCSORG
 10
0.0
 20
0.0
 30
0.0
  9
$PUCSXDIR
 10
1.0
 20
0.0
 30
0.0
  9
$PUCSYDIR
 10
0.0
 20
1.0
 30
0.0
  9
$PUCSORTHOREF
  2

  9
$PUCSORTHOVIEW
 70
     0
  9
$PUCSORGTOP
 10
0.0
 20
0.0
 30
0.0
  9
$PUCSORGBOTTOM
 10
0.0
 20
0.0
 30
0.0
  9
$PUCSORGLEFT
 10
0.0
 20
0.0
 30
0.0
  9
$PUCSORGRIGHT
 10
0.0
 20
0.0
 30
0.0
  9
$PUCSORGFRONT
 10
0.0
 20
0.0
 30
0.0
  9
$PUCSORGBACK
 10
0.0
 20
0.0
 30
0.0
  9
$USERI1
 70
     0
  9
$USERI2
 70
     0
  9
$USERI3
 70
     0
  9
$USERI4
 70
     0
  9
$USERI5
 70
     0
  9
$USERR1
 40
0.0
  9
$USERR2
 40
0.0
  9
$USERR3
 40
0.0
  9
$USERR4
 40
0.0
  9
$USERR5
 40
0.0
  9
$WORLDVIEW
 70
     1
  9
$SHADEDGE
 70
     3
  9
$SHADEDIF
 70
    70
  9
$TILEMODE
 70
     1
  9
$MAXACTVP
 70
    16
  9
$PINSBASE
 10
0.0
 20
0.0
 30
0.0
  9
$PLIMCHECK
 70
     0
  9
$PEXTMIN
 10
1.000000000000000E+20
 20
1.000000000000000E+20
 30
1.000000000000000E+20
  9
$PEXTMAX
 10
-1.000000000000000E+20
 20
-1.000000000000000E+20
 30
-1.000000000000000E+20
  9
$PLIMMIN
 10
0.0
 20
0.0
  9
$PLIMMAX
 10
12.0
 20
9.0
  9
$UNITMODE
 70
     0
  9
$VISRETAIN
 70
     0
  9
$PLINEGEN
 70
     1
  9
$PSLTSCALE
 70
     0
  9
$TREEDEPTH
 70
  3020
  9
$CMLSTYLE
  2
Standard
  9
$CMLJUST
 70
     0
  9
$CMLSCALE
 40
1.0
  9
$PROXYGRAPHICS
 70
     1
  9
$MEASUREMENT
 70
     0
  9
$CELWEIGHT
370
    -1
  9
$ENDCAPS
280
     0
  9
$JOINSTYLE
280
     0
  9
$LWDISPLAY
290
     0
  9
$INSUNITS
 70
     0
  9
$HYPERLINKBASE
  1

  9
$STYLESHEET
  1
monochrome.ctb
  9
$XEDIT
290
     1
  9
$CEPSNTYPE
380
     0
  9
$PSTYLEMODE
290
     1
  9
$FINGERPRINTGUID
  2
{3ADB8775-CCC7-496E-BAAD-1186F1B407E7}
  9
$VERSIONGUID
  2
{368D1BB0-D48A-4D78-A39A-D50D48C62633}
  9
$EXTNAMES
290
     1
  9
$PSVPSCALE
 40
0.0
  9
$OLESTARTUP
290
     0
  0
ENDSEC
  0
SECTION
  2
CLASSES
  0
CLASS
  1
ACDBDICTIONARYWDFLT
  2
AcDbDictionaryWithDefault
  3
AutoCAD 2000
 90
        0
280
     0
281
     0
  0
CLASS
  1
ACDBPLACEHOLDER
  2
AcDbPlaceHolder
  3
ObjectDBX Classes
 90
        0
280
     0
281
     0
  0
CLASS
  1
LAYOUT
  2
AcDbLayout
  3
ObjectDBX Classes
 90
        0
280
     0
281
     0
  0
CLASS
  1
LONG_TRANSACTION
  2
AcDbLongTransaction
  3
ObjectDBX Classes
 90
   -65536
280
     1
281
     0
  0
CLASS
  1
LWPOLYLINE
  2
AcDbPolyline
  3
AutoCAD 2000
 90
        0
280
     0
281
     1
  0
CLASS
  1
HATCH
  2
AcDbHatch
  3
AutoCAD 2000
 90
        0
280
     0
281
     1
  0
CLASS
  1
XRECORD
  2
AcDbXrecord
  3
AutoCAD 2000
 90
        0
280
     0
281
     0
  0
CLASS
  1
LONG_TRANSACTION
  2
AcDbLongTransaction
  3
ObjectDBX Classes
 90
   -65536
280
     1
281
     0
  0
CLASS
  1
LWPOLYLINE
  2
AcDbPolyline
  3
AutoCAD 2000
 90
        0
280
     0
281
     1
  0
CLASS
  1
HATCH
  2
AcDbHatch
  3
AutoCAD 2000
 90
        0
280
     0
281
     1
  0
CLASS
  1
XRECORD
  2
AcDbXrecord
  3
AutoCAD 2000
 90
        0
280
     0
281
     0
  0
CLASS
  1
LONG_TRANSACTION
  2
AcDbLongTransaction
  3
ObjectDBX Classes
 90
   -65536
280
     1
281
     0
  0
CLASS
  1
LWPOLYLINE
  2
AcDbPolyline
  3
AutoCAD 2000
 90
        0
280
     0
281
     1
  0
CLASS
  1
HATCH
  2
AcDbHatch
  3
AutoCAD 2000
 90
        0
280
     0
281
     1
  0
CLASS
  1
XRECORD
  2
AcDbXrecord
  3
AutoCAD 2000
 90
        0
280
     0
281
     0
  0
CLASS
  1
LONG_TRANSACTION
  2
AcDbLongTransaction
  3
ObjectDBX Classes
 90
   -65536
280
     1
281
     0
  0
CLASS
  1
LWPOLYLINE
  2
AcDbPolyline
  3
AutoCAD 2000
 90
        0
280
     0
281
     1
  0
CLASS
  1
HATCH
  2
AcDbHatch
  3
AutoCAD 2000
 90
        0
280
     0
281
     1
  0
CLASS
  1
XRECORD
  2
AcDbXrecord
  3
AutoCAD 2000
 90
        0
280
     0
281
     0
  0
CLASS
  1
LONG_TRANSACTION
  2
AcDbLongTransaction
  3
ObjectDBX Classes
 90
   -65536
280
     1
281
     0
  0
CLASS
  1
LWPOLYLINE
  2
AcDbPolyline
  3
AutoCAD 2000
 90
        0
280
     0
281
     1
  0
CLASS
  1
HATCH
  2
AcDbHatch
  3
AutoCAD 2000
 90
        0
280
     0
281
     1
  0
CLASS
  1
XRECORD
  2
AcDbXrecord
  3
AutoCAD 2000
 90
        0
280
     0
281
     0
  0
CLASS
  1
TABLESTYLE
  2
AcDbTableStyle
  3
ObjectDBX Classes
 90
     2047
280
     1
281
     0
  0
CLASS
  1
DICTIONARYVAR
  2
AcDbDictionaryVar
  3
AutoCAD 2000
 90
        0
280
     0
281
     0
  0
CLASS
  1
SORTENTSTABLE
  2
AcDbSortentsTable
  3
AutoCAD 2000
 90
        0
280
     0
281
     0
  0
ENDSEC
  0
SECTION
  2
TABLES
  0
TABLE
  2
VPORT
  5
8
330
0
100
AcDbSymbolTable
 70
     3
  0
VPORT
  5
2063
330
8
100
AcDbSymbolTableRecord
100
AcDbViewportTableRecord
  2
*Active
 70
     0
 10
0.0
 20
0.0
 11
1.0
 21
1.0
 12
5.890014782034488
 22
17.48425860115527
 13
0.0
 23
0.0
 14
0.063
 24
0.063
 15
0.25
 25
0.25
 16
0.0
 26
0.0
 36
1.0
 17
0.0
 27
0.0
 37
0.0
 40
35.43113460109163
 41
1.692748091603054
 42
50.0
 43
0.0
 44
0.0
 50
0.0
 51
0.0
 71
     0
 72
   100
 73
     1
 74
     0
 75
     0
 76
     0
 77
     0
 78
     0
281
     0
 65
     1
110
0.0
120
0.0
130
0.0
111
1.0
121
0.0
131
0.0
112
0.0
122
1.0
132
0.0
 79
     0
146
0.0
  0
ENDTAB
  0
TABLE
  2
LTYPE
  5
5
330
0
100
AcDbSymbolTable
 70
     5
  0
LTYPE
  5
13
330
5
100
AcDbSymbolTableRecord
100
AcDbLinetypeTableRecord
  2
ByBlock
 70
     0
  3

 72
    65
 73
     0
 40
0.0
  0
LTYPE
  5
14
330
5
100
AcDbSymbolTableRecord
100
AcDbLinetypeTableRecord
  2
ByLayer
 70
     0
  3

 72
    65
 73
     0
 40
0.0
  0
LTYPE
  5
15
330
5
100
AcDbSymbolTableRecord
100
AcDbLinetypeTableRecord
  2
CONTINUOUS
 70
     0
  3
Solid line
 72
    65
 73
     0
 40
0.0
  0
LTYPE
  5
3A
330
5
100
AcDbSymbolTableRecord
100
AcDbLinetypeTableRecord
  2
HIDDEN
 70
     0
  3
_ _ _ _ _ _ _ _ _ _ _ _ _ _ _ _ _ _ _ _ _ _ _
 72
    65
 73
     2
 40
0.375
 49
0.25
 74
     0
 49
-0.125
 74
     0
  0
LTYPE
  5
3B
330
5
100
AcDbSymbolTableRecord
100
AcDbLinetypeTableRecord
  2
DASHED
 70
     0
  3
__ __ __ __ __ __ __ __ __ __ __ __ __ __ __
 72
    65
 73
     2
 40
0.75
 49
0.5
 74
     0
 49
-0.25
 74
     0
  0
LTYPE
  5
B57
330
5
100
AcDbSymbolTableRecord
100
AcDbLinetypeTableRecord
  2
THD
 70
     0
  3
_ _ _ _ _ _ _ _ _ _ _ _ _ _ _ _ _ _ _ _ _ _ _ _
 72
    65
 73
     2
 40
0.15
 49
0.11
 74
     0
 49
-0.04
 74
     0
  0
LTYPE
  5
1720
330
5
100
AcDbSymbolTableRecord
100
AcDbLinetypeTableRecord
  2
PHANTOM
 70
     0
  3
_____ _ _ _____ _ _ _____ _ _ _____ _ _ ____
 72
    65
 73
     6
 40
2.5
 49
1.25
 74
     0
 49
-0.25
 74
     0
 49
0.25
 74
     0
 49
-0.25
 74
     0
 49
0.25
 74
     0
 49
-0.25
 74
     0
  0
ENDTAB
  0
TABLE
  2
LAYER
  5
2
102
{ACAD_XDICTIONARY
360
1FD8
102
}
330
0
100
AcDbSymbolTable
 70
    10
  0
LAYER
  5
10
330
2
100
AcDbSymbolTableRecord
100
AcDbLayerTableRecord
  2
0
 70
     0
 62
     7
  6
CONTINUOUS
370
    -3
390
F
  0
LAYER
  5
41
330
2
100
AcDbSymbolTableRecord
100
AcDbLayerTableRecord
  2
NOTE
 70
     0
 62
     1
  6
CONTINUOUS
370
    -3
390
F
  0
LAYER
  5
42
330
2
100
AcDbSymbolTableRecord
100
AcDbLayerTableRecord
  2
TITLE
 70
     0
 62
     5
  6
CONTINUOUS
370
    -3
390
F
  0
LAYER
  5
43
330
2
100
AcDbSymbolTableRecord
100
AcDbLayerTableRecord
  2
BORDER
 70
     0
 62
     7
  6
CONTINUOUS
370
    -3
390
F
  0
LAYER
  5
44
330
2
100
AcDbSymbolTableRecord
100
AcDbLayerTableRecord
  2
ATTRIBUTES
 70
     0
 62
     1
  6
CONTINUOUS
370
    -3
390
F
  0
LAYER
  5
45
330
2
100
AcDbSymbolTableRecord
100
AcDbLayerTableRecord
  2
REV
 70
     0
 62
     1
  6
CONTINUOUS
370
    -3
390
F
  0
LAYER
  5
46
330
2
100
AcDbSymbolTableRecord
100
AcDbLayerTableRecord
  2
DIM
 70
     0
 62
     5
  6
CONTINUOUS
370
    -3
390
F
  0
LAYER
  5
49
330
2
100
AcDbSymbolTableRecord
100
AcDbLayerTableRecord
  2
HIDDEN
 70
     0
 62
     8
  6
HIDDEN
370
    -3
390
F
  0
LAYER
  5
4B
330
2
100
AcDbSymbolTableRecord
100
AcDbLayerTableRecord
  2
DASHED
 70
     0
 62
     8
  6
DASHED
370
    -3
390
F
  0
LAYER
  5
50
330
2
100
AcDbSymbolTableRecord
100
AcDbLayerTableRecord
  2
OBJECT
 70
     0
 62
     7
  6
CONTINUOUS
370
    -3
390
F
  0
ENDTAB
  0
TABLE
  2
STYLE
  5
3
330
0
100
AcDbSymbolTable
 70
     4
  0
STYLE
  5
11
330
3
100
AcDbSymbolTableRecord
100
AcDbTextStyleTableRecord
  2
STANDARD
 70
     0
 40
0.0
 41
1.0
 50
0.0
 71
     0
 42
0.299997
  3
TXT
  4

  0
STYLE
  5
37
330
3
100
AcDbSymbolTableRecord
100
AcDbTextStyleTableRecord
  2
COMPLEX
 70
     0
 40
0.0
 41
1.0
 50
0.0
 71
     0
 42
0.125
  3
COMPLEX
  4

  0
STYLE
  5
38
330
3
100
AcDbSymbolTableRecord
100
AcDbTextStyleTableRecord
  2
HELVETICA
 70
     0
 40
0.0
 41
1.0
 50
0.0
 71
     0
 42
0.27
  3
SIMPLEX.SHX
  4

  0
STYLE
  5
39
330
3
100
AcDbSymbolTableRecord
100
AcDbTextStyleTableRecord
  2
ITALIC
 70
     0
 40
0.0
 41
1.0
 50
0.0
 71
     0
 42
0.1
  3
ITALIC
  4

  0
ENDTAB
  0
TABLE
  2
VIEW
  5
6
330
0
100
AcDbSymbolTable
 70
     0
  0
ENDTAB
  0
TABLE
  2
UCS
  5
7
330
0
100
AcDbSymbolTable
 70
     0
  0
ENDTAB
  0
TABLE
  2
APPID
  5
9
330
0
100
AcDbSymbolTable
 70
     3
  0
APPID
  5
12
330
9
100
AcDbSymbolTableRecord
100
AcDbRegAppTableRecord
  2
ACAD
 70
     0
  0
APPID
  5
16DA
330
9
100
AcDbSymbolTableRecord
100
AcDbRegAppTableRecord
  2
CONTENTBLOCKICON
 70
     0
  0
APPID
  5
1EF8
330
9
100
AcDbSymbolTableRecord
100
AcDbRegAppTableRecord
  2
ACAD_PSEXT
 70
     0
  0
ENDTAB
  0
TABLE
  2
DIMSTYLE
  5
A
330
0
100
AcDbSymbolTable
 70
     1
100
AcDbDimStyleTable
  0
DIMSTYLE
105
43F
330
A
100
AcDbSymbolTableRecord
100
AcDbDimStyleTableRecord
  2
Standard
 70
     0
  3

  4

340
11
  0
ENDTAB
  0
TABLE
  2
BLOCK_RECORD
  5
1
330
0
100
AcDbSymbolTable
 70
     8
  0
BLOCK_RECORD
  5
1E
330
1
100
AcDbSymbolTableRecord
100
AcDbBlockTableRecord
  2
*Model_Space
340
21
  0
BLOCK_RECORD
  5
1A
330
1
100
AcDbSymbolTableRecord
100
AcDbBlockTableRecord
  2
*Paper_Space
340
1D
  0
BLOCK_RECORD
  5
28
330
1
100
AcDbSymbolTableRecord
100
AcDbBlockTableRecord
  2
REVISION
340
0
  0
BLOCK_RECORD
  5
2B
330
1
100
AcDbSymbolTableRecord
100
AcDbBlockTableRecord
  2
03A1T157
340
0
  0
BLOCK_RECORD
  5
2C
330
1
100
AcDbSymbolTableRecord
100
AcDbBlockTableRecord
  2
REGTRADE
340
0
102
{BLKREFS
331
13C
102
}
  0
BLOCK_RECORD
  5
35
330
1
100
AcDbSymbolTableRecord
100
AcDbBlockTableRecord
  2
REV
340
0
  0
BLOCK_RECORD
  5
36
330
1
100
AcDbSymbolTableRecord
100
AcDbBlockTableRecord
  2
TRIANGLE
340
0
102
{BLKREFS
331
314
102
}
  0
BLOCK_RECORD
  5
4F6
330
1
100
AcDbSymbolTableRecord
100
AcDbBlockTableRecord
  2
HUBORDER
340
0
  0
BLOCK_RECORD
  5
1678
330
1
100
AcDbSymbolTableRecord
100
AcDbBlockTableRecord
  2
Notes1Port
340
0
310
2800000020000000200000000100080000000000000400000000000000000000000000000000000000000000000080000080000000808000800000008000800080800000C0C0C000C0DCC000F0CAA6000000FF007F7FFF000000A5005252A50000007F003F3F7F0000004C0026264C000000260013132600003FFF007F9FFF
310
000029A5005267A500001F7F003F4F7F0000134C00262F4C000009260013172600007FFF007FBFFF000052A500527CA500003F7F003F5F7F0000264C0026394C0000132600131C260000BFFF007FDFFF00007CA5005291A500005F7F003F6F7F0000394C0026424C00001C26001321260000FFFF007FFFFF0000A5A50052A5
310
A500007F7F003F7F7F00004C4C00264C4C00002626001326260000FFBF007FFFDF0000A57C0052A59100007F5F003F7F6F00004C3900264C420000261C001326210000FF7F007FFFBF0000A5520052A57C00007F3F003F7F5F00004C2600264C39000026130013261C0000FF3F007FFF9F0000A5290052A56700007F1F003F
310
7F4F00004C1300264C2F00002609001326170000FF00007FFF7F0000A5000052A55200007F00003F7F3F00004C0000264C260000260000132613003FFF00009FFF7F0029A5000067A552001F7F00004F7F3F00134C00002F4C260009260000172613007FFF0000BFFF7F0052A500007CA552003F7F00005F7F3F00264C0000
310
394C2600132600001C261300BFFF0000DFFF7F007CA5000091A552005F7F00006F7F3F00394C0000424C26001C26000021261300FFFF0000FFFF7F00A5A50000A5A552007F7F00007F7F3F004C4C00004C4C26002626000026261300FFBF0000FFDF7F00A57C0000A59152007F5F00007F6F3F004C3900004C422600261C00
310
0026211300FF7F0000FFBF7F00A5520000A57C52007F3F00007F5F3F004C2600004C39260026130000261C1300FF3F0000FF9F7F00A5290000A56752007F1F00007F4F3F004C1300004C2F26002609000026171300FF000000FF7F7F00A5000000A55252007F0000007F3F3F004C0000004C2626002600000026131300FF00
310
3F00FF7F9F00A5002900A55267007F001F007F3F4F004C0013004C262F002600090026131700FF007F00FF7FBF00A5005200A5527C007F003F007F3F5F004C0026004C2639002600130026131C00FF00BF00FF7FDF00A5007C00A55291007F005F007F3F6F004C0039004C26420026001C0026132100FF00FF00FF7FFF00A5
310
00A500A552A5007F007F007F3F7F004C004C004C264C002600260026132600BF00FF00DF7FFF007C00A5009152A5005F007F006F3F7F0039004C0042264C001C002600211326007F00FF00BF7FFF005200A5007C52A5003F007F005F3F7F0026004C0039264C00130026001C1326003F00FF009F7FFF002900A5006752A500
310
1F007F004F3F7F00F0FBFF00A56E3A00808080000000FF0000FF000000FFFF00FF000000FF00FF00FFFF0000FFFFFF0007070707070707070707070707070707070707070707070707070707070707070707070707070707070707070707070707070707070707070707070707070707070707070707070707070707070707
310
07070707070707070707070707070707070707070707070707070707070707070707070707070707070707070707070707070707070707070707070707070707070707070707070707070707070707070707070707070707070707070707070707070707070707070707070707070707070707070707070707070707070707
310
070707070707070707070707070707070707070707070707070707070707B4B4B4B4B4070707070707070707070707070707070707070707070707070707B4B4B4B4B4070707070707070707070707070707070707070707070707070707070707070707070707070707070707070707070707070707070707070707070707
310
07070707070707070707070707070707070707070707070707070707070707070707070707070707070707070707070707070707070707070707070707070707070707070707070707070707070707070707070707070707070707070707070707070707B4B4B4B4B407070707070707070707070707070707070707070707
310
0707070707B4B4B4B4B40707070707070707070707070707070707070707070707070707070707070707070707070707070707070707070707070707070707070707070707070707070707070707070707070707070707070707070707070707070707070707070707070707B4B4B4B4B40707070707070707070707070707
310
0707070707070707070707B4B407B4B4B4B4070707070707070707070707070707070707070707070707B407B4B4070707070707070707070707070707070707070707070707070707070707070707070707070707070707070707070707070707070707070707070707070707070707070707070707070707070707070707
310
07070707070707070707070707070707070707070707070707070707070707070707070707070707070707070707070707070707070707070707070707070707070707070707070707070707070707070707070707070707070707070707070707070707070707070707070707070707070707070707070707070707070707
310
07070707070707070707070707070707070707070707070707070707070707070707070707070707070707070707070707070707070707070707070707070707070707070707070707070707070707070707070707070707070707070707070707070707070707070707070707070707070707070707070707070707070707
310
0707070707070707070707070707070707070707070707070707070707070707070707070707070707070707070707070707070707070707
  0
BLOCK_RECORD
  5
1EF0
102
{ACAD_XDICTIONARY
360
1EF1
102
}
330
1
100
AcDbSymbolTableRecord
100
AcDbBlockTableRecord
  2
Copyright tag
340
0
  0
ENDTAB
  0
ENDSEC
  0
SECTION
  2
BLOCKS
  0
BLOCK
  5
55
330
1E
100
AcDbEntity
  8
0
100
AcDbBlockBegin
  2
*Model_Space
 70
     0
 10
0.0
 20
0.0
 30
0.0
  3
*Model_Space
  1

  4

  0
ENDBLK
  5
56
330
1E
100
AcDbEntity
  8
0
100
AcDbBlockEnd
  0
BLOCK
  5
53
330
1A
100
AcDbEntity
 67
     1
  8
0
100
AcDbBlockBegin
  2
*Paper_Space
 70
     0
 10
0.0
 20
0.0
 30
0.0
  3
*Paper_Space
  1

  4

  0
ENDBLK
  5
54
330
1A
100
AcDbEntity
 67
     1
  8
0
100
AcDbBlockEnd
  0
BLOCK
  5
100
330
28
100
AcDbEntity
  8
0
100
AcDbBlockBegin
  2
REVISION
 70
     2
 10
0.0
 20
0.0
 30
0.0
  3
REVISION
  1

  4

  0
ATTDEF
  5
101
330
28
100
AcDbEntity
  8
0
100
AcDbText
 10
-2.815
 20
1.601
 30
0.0
 40
0.09
  1

 72
     1
 11
-2.815
 21
1.601
 31
0.0
100
AcDbAttributeDefinition
  3
Enter revision level.
  2
REV
 70
     4
  0
ATTDEF
  5
102
330
28
100
AcDbEntity
  8
0
100
AcDbText
 10
-2.286927849525391
 20
1.601
 30
0.0
 40
0.09
  1

 72
     1
 11
-2.286927849525391
 21
1.601
 31
0.0
100
AcDbAttributeDefinition
  3
Enter date.
  2
DATE
 70
     4
  0
ATTDEF
  5
103
330
28
100
AcDbEntity
  8
0
100
AcDbText
 10
-0.2146447286802076
 20
1.601
 30
0.0
 40
0.09
  1

 72
     1
 11
-0.2146447286802076
 21
1.601
 31
0.0
100
AcDbAttributeDefinition
  3
Enter drafter's initials.
  2
INIT
 70
     4
  0
ENDBLK
  5
104
330
28
100
AcDbEntity
  8
0
100
AcDbBlockEnd
  0
BLOCK
  5
139
330
2B
100
AcDbEntity
  8
0
100
AcDbBlockBegin
  2
03A1T157
 70
     0
 10
0.0
 20
0.0
 30
0.0
  3
03A1T157
  1

  4

  0
TEXT
  5
13A
330
2B
100
AcDbEntity
  8
0
100
AcDbText
 10
-0.4749468064104967
 20
0.1023153099673699
 30
0.0
 40
0.08999991
  1
 SIMPSON
  7
HELVETICA
100
AcDbText
  0
INSERT
  5
13C
330
2B
100
AcDbEntity
  8
0
100
AcDbBlockReference
  2
REGTRADE
 10
0.2908665873180283
 20
-0.010775783230546
 30
0.0
 41
1.1666655
 42
1.1666655
 43
1.1666655
  0
TEXT
  5
13D
330
2B
100
AcDbEntity
  8
0
100
AcDbText
 10
-0.4749468064104967
 20
-0.0476845400326305
 30
0.0
 40
0.08999991
  1
Strong-Tie
  7
HELVETICA
100
AcDbText
  0
ENDBLK
  5
13E
330
2B
100
AcDbEntity
  8
0
100
AcDbBlockEnd
  0
BLOCK
  5
13F
330
2C
100
AcDbEntity
  8
0
100
AcDbBlockBegin
  2
REGTRADE
 70
     0
 10
6.754739829018028
 20
4.627294914098755
 30
0.0
  3
REGTRADE
  1

  4

  0
LINE
  5
140
330
2C
100
AcDbEntity
  8
0
100
AcDbLine
 10
6.771984786407902
 20
4.635039856277119
 30
0.0
 11
6.771984786407902
 21
4.630463299535358
 31
0.0
  0
TEXT
  5
141
330
2C
100
AcDbEntity
  8
0
100
AcDbText
 10
6.771949592617311
 20
4.633455663558817
 30
0.0
 40
0.05
  1
R
100
AcDbText
  0
CIRCLE
  5
142
330
2C
100
AcDbEntity
  8
0
100
AcDbCircle
 10
6.786005112734824
 20
4.658450704225352
 30
0.0
 40
0.03125
  0
ENDBLK
  5
143
330
2C
100
AcDbEntity
  8
0
100
AcDbBlockEnd
  0
BLOCK
  5
313
330
35
100
AcDbEntity
  8
0
100
AcDbBlockBegin
  2
REV
 70
     2
 10
0.0
 20
0.0
 30
0.0
  3
REV
  1

  4

  0
INSERT
  5
314
330
35
100
AcDbEntity
  8
0
100
AcDbBlockReference
  2
TRIANGLE
 10
0.0292890000000003
 20
0.0634589999999999
 30
0.0
 41
0.9
 42
0.9
 43
0.9
  0
ATTDEF
  5
315
330
35
100
AcDbEntity
  8
0
100
AcDbText
 10
-0.0301599999999995
 20
-0.044543
 30
0.0
 40
0.09
  1
A
100
AcDbAttributeDefinition
  3
Enter revision letter
  2
REVISION
 70
     0
  0
ENDBLK
  5
316
330
35
100
AcDbEntity
  8
0
100
AcDbBlockEnd
  0
BLOCK
  5
317
330
36
100
AcDbEntity
  8
0
100
AcDbBlockBegin
  2
TRIANGLE
 70
     0
 10
5.451708999999999
 20
5.353121
 30
0.0
  3
TRIANGLE
  1

  4

  0
LINE
  5
318
330
36
100
AcDbEntity
  8
0
100
AcDbLine
 10
5.418628
 20
5.413703
 30
0.0
 11
5.324878
 21
5.226203
 31
0.0
  0
LINE
  5
319
330
36
100
AcDbEntity
  8
0
100
AcDbLine
 10
5.418628
 20
5.413703
 30
0.0
 11
5.512378
 21
5.226203
 31
0.0
  0
LINE
  5
31A
330
36
100
AcDbEntity
  8
0
100
AcDbLine
 10
5.324878
 20
5.226203
 30
0.0
 11
5.512378
 21
5.226203
 31
0.0
  0
ENDBLK
  5
31B
330
36
100
AcDbEntity
  8
0
100
AcDbBlockEnd
  0
BLOCK
  5
52E
330
4F6
100
AcDbEntity
  8
0
100
AcDbBlockBegin
  2
HUBORDER
 70
     2
 10
0.0
 20
0.0
 30
0.0
  3
HUBORDER
  1

  4

  0
TRACE
  5
4F7
330
4F6
100
AcDbEntity
  8
BORDER
100
AcDbTrace
 10
5.061
 20
0.2505000000000006
 30
0.0
 11
5.061
 21
0.275500000000001
 31
0.0
 12
3.336
 22
0.2505000000000006
 32
0.0
 13
3.336
 23
0.275500000000001
 33
0.0
  0
TRACE
  5
4F8
330
4F6
100
AcDbEntity
  8
BORDER
100
AcDbTrace
 10
5.061
 20
1.5015
 30
0.0
 11
5.086
 21
1.5265
 31
0.0
 12
3.336
 22
1.5015
 32
0.0
 13
3.311
 23
1.5265
 33
0.0
  0
LINE
  5
4F9
330
4F6
100
AcDbEntity
  8
BORDER
100
AcDbLine
 10
5.061
 20
0.2629999999999999
 30
0.0
 11
3.336
 21
0.2629999999999999
 31
0.0
  0
LINE
  5
4FA
330
4F6
100
AcDbEntity
  8
BORDER
100
AcDbLine
 10
5.0735
 20
1.514
 30
0.0
 11
3.3235
 21
1.514
 31
0.0
  0
TEXT
  5
4FB
330
4F6
100
AcDbEntity
  8
TITLE
100
AcDbText
 10
3.810611302202785
 20
1.303578326506746
 30
0.0
 40
0.07
  1
%%UCONFIDENTIAL
 72
     1
 11
4.196777968869451
 21
1.303578326506746
 31
0.0
100
AcDbText
  0
TEXT
  5
4FC
330
4F6
100
AcDbEntity
  8
TITLE
100
AcDbText
 10
3.483777968869451
 20
0.4035783265067465
 30
0.0
 40
0.062
  1
EXPRESS WRITTEN CONSENT!
 72
     1
 11
4.196777968869451
 21
0.4035783265067465
 31
0.0
100
AcDbText
  0
TEXT
  5
4FD
330
4F6
100
AcDbEntity
  8
TITLE
100
AcDbText
 10
3.473444635536119
 20
0.5535783265067469
 30
0.0
 40
0.062
  1
REPRODUCED WITHOUT THEIR
 72
     1
 11
4.196777968869451
 21
0.5535783265067469
 31
0.0
100
AcDbText
  0
TEXT
  5
4FE
330
4F6
100
AcDbEntity
  8
TITLE
100
AcDbText
 10
3.773111302202785
 20
0.7035783265067472
 30
0.0
 40
0.062
  1
AND MAY NOT BE
 72
     1
 11
4.196777968869451
 21
0.7035783265067472
 31
0.0
100
AcDbText
  0
TEXT
  5
4FF
330
4F6
100
AcDbEntity
  8
TITLE
100
AcDbText
 10
3.426944635536118
 20
0.8535783265067467
 30
0.0
 40
0.062
  1
SIMPSON STRONG-TIE CO., INC.
 72
     1
 11
4.196777968869451
 21
0.8535783265067467
 31
0.0
100
AcDbText
  0
TEXT
  5
500
330
4F6
100
AcDbEntity
  8
TITLE
100
AcDbText
 10
3.432111302202785
 20
1.003578326506746
 30
0.0
 40
0.062
  1
EXCLUSIVE PROPERTY OF THE
 72
     1
 11
4.196777968869451
 21
1.003578326506746
 31
0.0
100
AcDbText
  0
TEXT
  5
501
330
4F6
100
AcDbEntity
  8
TITLE
100
AcDbText
 10
3.638777968869452
 20
1.153578326506747
 30
0.0
 40
0.062
  1
THIS DRAWING IS THE
 72
     1
 11
4.196777968869451
 21
1.153578326506747
 31
0.0
100
AcDbText
  0
TRACE
  5
502
330
4F6
100
AcDbEntity
  8
BORDER
100
AcDbTrace
 10
0.2742754745401044
 20
0.0250000000000004
 30
0.0
 11
0.2750000000000004
 21
0.0
 31
0.0
 12
8.1
 22
0.0250000000000004
 32
0.0
 13
8.125
 23
0.0
 33
0.0
  0
TRACE
  5
503
330
4F6
100
AcDbEntity
  8
BORDER
100
AcDbTrace
 10
8.1
 20
10.475
 30
0.0
 11
8.125
 21
10.5
 31
0.0
 12
0.2750000000000004
 22
10.475
 32
0.0
 13
0.25
 23
10.5
 33
0.0
  0
ATTDEF
  5
504
330
4F6
100
AcDbEntity
  8
ATTRIBUTES
100
AcDbText
 10
3.989822651218851
 20
0.0863844168490946
 30
0.0
 40
0.1
  1

100
AcDbAttributeDefinition
  3
Enter drawing number.
  2
DRAWING#
 70
     0
  0
TRACE
  5
505
330
4F6
100
AcDbEntity
  8
BORDER
100
AcDbTrace
 10
0.2750000000000004
 20
10.475
 30
0.0
 11
0.25
 21
10.5
 31
0.0
 12
0.2750000000000004
 22
0.0
 32
0.0
 13
0.25
 23
0.0
 33
0.0
  0
TRACE
  5
506
330
4F6
100
AcDbEntity
  8
BORDER
100
AcDbTrace
 10
3.336
 20
1.5015
 30
0.0
 11
3.311
 21
1.5265
 31
0.0
 12
3.336
 22
0.0250000000000004
 32
0.0
 13
3.311
 23
0.0250000000000004
 33
0.0
  0
LINE
  5
507
330
4F6
100
AcDbEntity
  8
BORDER
100
AcDbLine
 10
3.3235
 20
1.514
 30
0.0
 11
3.3235
 21
0.0250000000000004
 31
0.0
  0
TEXT
  5
508
330
4F6
100
AcDbEntity
  8
TITLE
100
AcDbText
 10
3.397338185056593
 20
0.1114913747683604
 30
0.0
 40
0.062
  1
DWG. NO.:
100
AcDbText
  0
TRACE
  5
509
330
4F6
100
AcDbEntity
  8
BORDER
100
AcDbTrace
 10
8.1
 20
0.0250000000000004
 30
0.0
 11
8.125
 21
0.0
 31
0.0
 12
8.1
 22
10.475
 32
0.0
 13
8.125
 23
10.5
 33
0.0
  0
TEXT
  5
50A
330
4F6
100
AcDbEntity
  8
NOTE
100
AcDbText
 10
5.916996487904117
 20
0.5884199549783267
 30
0.0
 40
0.1
  1
HELGA ELDER
100
AcDbText
  0
TRACE
  5
50B
330
4F6
100
AcDbEntity
  8
BORDER
100
AcDbTrace
 10
8.1
 20
1.006500000000001
 30
0.0
 11
8.1
 21
1.0315
 31
0.0
 12
5.086
 22
1.006500000000001
 32
0.0
 13
5.086
 23
1.0315
 33
0.0
  0
TRACE
  5
50C
330
4F6
100
AcDbEntity
  8
BORDER
100
AcDbTrace
 10
8.1
 20
1.251500000000001
 30
0.0
 11
8.1
 21
1.2765
 31
0.0
 12
5.086
 22
1.251500000000001
 32
0.0
 13
5.086
 23
1.2765
 33
0.0
  0
LINE
  5
50D
330
4F6
100
AcDbEntity
  8
BORDER
100
AcDbLine
 10
8.1
 20
1.264
 30
0.0
 11
5.086
 21
1.264
 31
0.0
  0
LINE
  5
50E
330
4F6
100
AcDbEntity
  8
BORDER
100
AcDbLine
 10
8.102
 20
1.763
 30
0.0
 11
5.086
 21
1.763000000000001
 31
0.0
  0
LINE
  5
50F
330
4F6
100
AcDbEntity
  8
BORDER
100
AcDbLine
 10
8.102
 20
0.7629999999999999
 30
0.0
 11
5.086
 21
0.7629999999999999
 31
0.0
  0
LINE
  5
510
330
4F6
100
AcDbEntity
  8
BORDER
100
AcDbLine
 10
5.086
 20
0.5129999999999999
 30
0.0
 11
8.102
 21
0.5129999999999999
 31
0.0
  0
LINE
  5
511
330
4F6
100
AcDbEntity
  8
BORDER
100
AcDbLine
 10
8.102
 20
0.2629999999999999
 30
0.0
 11
5.086
 21
0.2629999999999999
 31
0.0
  0
TEXT
  5
512
330
4F6
100
AcDbEntity
  8
TITLE
100
AcDbText
 10
5.335780933943137
 20
1.093049021513174
 30
0.0
 40
0.1
  1
SIMPSON STRONG-TIE CO., INC.
  7
COMPLEX
100
AcDbText
  0
TEXT
  5
513
330
4F6
100
AcDbEntity
  8
TITLE
100
AcDbText
 10
5.813000000000001
 20
0.8334363058419374
 30
0.0
 40
0.1
  1
PRODUCTION DRAWING
100
AcDbText
  0
TEXT
  5
514
330
4F6
100
AcDbEntity
  8
TITLE
100
AcDbText
 10
6.449
 20
1.364
 30
0.0
 40
0.062
  1
DESCRIPTION
 72
     1
 11
6.759
 21
1.364
 31
0.0
100
AcDbText
  0
LINE
  5
515
330
4F6
100
AcDbEntity
  8
TITLE
100
AcDbLine
 10
8.109
 20
1.514
 30
0.0
 11
5.086
 21
1.514
 31
0.0
  0
ATTDEF
  5
516
330
4F6
100
AcDbEntity
  8
ATTRIBUTES
100
AcDbText
 10
6.645
 20
0.0876862940230358
 30
0.0
 40
0.1
  1

100
AcDbAttributeDefinition
  3
Enter model number.
  2
MODEL#
 70
     0
  0
TEXT
  5
517
330
4F6
100
AcDbEntity
  8
TITLE
100
AcDbText
 10
5.152498431326378
 20
0.6072147858099539
 30
0.0
 40
0.062
  1
DRAWN BY:
100
AcDbText
  0
ATTDEF
  5
518
330
4F6
100
AcDbEntity
  8
ATTRIBUTES
100
AcDbText
 10
5.558787389033447
 20
0.3296652149299408
 30
0.0
 40
0.1
  1

100
AcDbAttributeDefinition
  3
Enter drawing scale.
  2
SCALE
 70
     0
  0
TRACE
  5
519
330
4F6
100
AcDbEntity
  8
BORDER
100
AcDbTrace
 10
5.061
 20
0.0250000000000004
 30
0.0
 11
5.086
 21
0.0250000000000004
 31
0.0
 12
5.061
 22
1.5015
 32
0.0
 13
5.086
 23
1.5265
 33
0.0
  0
LINE
  5
51A
330
4F6
100
AcDbEntity
  8
BORDER
100
AcDbLine
 10
5.086
 20
1.763000000000001
 30
0.0
 11
5.086
 21
0.0250000000000004
 31
0.0
  0
TEXT
  5
51B
330
4F6
100
AcDbEntity
  8
TITLE
100
AcDbText
 10
5.152
 20
0.1103400521755242
 30
0.0
 40
0.062
  1
REV.
100
AcDbText
  0
TEXT
  5
51C
330
4F6
100
AcDbEntity
  8
TITLE
100
AcDbText
 10
5.152498431326378
 20
0.3551032441129731
 30
0.0
 40
0.062
  1
SCALE:
100
AcDbText
  0
TEXT
  5
51D
330
4F6
100
AcDbEntity
  8
TITLE
100
AcDbText
 10
5.152498431326378
 20
0.8514120440465556
 30
0.0
 40
0.062
  1
TITLE:
100
AcDbText
  0
TEXT
  5
51E
330
4F6
100
AcDbEntity
  8
TITLE
100
AcDbText
 10
5.202890866545221
 20
1.364
 30
0.0
 40
0.062
  1
REV.
 72
     1
 11
5.306224199878555
 21
1.364
 31
0.0
100
AcDbText
  0
LINE
  5
51F
330
4F6
100
AcDbEntity
  8
TITLE
100
AcDbLine
 10
5.509
 20
1.764
 30
0.0
 11
5.509
 21
1.264
 31
0.0
  0
LINE
  5
520
330
4F6
100
AcDbEntity
  8
BORDER
100
AcDbLine
 10
6.856
 20
0.2629999999999999
 30
0.0
 11
6.855999999999999
 21
0.5129999999999999
 31
0.0
  0
LINE
  5
521
330
4F6
100
AcDbEntity
  8
TITLE
100
AcDbLine
 10
6.109
 20
0.5129999999999999
 30
0.0
 11
6.109
 21
0.2629999999999999
 31
0.0
  0
TEXT
  5
522
330
4F6
100
AcDbEntity
  8
TITLE
100
AcDbText
 10
5.799381379578701
 20
0.1115394323626822
 30
0.0
 40
0.062
  1
%%UMODEL NO.:
100
AcDbText
  0
LINE
  5
523
330
4F6
100
AcDbEntity
  8
BORDER
100
AcDbLine
 10
5.756
 20
0.2629999999999999
 30
0.0
 11
5.756
 21
0.0190000000000001
 31
0.0
  0
TEXT
  5
524
330
4F6
100
AcDbEntity
  8
TITLE
100
AcDbText
 10
6.154754318583582
 20
0.3556215754554888
 30
0.0
 40
0.062
  1
CHK.
100
AcDbText
  0
TEXT
  5
525
330
4F6
100
AcDbEntity
  8
TITLE
100
AcDbText
 10
5.72015086681692
 20
1.364
 30
0.0
 40
0.062
  1
DATE
 72
     1
 11
5.833817533483587
 21
1.364
 31
0.0
100
AcDbText
  0
LINE
  5
526
330
4F6
100
AcDbEntity
  8
TITLE
100
AcDbLine
 10
6.159
 20
1.764
 30
0.0
 11
6.159
 21
1.264
 31
0.0
  0
ATTDEF
  5
527
330
4F6
100
AcDbEntity
  8
ATTRIBUTES
100
AcDbText
 10
8.093283262767924
 20
0.0076218835614377
 30
0.0
 40
0.01
  1

100
AcDbAttributeDefinition
  3
Do not enter any value.
  2
DIE
 70
     0
  0
TEXT
  5
528
330
4F6
100
AcDbEntity
  8
TITLE
100
AcDbText
 10
7.425073022018955
 20
1.364
 30
0.0
 40
0.062
  1
APPR.
 72
     1
 11
7.549073022018955
 21
1.364
 31
0.0
100
AcDbText
  0
ATTDEF
  5
529
330
4F6
100
AcDbEntity
  8
ATTRIBUTES
100
AcDbText
 10
7.221246836614026
 20
0.3300000000000001
 30
0.0
 40
0.1
  1

100
AcDbAttributeDefinition
  3
Enter date.
  2
DATE
 70
     0
  0
TEXT
  5
52A
330
4F6
100
AcDbEntity
  8
TITLE
100
AcDbText
 10
6.888048693984509
 20
0.3579903068542611
 30
0.0
 40
0.062
  1
DATE:
100
AcDbText
  0
LINE
  5
52B
330
4F6
100
AcDbEntity
  8
TITLE
100
AcDbLine
 10
7.359
 20
1.764
 30
0.0
 11
7.359
 21
1.264
 31
0.0
  0
LINE
  5
52C
330
4F6
100
AcDbEntity
  8
TITLE
100
AcDbLine
 10
7.723000000000001
 20
1.764
 30
0.0
 11
7.723000000000001
 21
1.264
 31
0.0
  0
TEXT
  5
52D
330
4F6
100
AcDbEntity
  8
TITLE
100
AcDbText
 10
7.853004822779012
 20
1.364
 30
0.0
 40
0.062
  1
 BY
 72
     1
 11
7.966671489445679
 21
1.364
 31
0.0
100
AcDbText
  0
ENDBLK
  5
52F
330
4F6
100
AcDbEntity
  8
0
100
AcDbBlockEnd
  0
BLOCK
  5
1687
330
1678
100
AcDbEntity
  8
0
100
AcDbBlockBegin
  2
Notes1Port
 70
     2
 10
0.0
 20
0.0
 30
0.0
  3
Notes1Port
  1

  4

  0
TEXT
  5
1679
330
1678
100
AcDbEntity
  8
0
100
AcDbText
 10
1002.305248086982
 20
411.8419490597025
 30
0.0
 40
0.09
  1
IS LABELED; LABEL MUST ADHERE
100
AcDbText
  0
TEXT
  5
167A
330
1678
100
AcDbEntity
  8
0
100
AcDbText
 10
1002.305248086982
 20
411.6919490597025
 30
0.0
 40
0.09
  1
& UPC BARCODE BE SCANNABLE.
100
AcDbText
  0
TEXT
  5
167B
330
1678
100
AcDbEntity
  8
0
100
AcDbText
 10
1002.131981484477
 20
411.9919490597025
 30
0.0
 40
0.09
  1
6. OIL CHECK REQUIRED IF PART
100
AcDbText
  0
TEXT
  5
167C
330
1678
100
AcDbEntity
  8
0
100
AcDbText
 10
1002.13175632177
 20
411.5395773493063
 30
0.0
 40
0.09
  1
7. MATERIAL:
100
AcDbText
  0
ATTDEF
  5
167D
330
1678
100
AcDbEntity
  8
ATTRIBUTES
100
AcDbText
 10
1003.098482101809
 20
411.540519994046
 30
0.0
 40
0.09
  1
(MAT'L. SPEC.)
100
AcDbAttributeDefinition
  3
Enter material specification.
  2
GAUGE
 70
     0
  0
ATTDEF
  5
167E
330
1678
100
AcDbEntity
  8
ATTRIBUTES
100
AcDbText
 10
1003.660064077016
 20
412.127734890551
 30
0.0
 40
0.09
  1
1T
100
AcDbAttributeDefinition
  3
Enter bend radius.
  2
BEND
 70
     0
  0
TEXT
  5
167F
330
1678
100
AcDbEntity
  8
0
100
AcDbText
 10
1002.13175632177
 20
412.1279931588395
 30
0.0
 40
0.09
  1
5. ALL BEND RADII:
100
AcDbText
  0
TEXT
  5
1680
330
1678
100
AcDbEntity
  8
0
100
AcDbText
 10
1002.13175632177
 20
412.2821715857494
 30
0.0
 40
0.09
  1
4. ALL ANGLES: %%P1%%D
100
AcDbText
  0
TEXT
  5
1681
330
1678
100
AcDbEntity
  8
0
100
AcDbText
 10
1002.13175632177
 20
412.611756543576
 30
0.0
 40
0.09
  1
2. LINEAR DIMENSIONS: %%P
100
AcDbText
  0
TEXT
  5
1682
330
1678
100
AcDbEntity
  8
0
100
AcDbText
 10
1002.13175632177
 20
413.0563654256053
 30
0.0
 40
0.09
  1
UNLESS OTHERWISE NOTED
  7
COMPLEX
100
AcDbText
  0
TEXT
  5
1683
330
1678
100
AcDbEntity
  8
0
100
AcDbText
 10
1002.161433797869
 20
412.761756543576
 30
0.0
 40
0.09
  1
1. NO BURRS GREATER THAN 0.015
100
AcDbText
  0
ATTDEF
  5
1684
330
1678
100
AcDbEntity
  8
ATTRIBUTES
100
AcDbText
 10
1004.022980648538
 20
412.6114982752875
 30
0.0
 40
0.09
  1
1/16
100
AcDbAttributeDefinition
  3
Enter fractional tolerance.
  2
1/16
 70
     0
  0
TEXT
  5
1685
330
1678
100
AcDbEntity
  8
0
100
AcDbText
 10
1002.13175632177
 20
412.4546199988443
 30
0.0
 40
0.09
  1
3. HOLE/SLOT DIMENSIONS: %%P
100
AcDbText
  0
ATTDEF
  5
1686
330
1678
100
AcDbEntity
  8
ATTRIBUTES
100
AcDbText
 10
1004.31514148622
 20
412.4543617305558
 30
0.0
 40
0.09
  1
0.004
100
AcDbAttributeDefinition
  3
Enter DECIMAL tolerance.
  2
0.004
 70
     0
  0
ENDBLK
  5
1688
330
1678
100
AcDbEntity
  8
0
100
AcDbBlockEnd
  0
BLOCK
  5
1EF3
330
1EF0
100
AcDbEntity
  8
0
100
AcDbBlockBegin
  2
Copyright tag
 70
     0
 10
0.0
 20
0.0
 30
0.0
  3
Copyright tag
  1

  4

  0
CIRCLE
  5
1EF4
330
1EF0
100
AcDbEntity
  8
0
100
AcDbCircle
 10
0.0000737601064827
 20
0.0000852766280307
 30
0.0
 40
0.041765625
  0
MTEXT
  5
1EF5
330
1EF0
100
AcDbEntity
  8
0
100
AcDbMText
 10
0.0825534816164985
 20
0.0362021277494419
 30
0.0
 40
0.0675
 41
3.164072296866236
 71
     1
 72
     5
  1
{\C7;2007 Simpson Strong-Tie Co. Inc.}
 73
     1
 44
1.0
  0
MTEXT
  5
1EF6
330
1EF0
100
AcDbEntity
  8
0
100
AcDbMText
 10
-0.0258085912805495
 20
0.0299116244524237
 30
0.0
 40
0.06237
 41
0.2285185715941737
 71
     1
 72
     5
  1
{\Fcomplex.shx|c0;C}
  7
HELVETICA
 73
     1
 44
1.0
  0
ENDBLK
  5
1EF7
330
1EF0
100
AcDbEntity
  8
0
100
AcDbBlockEnd
  0
ENDSEC
  0
SECTION
  2
ENTITIES
  0
TEXT
  5
338
330
1E
100
AcDbEntity
  8
DIM
100
AcDbText
 10
12.53824757395154
 20
21.241477442257
 30
0.0
 40
0.299997
  1
   
 72
     1
 11
12.98824307395154
 21
21.391475942257
 31
0.0
100
AcDbText
 73
     2
  0
TEXT
  5
339
330
1E
100
AcDbEntity
  8
DIM
100
AcDbText
 10
18.51009402940854
 20
11.94308454351106
 30
0.0
 40
0.299997
  1
   
 72
     1
 11
18.96008952940854
 21
12.09308304351107
 31
0.0
100
AcDbText
 73
     2
  0
TEXT
  5
342
330
1E
100
AcDbEntity
  8
DIM
100
AcDbText
 10
12.97496841167832
 20
27.36113490023515
 30
0.0
 40
0.299997
  1
   
 11
12.97496841167832
 21
27.51113340023515
 31
0.0
100
AcDbText
 73
     2
  0
TEXT
  5
426
330
1E
100
AcDbEntity
  8
DIM
100
AcDbText
 10
19.5257908938138
 20
15.52606807154622
 30
0.0
 40
0.299997
  1
   
 72
     1
 11
19.9757863938138
 21
15.67606657154622
 31
0.0
100
AcDbText
 73
     2
  0
LINE
  5
DAB
330
1E
100
AcDbEntity
  8
0
100
AcDbLine
 10
1.849999999999965
 20
1.163669480834233
 30
0.0
 11
2.030802925505156
 21
1.344472406339399
 31
0.0
  0
LINE
  5
DAC
330
1E
100
AcDbEntity
  8
0
  6
THD
100
AcDbLine
 10
1.779999999999972
 20
1.035679582101999
 30
0.0
 11
1.849999999999965
 21
1.035679582101999
 31
0.0
  0
LINE
  5
DAD
330
1E
100
AcDbEntity
  8
0
100
AcDbLine
 10
1.870502525316907
 20
1.085177056785064
 30
0.0
 11
2.080300400188206
 21
1.29497493165632
 31
0.0
  0
ARC
  5
DAE
330
1E
100
AcDbEntity
  8
0
100
AcDbCircle
 10
1.919999999999958
 20
1.035679582101999
 30
0.0
 40
0.07
100
AcDbArc
 50
134.9999999999959
 51
180.0
  0
ARC
  5
DAF
330
1E
100
AcDbEntity
  8
0
100
AcDbCircle
 10
1.919999999999958
 20
1.035679582101999
 30
0.0
 40
0.14
100
AcDbArc
 50
134.9999999999959
 51
180.0
  0
LINE
  5
DB0
330
1E
100
AcDbEntity
  8
0
100
AcDbLine
 10
2.080300400188206
 20
1.29497493165632
 30
0.0
 11
2.030802925505156
 21
1.344472406339399
 31
0.0
  0
LINE
  5
DB1
330
1E
100
AcDbEntity
  8
0
  6
THD
100
AcDbLine
 10
1.849999999999965
 20
1.405499999999996
 30
0.0
 11
1.779999999999972
 21
1.405499999999996
 31
0.0
  0
LINE
  5
DB3
330
1E
100
AcDbEntity
  8
0
100
AcDbLine
 10
-2.080300400188206
 20
1.29497493165632
 30
0.0
 11
-2.030802925505156
 21
1.344472406339399
 31
0.0
  0
ARC
  5
DB4
330
1E
100
AcDbEntity
  8
0
100
AcDbCircle
 10
-1.920000000000015
 20
1.035679582101999
 30
0.0
 40
0.14
100
AcDbArc
 50
0.0
 51
45.00000000000411
  0
ARC
  5
DB5
330
1E
100
AcDbEntity
  8
0
100
AcDbCircle
 10
-1.920000000000015
 20
1.035679582101999
 30
0.0
 40
0.07
100
AcDbArc
 50
0.0
 51
45.00000000000411
  0
LINE
  5
DB6
330
1E
100
AcDbEntity
  8
0
100
AcDbLine
 10
-1.870502525316907
 20
1.085177056785064
 30
0.0
 11
-2.080300400188206
 21
1.29497493165632
 31
0.0
  0
LINE
  5
DB7
330
1E
100
AcDbEntity
  8
0
  6
THD
100
AcDbLine
 10
-1.849999999999965
 20
1.405499999999996
 30
0.0
 11
-1.779999999999972
 21
1.405499999999996
 31
0.0
  0
LINE
  5
DB8
330
1E
100
AcDbEntity
  8
0
  6
THD
100
AcDbLine
 10
-1.779999999999972
 20
1.035679582101999
 30
0.0
 11
-1.849999999999965
 21
1.035679582101999
 31
0.0
  0
LINE
  5
DB9
330
1E
100
AcDbEntity
  8
0
100
AcDbLine
 10
-1.849999999999965
 20
1.163669480834233
 30
0.0
 11
-2.030802925505156
 21
1.344472406339399
 31
0.0
  0
LINE
  5
DBB
330
1E
100
AcDbEntity
  8
0
100
AcDbLine
 10
1.945302925505131
 20
14.8469106449075
 30
0.0
 11
1.849999999999965
 21
14.8431866701382
 31
0.0
  0
LINE
  5
DBC
330
1E
100
AcDbEntity
  8
0
100
AcDbLine
 10
1.992965141134788
 20
15.01789094570396
 30
0.0
 11
1.849999999999965
 21
15.02163461967685
 31
0.0
  0
LINE
  5
DBD
330
1E
100
AcDbEntity
  8
0
100
AcDbLine
 10
1.992965141133595
 20
14.84693034411108
 30
0.0
 11
1.849999999999965
 21
14.8431866701382
 31
0.0
  0
ARC
  5
DBE
330
1E
100
AcDbEntity
  8
0
100
AcDbCircle
 10
1.994800400188182
 20
14.93241064490751
 30
0.0
 40
0.0855
100
AcDbArc
 50
268.7700505893799
 51
91.22994940982032
  0
ARC
  5
DBF
330
1E
100
AcDbEntity
  8
0
100
AcDbCircle
 10
1.945302925505131
 20
14.93241064490751
 30
0.0
 40
0.0855
100
AcDbArc
 50
269.9999999999951
 51
89.99999999999511
  0
LINE
  5
DC0
330
1E
100
AcDbEntity
  8
0
100
AcDbLine
 10
1.945302925505131
 20
15.01791064490752
 30
0.0
 11
1.849999999999965
 21
15.02163461967682
 31
0.0
  0
LINE
  5
DC1
330
1E
100
AcDbEntity
  8
0
100
AcDbLine
 10
-1.945302925505131
 20
14.89291064490752
 30
0.0
 11
-1.849999999999965
 21
14.89663461967682
 31
0.0
  0
ARC
  5
DC2
330
1E
100
AcDbEntity
  8
0
100
AcDbCircle
 10
-1.945302925505131
 20
14.80741064490751
 30
0.0
 40
0.0855
100
AcDbArc
 50
90.00000000000487
 51
270.0000000000049
  0
ARC
  5
DC3
330
1E
100
AcDbEntity
  8
0
100
AcDbCircle
 10
-1.994800400188182
 20
14.80741064490751
 30
0.0
 40
0.0855
100
AcDbArc
 50
88.77005059017806
 51
271.2299494106201
  0
LINE
  5
DC4
330
1E
100
AcDbEntity
  8
0
100
AcDbLine
 10
-1.992965141133595
 20
14.72193034411108
 30
0.0
 11
-1.849999999999965
 21
14.7181866701382
 31
0.0
  0
LINE
  5
DC5
330
1E
100
AcDbEntity
  8
0
100
AcDbLine
 10
-1.992965141134731
 20
14.89289094570396
 30
0.0
 11
-1.849999999999965
 21
14.89663461967685
 31
0.0
  0
LINE
  5
DC6
330
1E
100
AcDbEntity
  8
0
100
AcDbLine
 10
-1.945302925505131
 20
14.7219106449075
 30
0.0
 11
-1.849999999999965
 21
14.7181866701382
 31
0.0
  0
LINE
  5
DC7
330
1E
100
AcDbEntity
  8
0
100
AcDbLine
 10
10.28357893947214
 20
1.035679582101999
 30
0.0
 11
10.09762993762899
 21
1.035679582101999
 31
0.0
  0
LINE
  5
DC8
330
1E
100
AcDbEntity
  8
0
  6
HIDDEN
100
AcDbLine
 10
10.09892607461893
 20
1.085177056785064
 30
0.0
 11
10.2822828024822
 21
1.085177056785064
 31
0.0
  0
ARC
  5
DC9
330
1E
100
AcDbEntity
  8
0
100
AcDbCircle
 10
10.19060443855057
 20
1.257157308624365
 30
0.0
 40
0.0873150977150265
100
AcDbArc
 50
5.076634500824606
 51
174.9233654991671
  0
ARC
  5
DCA
330
1E
100
AcDbEntity
  8
0
100
AcDbCircle
 10
10.19060443855079
 20
1.185272379078107
 30
0.0
 40
0.1097025525782063
100
AcDbArc
 50
37.25445108779275
 51
142.7455489126053
  0
LINE
  5
DCB
330
1E
100
AcDbEntity
  8
0
100
AcDbLine
 10
10.27607513983594
 20
1.32223812908034
 30
0.0
 11
10.28357893947214
 21
1.035679582101999
 31
0.0
  0
LINE
  5
DCC
330
1E
100
AcDbEntity
  8
0
100
AcDbLine
 10
10.10513373726514
 20
1.32223812908034
 30
0.0
 11
10.09762993762899
 21
1.035679582101999
 31
0.0
  0
ARC
  5
DCD
330
1E
100
AcDbEntity
  8
0
100
AcDbCircle
 10
10.19060443855057
 20
1.320000000000015
 30
0.0
 40
0.0855
100
AcDbArc
 50
1.499999999998647
 51
178.5000000000005
  0
ARC
  5
DD5
330
1E
100
AcDbEntity
  8
0
100
AcDbCircle
 10
10.81560443825475
 20
2.351499999929295
 30
0.0
 40
0.03125
100
AcDbArc
 50
209.9999999037493
 51
329.9999999037506
  0
ARC
  5
DD6
330
1E
100
AcDbEntity
  8
0
100
AcDbCircle
 10
10.89657781374422
 20
2.491749999793278
 30
0.0
 40
0.03125
100
AcDbArc
 50
329.9999999037506
 51
89.99999990374919
  0
ARC
  5
DD8
330
1E
100
AcDbEntity
  8
0
100
AcDbCircle
 10
10.73463106307946
 20
2.491749999793278
 30
0.0
 40
0.03125
100
AcDbArc
 50
89.99999990374757
 51
209.9999999037493
  0
LINE
  5
DD9
330
1E
100
AcDbEntity
  8
0
100
AcDbLine
 10
10.73463106313193
 20
2.522999999793278
 30
0.0
 11
10.89657781379668
 21
2.522999999793264
 31
0.0
  0
LINE
  5
DDA
330
1E
100
AcDbEntity
  8
0
100
AcDbLine
 10
10.70756776918495
 20
2.476124999838753
 30
0.0
 11
10.78854114436024
 21
2.33587499997477
 31
0.0
  0
LINE
  5
DDB
330
1E
100
AcDbEntity
  8
0
100
AcDbLine
 10
10.84266773209674
 20
2.335874999883835
 30
0.0
 11
10.92364110758621
 21
2.476124999747817
 31
0.0
  0
ARC
  5
DDC
330
1E
100
AcDbEntity
  8
0
100
AcDbCircle
 10
11.19060443825475
 20
2.976499999929295
 30
0.0
 40
0.03125
100
AcDbArc
 50
209.9999999037493
 51
329.9999999037506
  0
ARC
  5
DDD
330
1E
100
AcDbEntity
  8
0
100
AcDbCircle
 10
11.27157781374422
 20
3.116749999793278
 30
0.0
 40
0.03125
100
AcDbArc
 50
329.9999999037506
 51
89.99999990374919
  0
ARC
  5
DDF
330
1E
100
AcDbEntity
  8
0
100
AcDbCircle
 10
11.10963106307946
 20
3.116749999793278
 30
0.0
 40
0.03125
100
AcDbArc
 50
89.99999990374757
 51
209.9999999037493
  0
LINE
  5
DE0
330
1E
100
AcDbEntity
  8
0
100
AcDbLine
 10
11.10963106313193
 20
3.147999999793278
 30
0.0
 11
11.27157781379668
 21
3.147999999793264
 31
0.0
  0
LINE
  5
DE1
330
1E
100
AcDbEntity
  8
0
100
AcDbLine
 10
11.08256776918495
 20
3.101124999838753
 30
0.0
 11
11.16354114436024
 21
2.96087499997477
 31
0.0
  0
LINE
  5
DE2
330
1E
100
AcDbEntity
  8
0
100
AcDbLine
 10
11.21766773209674
 20
2.960874999883835
 30
0.0
 11
11.29864110758621
 21
3.101124999747817
 31
0.0
  0
ARC
  5
DE3
330
1E
100
AcDbEntity
  8
0
100
AcDbCircle
 10
11.56560443825475
 20
3.601499999863982
 30
0.0
 40
0.03125
100
AcDbArc
 50
209.9999999037493
 51
329.9999999037506
  0
ARC
  5
DE4
330
1E
100
AcDbEntity
  8
0
100
AcDbCircle
 10
11.64657781374422
 20
3.741749999727965
 30
0.0
 40
0.03125
100
AcDbArc
 50
329.9999999037506
 51
89.99999990374919
  0
ARC
  5
DE6
330
1E
100
AcDbEntity
  8
0
100
AcDbCircle
 10
11.48463106307946
 20
3.741749999727965
 30
0.0
 40
0.03125
100
AcDbArc
 50
89.99999990374757
 51
209.9999999037493
  0
LINE
  5
DE7
330
1E
100
AcDbEntity
  8
0
100
AcDbLine
 10
11.48463106313193
 20
3.772999999727965
 30
0.0
 11
11.64657781379668
 21
3.772999999727951
 31
0.0
  0
LINE
  5
DE8
330
1E
100
AcDbEntity
  8
0
100
AcDbLine
 10
11.45756776918495
 20
3.72612499977344
 30
0.0
 11
11.53854114436024
 21
3.585874999909457
 31
0.0
  0
LINE
  5
DE9
330
1E
100
AcDbEntity
  8
0
100
AcDbLine
 10
11.59266773209674
 20
3.585874999818522
 30
0.0
 11
11.67364110758621
 21
3.726124999682504
 31
0.0
  0
LINE
  5
DFF
330
1E
100
AcDbEntity
  8
0
  6
THD
100
AcDbLine
 10
2.232499999999965
 20
8.444999999999984
 30
0.0
 11
2.232499999999958
 21
9.229999999999979
 31
0.0
  0
LINE
  5
E00
330
1E
100
AcDbEntity
  8
0
  6
THD
100
AcDbLine
 10
2.467499999999965
 20
8.444999999999984
 30
0.0
 11
2.467499999999972
 21
9.229999999999979
 31
0.0
  0
LINE
  5
E01
330
1E
100
AcDbEntity
  8
0
100
AcDbLine
 10
2.537499999999965
 20
8.444999999999984
 30
0.0
 11
2.537499999999965
 21
9.229999999999979
 31
0.0
  0
LINE
  5
E02
330
1E
100
AcDbEntity
  8
0
100
AcDbLine
 10
2.162499999999965
 20
8.444999999999984
 30
0.0
 11
2.162499999999965
 21
9.229999999999979
 31
0.0
  0
ARC
  5
E03
330
1E
100
AcDbEntity
  8
0
  6
THD
100
AcDbCircle
 10
2.349999999999965
 20
8.444999999999984
 30
0.0
 40
0.1175
100
AcDbArc
 50
180.0
 51
0.0
  0
ARC
  5
E04
330
1E
100
AcDbEntity
  8
0
100
AcDbCircle
 10
2.349999999999965
 20
8.444999999999984
 30
0.0
 40
0.1875
100
AcDbArc
 50
180.0
 51
0.0
  0
LINE
  5
E05
330
1E
100
AcDbEntity
  8
0
  6
THD
100
AcDbLine
 10
2.826250000000015
 20
9.229999999999979
 30
0.0
 11
2.826249999999901
 21
7.007500000000055
 31
0.0
  0
LINE
  5
E06
330
1E
100
AcDbEntity
  8
0
  6
THD
100
AcDbLine
 10
3.186249999999915
 20
7.007500000000055
 30
0.0
 11
3.186249999999972
 21
9.229999999999979
 31
0.0
  0
LINE
  5
E07
330
1E
100
AcDbEntity
  8
0
100
AcDbLine
 10
2.756249999999965
 20
9.229999999999979
 30
0.0
 11
2.756249999999965
 21
7.007500000000055
 31
0.0
  0
LINE
  5
E08
330
1E
100
AcDbEntity
  8
0
100
AcDbLine
 10
3.256249999999965
 20
7.007500000000055
 30
0.0
 11
3.256249999999965
 21
9.229999999999979
 31
0.0
  0
ARC
  5
E09
330
1E
100
AcDbEntity
  8
0
100
AcDbCircle
 10
3.006249999999965
 20
7.007500000000055
 30
0.0
 40
0.25
100
AcDbArc
 50
180.0
 51
0.0
  0
ARC
  5
E0A
330
1E
100
AcDbEntity
  8
0
  6
THD
100
AcDbCircle
 10
3.006249999999965
 20
7.007500000000055
 30
0.0
 40
0.18
100
AcDbArc
 50
180.0
 51
0.0
  0
ARC
  5
E0B
330
1E
100
AcDbEntity
  8
0
  6
THD
100
AcDbCircle
 10
4.068999999999959
 20
8.882500000000027
 30
0.0
 40
0.18
100
AcDbArc
 50
179.9999726792433
 51
0.0000273207566801
  0
ARC
  5
E0C
330
1E
100
AcDbEntity
  8
0
100
AcDbCircle
 10
4.068999999999959
 20
8.882500000000027
 30
0.0
 40
0.25
100
AcDbArc
 50
179.9999726792433
 51
0.0000273207566801
  0
LINE
  5
E0D
330
1E
100
AcDbEntity
  8
0
  6
THD
100
AcDbLine
 10
3.888999999999952
 20
8.882500000000027
 30
0.0
 11
3.888999999999952
 21
9.229999999999979
 31
0.0
  0
LINE
  5
E0E
330
1E
100
AcDbEntity
  8
0
  6
THD
100
AcDbLine
 10
4.248999999999966
 20
8.882500000000027
 30
0.0
 11
4.248999999999966
 21
9.229999999999979
 31
0.0
  0
LINE
  5
E0F
330
1E
100
AcDbEntity
  8
0
100
AcDbLine
 10
3.818999999999959
 20
8.882500000000027
 30
0.0
 11
3.818999999999959
 21
9.229999999999979
 31
0.0
  0
LINE
  5
E10
330
1E
100
AcDbEntity
  8
0
100
AcDbLine
 10
4.318999999999959
 20
8.882500000000027
 30
0.0
 11
4.318999999999959
 21
9.229999999999979
 31
0.0
  0
LINE
  5
E11
330
1E
100
AcDbEntity
  8
0
100
AcDbLine
 10
-4.318999999999959
 20
8.882500000000027
 30
0.0
 11
-4.318999999999959
 21
9.229999999999979
 31
0.0
  0
LINE
  5
E12
330
1E
100
AcDbEntity
  8
0
100
AcDbLine
 10
-3.818999999999959
 20
8.882500000000027
 30
0.0
 11
-3.818999999999959
 21
9.229999999999979
 31
0.0
  0
LINE
  5
E13
330
1E
100
AcDbEntity
  8
0
  6
THD
100
AcDbLine
 10
-4.248999999999966
 20
8.882500000000027
 30
0.0
 11
-4.248999999999966
 21
9.229999999999979
 31
0.0
  0
LINE
  5
E14
330
1E
100
AcDbEntity
  8
0
  6
THD
100
AcDbLine
 10
-3.888999999999952
 20
8.882500000000027
 30
0.0
 11
-3.888999999999952
 21
9.229999999999979
 31
0.0
  0
ARC
  5
E15
330
1E
100
AcDbEntity
  8
0
100
AcDbCircle
 10
-4.068999999999959
 20
8.882500000000027
 30
0.0
 40
0.25
100
AcDbArc
 50
179.9999726792433
 51
0.0000273207566801
  0
ARC
  5
E16
330
1E
100
AcDbEntity
  8
0
  6
THD
100
AcDbCircle
 10
-4.068999999999959
 20
8.882500000000027
 30
0.0
 40
0.18
100
AcDbArc
 50
179.9999726792433
 51
0.0000273207566801
  0
ARC
  5
E17
330
1E
100
AcDbEntity
  8
0
  6
THD
100
AcDbCircle
 10
-3.006249999999965
 20
7.007500000000055
 30
0.0
 40
0.18
100
AcDbArc
 50
180.0
 51
0.0
  0
ARC
  5
E18
330
1E
100
AcDbEntity
  8
0
100
AcDbCircle
 10
-3.006249999999965
 20
7.007500000000055
 30
0.0
 40
0.25
100
AcDbArc
 50
180.0
 51
0.0
  0
LINE
  5
E19
330
1E
100
AcDbEntity
  8
0
100
AcDbLine
 10
-3.256249999999965
 20
7.007500000000055
 30
0.0
 11
-3.256249999999965
 21
9.229999999999979
 31
0.0
  0
LINE
  5
E1A
330
1E
100
AcDbEntity
  8
0
100
AcDbLine
 10
-2.756249999999965
 20
9.229999999999979
 30
0.0
 11
-2.756249999999965
 21
7.007500000000055
 31
0.0
  0
LINE
  5
E1B
330
1E
100
AcDbEntity
  8
0
  6
THD
100
AcDbLine
 10
-3.186249999999972
 20
7.007500000000055
 30
0.0
 11
-3.186249999999972
 21
9.229999999999979
 31
0.0
  0
LINE
  5
E1C
330
1E
100
AcDbEntity
  8
0
  6
THD
100
AcDbLine
 10
-2.826249999999958
 20
9.229999999999979
 30
0.0
 11
-2.826249999999958
 21
7.007500000000055
 31
0.0
  0
ARC
  5
E1D
330
1E
100
AcDbEntity
  8
0
100
AcDbCircle
 10
1.779999999995879
 20
0.5037435565274322
 30
0.0
 40
0.14
100
AcDbArc
 50
300.0000000019575
 51
0.0
  0
LINE
  5
E1E
330
1E
100
AcDbEntity
  8
0
100
AcDbLine
 10
1.920000000000015
 20
0.5037435565274322
 30
0.0
 11
1.920000000000015
 21
1.134674531468161
 31
0.0
  0
ARC
  5
E1F
330
1E
100
AcDbEntity
  8
0
100
AcDbCircle
 10
1.779999999995879
 20
2.511256443472568
 30
0.0
 40
0.14
100
AcDbArc
 50
0.0
 51
59.99999999804253
  0
ARC
  5
E20
330
1E
100
AcDbEntity
  8
0
100
AcDbCircle
 10
-1.779999999995822
 20
0.5037435565274322
 30
0.0
 40
0.14
100
AcDbArc
 50
180.0
 51
239.9999999980425
  0
LINE
  5
E21
330
1E
100
AcDbEntity
  8
0
100
AcDbLine
 10
-1.919999999999958
 20
0.5037435565274322
 30
0.0
 11
-1.919999999999958
 21
1.134674531468107
 31
0.0
  0
ARC
  5
E22
330
1E
100
AcDbEntity
  8
0
100
AcDbCircle
 10
-1.779999999995822
 20
2.511256443472568
 30
0.0
 40
0.14
100
AcDbArc
 50
120.0000000019575
 51
180.0
  0
ARC
  5
E57
330
1E
100
AcDbEntity
  8
0
  6
HIDDEN
100
AcDbCircle
 10
11.44060443855062
 20
0.5699999999999861
 30
0.0
 40
0.1175
100
AcDbArc
 50
179.9999999999992
 51
359.9999999999992
  0
ARC
  5
E58
330
1E
100
AcDbEntity
  8
0
100
AcDbCircle
 10
11.44060443855062
 20
0.5699999999999861
 30
0.0
 40
0.1875
100
AcDbArc
 50
179.9999999999992
 51
359.9999999999992
  0
LINE
  5
E59
330
1E
100
AcDbEntity
  8
0
  6
HIDDEN
100
AcDbLine
 10
11.55810443855063
 20
2.35189411814995
 30
0.0
 11
11.55810443855063
 21
0.6504418988099374
 31
0.0
  0
LINE
  5
E5A
330
1E
100
AcDbEntity
  8
0
  6
HIDDEN
100
AcDbLine
 10
11.32310443855062
 20
2.35189411814995
 30
0.0
 11
11.32310443855062
 21
0.6504418988099374
 31
0.0
  0
ARC
  5
E5B
330
1E
100
AcDbEntity
  8
0
  6
HIDDEN
100
AcDbCircle
 10
11.44060443855062
 20
2.444999999999986
 30
0.0
 40
0.1175
100
AcDbArc
 50
359.9999999999992
 51
179.9999999999992
  0
ARC
  5
E5C
330
1E
100
AcDbEntity
  8
0
100
AcDbCircle
 10
11.44060443855062
 20
2.444999999999986
 30
0.0
 40
0.1875
100
AcDbArc
 50
359.9999999999992
 51
179.9999999999992
  0
LINE
  5
E5D
330
1E
100
AcDbEntity
  8
0
100
AcDbLine
 10
11.62810443855062
 20
2.444999999999986
 30
0.0
 11
11.62810443855062
 21
0.5699999999999861
 31
0.0
  0
LINE
  5
E5E
330
1E
100
AcDbEntity
  8
0
100
AcDbLine
 10
11.25310443855062
 20
2.444999999999986
 30
0.0
 11
11.25310443855062
 21
0.5700000000000003
 31
0.0
  0
LINE
  5
E9B
330
1E
100
AcDbEntity
  8
0
100
AcDbLine
 10
1.920000000000015
 20
16.24866708838008
 30
0.0
 11
1.920000000000015
 21
16.11615420143494
 31
0.0
  0
ARC
  5
E9C
330
1E
100
AcDbEntity
  8
0
100
AcDbCircle
 10
1.779999999995879
 20
16.24866708838008
 30
0.0
 40
0.14
100
AcDbArc
 50
0.0
 51
59.99999999804253
  0
ARC
  5
E9D
330
1E
100
AcDbEntity
  8
0
100
AcDbCircle
 10
1.779999999995879
 20
16.11615420143494
 30
0.0
 40
0.14
100
AcDbArc
 50
300.0000000019575
 51
0.0
  0
ARC
  5
E9E
330
1E
100
AcDbEntity
  8
0
100
AcDbCircle
 10
-1.779999999995822
 20
16.11615420143494
 30
0.0
 40
0.14
100
AcDbArc
 50
180.0
 51
239.9999999980425
  0
ARC
  5
E9F
330
1E
100
AcDbEntity
  8
0
100
AcDbCircle
 10
-1.779999999995822
 20
16.24866708838008
 30
0.0
 40
0.14
100
AcDbArc
 50
120.0000000019575
 51
180.0
  0
LINE
  5
EA0
330
1E
100
AcDbEntity
  8
0
100
AcDbLine
 10
-1.919999999999958
 20
16.24866708838008
 30
0.0
 11
-1.919999999999958
 21
16.11615420143494
 31
0.0
  0
LINE
  5
ECA
330
1E
100
AcDbEntity
  8
0
100
AcDbLine
 10
9.065604438550622
 20
0.0000000000000071
 30
0.0
 11
9.065604438550622
 21
0.0700000000000003
 31
0.0
  0
LINE
  5
ECB
330
1E
100
AcDbEntity
  8
0
100
AcDbLine
 10
12.06560443855062
 20
0.0000000000000071
 30
0.0
 11
9.065604438550622
 21
0.0000000000000071
 31
0.0
  0
LINE
  5
ECC
330
1E
100
AcDbEntity
  8
0
100
AcDbLine
 10
9.096854438550622
 20
0.1950000000000145
 30
0.0
 11
9.065604438550622
 21
0.1950000000000145
 31
0.0
  0
ARC
  5
ECD
330
1E
100
AcDbEntity
  8
0
100
AcDbCircle
 10
9.096854438550622
 20
0.1325000000000003
 30
0.0
 40
0.0625
100
AcDbArc
 50
0.0
 51
90.0
  0
LINE
  5
ECE
330
1E
100
AcDbEntity
  8
0
100
AcDbLine
 10
9.159354438550622
 20
0.0000000000000071
 30
0.0
 11
9.159354438550622
 21
0.1325000000000145
 31
0.0
  0
LINE
  5
ECF
330
1E
100
AcDbEntity
  8
0
100
AcDbLine
 10
9.065604438550622
 20
0.1950000000000145
 30
0.0
 11
9.065604438550622
 21
0.3719459699114722
 31
0.0
  0
LINE
  5
ED0
330
1E
100
AcDbEntity
  8
0
100
AcDbLine
 10
9.112450545032289
 20
0.5832551007817912
 30
0.0
 11
10.81467669941588
 21
4.233690869129696
 31
0.0
  0
ARC
  5
ED1
330
1E
100
AcDbEntity
  8
0
100
AcDbCircle
 10
9.565604438550622
 20
0.3719459699114296
 30
0.0
 40
0.5
100
AcDbArc
 50
154.9999999999999
 51
179.9999999999984
  0
LINE
  5
ED2
330
1E
100
AcDbEntity
  8
0
100
AcDbLine
 10
9.159354438550622
 20
0.0700000000000003
 30
0.0
 11
9.065604438550622
 21
0.0700000000000003
 31
0.0
  0
LINE
  5
ED3
330
1E
100
AcDbEntity
  8
0
  6
HIDDEN
100
AcDbLine
 10
11.97185443855062
 20
0.0700000000000003
 30
0.0
 11
9.159354438550622
 21
0.0700000000000003
 31
0.0
  0
LINE
  5
ED4
330
1E
100
AcDbEntity
  8
0
100
AcDbLine
 10
12.06560443855062
 20
0.0700000000000003
 30
0.0
 11
12.06560443855062
 21
0.0000000000000071
 31
0.0
  0
LINE
  5
ED5
330
1E
100
AcDbEntity
  8
0
100
AcDbLine
 10
12.06560443855062
 20
0.0700000000000003
 30
0.0
 11
11.97185443855062
 21
0.0700000000000003
 31
0.0
  0
LINE
  5
ED6
330
1E
100
AcDbEntity
  8
0
100
AcDbLine
 10
12.31560443855062
 20
1.018920031360296
 30
0.0
 11
12.31560443855062
 21
9.124999999999991
 31
0.0
  0
LINE
  5
ED7
330
1E
100
AcDbEntity
  8
0
100
AcDbLine
 10
14.88560443855056
 20
9.194999999999997
 30
0.0
 11
12.45560443855061
 21
9.194999999999983
 31
0.0
  0
LINE
  5
ED8
330
1E
100
AcDbEntity
  8
0
100
AcDbLine
 10
12.38560443855056
 20
1.169035515795822
 30
0.0
 11
12.38560443855056
 21
9.124999999999991
 31
0.0
  0
LINE
  5
ED9
330
1E
100
AcDbEntity
  8
0
100
AcDbLine
 10
14.88560443855062
 20
9.26499999999999
 30
0.0
 11
12.45560443855061
 21
9.26499999999999
 31
0.0
  0
ARC
  5
EDA
330
1E
100
AcDbEntity
  8
0
100
AcDbCircle
 10
12.45560443855061
 20
9.124999999999991
 30
0.0
 40
0.07
100
AcDbArc
 50
90.0
 51
180.0
  0
ARC
  5
EDB
330
1E
100
AcDbEntity
  8
0
100
AcDbCircle
 10
12.45560443855061
 20
9.124999999999991
 30
0.0
 40
0.14
100
AcDbArc
 50
90.0
 51
180.0
  0
LINE
  5
EDC
330
1E
100
AcDbEntity
  8
0
100
AcDbLine
 10
12.21060443855055
 20
6.893054417117318
 30
0.0
 11
12.2106044385506
 21
9.124999999999991
 31
0.0
  0
ARC
  5
EDD
330
1E
100
AcDbEntity
  8
0
100
AcDbCircle
 10
12.35060443855053
 20
6.893054417117318
 30
0.0
 40
0.14
100
AcDbArc
 50
180.0
 51
270.0
  0
LINE
  5
EDE
330
1E
100
AcDbEntity
  8
0
100
AcDbLine
 10
12.38560443855056
 20
6.753054417117317
 30
0.0
 11
12.35060443855053
 21
6.753054417117317
 31
0.0
  0
LINE
  5
EDF
330
1E
100
AcDbEntity
  8
0
100
AcDbLine
 10
13.00060443855057
 20
9.369999999999994
 30
0.0
 11
12.45560443855061
 21
9.369999999999994
 31
0.0
  0
ARC
  5
EE0
330
1E
100
AcDbEntity
  8
0
100
AcDbCircle
 10
12.45560443855061
 20
9.124999999999991
 30
0.0
 40
0.245
100
AcDbArc
 50
90.0
 51
180.0
  0
LINE
  5
EE3
330
1E
100
AcDbEntity
  8
0
100
AcDbLine
 10
14.88560443855062
 20
9.299999999999987
 30
0.0
 11
13.10934799508044
 21
9.299999999999987
 31
0.0
  0
LINE
  5
EE4
330
1E
100
AcDbEntity
  8
0
100
AcDbLine
 10
11.97185443855062
 20
0.1325000000000145
 30
0.0
 11
11.97185443855062
 21
0.0000000000000071
 31
0.0
  0
ARC
  5
EE5
330
1E
100
AcDbEntity
  8
0
100
AcDbCircle
 10
12.03435443855062
 20
0.1325000000000003
 30
0.0
 40
0.0625
100
AcDbArc
 50
90.0
 51
180.0
  0
LINE
  5
EE6
330
1E
100
AcDbEntity
  8
0
100
AcDbLine
 10
12.06560443855062
 20
0.1950000000000145
 30
0.0
 11
12.03435443855062
 21
0.1950000000000145
 31
0.0
  0
LINE
  5
EE7
330
1E
100
AcDbEntity
  8
0
100
AcDbLine
 10
12.06560443855062
 20
0.3719459699114438
 30
0.0
 11
12.06560443855062
 21
0.1950000000000145
 31
0.0
  0
ARC
  5
EE8
330
1E
100
AcDbEntity
  8
0
100
AcDbCircle
 10
12.56560443855062
 20
0.3719459699114296
 30
0.0
 40
0.5
100
AcDbArc
 50
154.9999999999999
 51
179.9999999999984
  0
LINE
  5
EE9
330
1E
100
AcDbEntity
  8
0
100
AcDbLine
 10
12.11245054503229
 20
0.5832551007817912
 30
0.0
 11
12.38560443855056
 21
1.169035515795819
 31
0.0
  0
LINE
  5
EEA
330
1E
100
AcDbEntity
  8
0
100
AcDbLine
 10
10.86152280589755
 20
4.445000000000029
 30
0.0
 11
10.86152280589755
 21
6.444999999999999
 31
0.0
  0
ARC
  5
EEB
330
1E
100
AcDbEntity
  8
0
100
AcDbCircle
 10
10.36152280589755
 20
4.445000000000029
 30
0.0
 40
0.5
100
AcDbArc
 50
334.9999999999999
 51
0.0
  0
ARC
  5
EEC
330
1E
100
AcDbEntity
  8
0
100
AcDbCircle
 10
11.36152280589755
 20
6.444999999999984
 30
0.0
 40
0.5
100
AcDbArc
 50
154.9999999999999
 51
180.0
  0
LINE
  5
EED
330
1E
100
AcDbEntity
  8
0
100
AcDbLine
 10
10.90836891237922
 20
6.656309130870346
 30
0.0
 11
11.7423663486656
 21
8.444822404673579
 31
0.0
  0
LINE
  5
EEE
330
1E
100
AcDbEntity
  8
0
100
AcDbLine
 10
12.2106044385506
 20
8.898874062077232
 30
0.0
 11
11.87412643734069
 21
8.616535495362831
 31
0.0
  0
ARC
  5
EEF
330
1E
100
AcDbEntity
  8
0
100
AcDbCircle
 10
12.19552024218393
 20
8.233513273803302
 30
0.0
 40
0.5
100
AcDbArc
 50
129.9999999999937
 51
154.9999999999985
  0
LINE
  5
EF0
330
1E
100
AcDbEntity
  8
0
100
AcDbLine
 10
14.88560443855062
 20
9.299999999999987
 30
0.0
 11
14.88560443855056
 21
9.194999999999997
 31
0.0
  0
LINE
  5
EF9
330
1E
100
AcDbEntity
  8
0
100
AcDbLine
 10
1.623749999999631
 20
13.80741064490751
 30
0.0
 11
-1.623749999999574
 21
13.80741064490751
 31
0.0
  0
LINE
  5
EFA
330
1E
100
AcDbEntity
  8
0
100
AcDbLine
 10
-1.623749999999574
 20
16.80741064490752
 30
0.0
 11
1.623749999999631
 21
16.80741064490752
 31
0.0
  0
LINE
  5
EFB
330
1E
100
AcDbEntity
  8
0
100
AcDbLine
 10
1.623749999999631
 20
16.77616064490752
 30
0.0
 11
1.623749999999631
 21
16.80741064490752
 31
0.0
  0
ARC
  5
EFC
330
1E
100
AcDbEntity
  8
0
100
AcDbCircle
 10
1.686249999999631
 20
16.77616064490752
 30
0.0
 40
0.0625
100
AcDbArc
 50
180.0
 51
270.0
  0
LINE
  5
EFD
330
1E
100
AcDbEntity
  8
0
100
AcDbLine
 10
1.780000000000029
 20
16.71366064490752
 30
0.0
 11
1.686249999999631
 21
16.71366064490752
 31
0.0
  0
LINE
  5
EFE
330
1E
100
AcDbEntity
  8
0
100
AcDbLine
 10
1.686249999999631
 20
13.90116064490751
 30
0.0
 11
1.849999999999965
 21
13.90116064490751
 31
0.0
  0
ARC
  5
EFF
330
1E
100
AcDbEntity
  8
0
100
AcDbCircle
 10
1.686249999999631
 20
13.83866064490751
 30
0.0
 40
0.0625
100
AcDbArc
 50
90.0
 51
180.0
  0
LINE
  5
F00
330
1E
100
AcDbEntity
  8
0
100
AcDbLine
 10
1.623749999999631
 20
13.80741064490751
 30
0.0
 11
1.623749999999631
 21
13.83866064490751
 31
0.0
  0
LINE
  5
F01
330
1E
100
AcDbEntity
  8
0
100
AcDbLine
 10
-1.779999999999972
 20
16.98741064490747
 30
0.0
 11
-1.779999999999972
 21
13.90116064490751
 31
0.0
  0
LINE
  5
F02
330
1E
100
AcDbEntity
  8
0
100
AcDbLine
 10
-1.919999999999958
 20
17.05741064490747
 30
0.0
 11
-2.166945582882699
 21
17.05741064490747
 31
0.0
  0
LINE
  5
F03
330
1E
100
AcDbEntity
  8
0
100
AcDbLine
 10
-1.623749999999574
 20
13.80741064490751
 30
0.0
 11
-1.623749999999574
 21
13.83866064490751
 31
0.0
  0
ARC
  5
F04
330
1E
100
AcDbEntity
  8
0
100
AcDbCircle
 10
-1.686249999999574
 20
13.83866064490751
 30
0.0
 40
0.0625
100
AcDbArc
 50
0.0
 51
90.0
  0
LINE
  5
F05
330
1E
100
AcDbEntity
  8
0
100
AcDbLine
 10
-1.686249999999574
 20
13.90116064490751
 30
0.0
 11
-1.849999999999965
 21
13.90116064490751
 31
0.0
  0
LINE
  5
F06
330
1E
100
AcDbEntity
  8
0
100
AcDbLine
 10
-1.779999999999972
 20
16.7136606449075
 30
0.0
 11
-1.686249999999574
 21
16.71366064490752
 31
0.0
  0
ARC
  5
F07
330
1E
100
AcDbEntity
  8
0
100
AcDbCircle
 10
-1.686249999999574
 20
16.77616064490752
 30
0.0
 40
0.0625
100
AcDbArc
 50
270.0
 51
0.0
  0
LINE
  5
F08
330
1E
100
AcDbEntity
  8
0
100
AcDbLine
 10
-1.623749999999574
 20
16.77616064490752
 30
0.0
 11
-1.623749999999574
 21
16.80741064490752
 31
0.0
  0
LINE
  5
F09
330
1E
100
AcDbEntity
  8
0
100
AcDbLine
 10
-1.849999999999965
 20
16.98741064490747
 30
0.0
 11
-1.849999999999965
 21
13.90116064490751
 31
0.0
  0
LINE
  5
F0A
330
1E
100
AcDbEntity
  8
0
  6
HIDDEN
100
AcDbLine
 10
-1.919999999999958
 20
17.12741064490746
 30
0.0
 11
-4.974999999999908
 21
17.12741064490746
 31
0.0
  0
ARC
  5
F0B
330
1E
100
AcDbEntity
  8
0
100
AcDbCircle
 10
-1.919999999999958
 20
16.98741064490747
 30
0.0
 40
0.07
100
AcDbArc
 50
0.0
 51
90.0
  0
ARC
  5
F0C
330
1E
100
AcDbEntity
  8
0
100
AcDbCircle
 10
-1.919999999999958
 20
16.98741064490747
 30
0.0
 40
0.14
100
AcDbArc
 50
0.0
 51
90.0
  0
LINE
  5
F0D
330
1E
100
AcDbEntity
  8
0
100
AcDbLine
 10
-4.974999999999908
 20
19.37741064490752
 30
0.0
 11
-4.974999999999908
 21
17.25743520927853
 31
0.0
  0
LINE
  5
F0E
330
1E
100
AcDbEntity
  8
0
100
AcDbLine
 10
-4.724999999999908
 20
19.62741064490752
 30
0.0
 11
-4.974999999999908
 21
19.37741064490752
 31
0.0
  0
LINE
  5
F0F
330
1E
100
AcDbEntity
  8
0
100
AcDbLine
 10
-3.787500000001045
 20
19.62741064490752
 30
0.0
 11
-4.724999999999908
 21
19.62741064490752
 31
0.0
  0
LINE
  5
F10
330
1E
100
AcDbEntity
  8
0
100
AcDbLine
 10
-2.224999999999908
 20
19.62741064490752
 30
0.0
 11
-3.287500000001045
 21
19.62741064490752
 31
0.0
  0
LINE
  5
F11
330
1E
100
AcDbEntity
  8
0
100
AcDbLine
 10
-1.974999999999908
 20
19.37741064490752
 30
0.0
 11
-2.224999999999908
 21
19.62741064490752
 31
0.0
  0
LINE
  5
F12
330
1E
100
AcDbEntity
  8
0
100
AcDbLine
 10
-1.974999999999908
 20
17.25743520927853
 30
0.0
 11
-1.974999999999908
 21
19.37741064490752
 31
0.0
  0
ARC
  5
F13
330
1E
100
AcDbEntity
  8
0
100
AcDbCircle
 10
-2.349999999999908
 20
17.68991064490746
 30
0.0
 40
0.1875
100
AcDbArc
 50
0.0
 51
180.0
  0
CIRCLE
  5
F14
330
1E
100
AcDbEntity
  8
0
100
AcDbCircle
 10
-2.412499999999908
 20
19.31491064490752
 30
0.0
 40
0.0855
  0
LINE
  5
F15
330
1E
100
AcDbEntity
  8
0
100
AcDbLine
 10
-3.818999999999902
 20
17.09241064490746
 30
0.0
 11
-3.818999999999902
 21
19.62741064490752
 31
0.0
  0
LINE
  5
F16
330
1E
100
AcDbEntity
  8
0
100
AcDbLine
 10
-4.318999999999902
 20
17.09241064490746
 30
0.0
 11
-4.318999999999902
 21
19.62741064490752
 31
0.0
  0
CIRCLE
  5
F17
330
1E
100
AcDbEntity
  8
0
100
AcDbCircle
 10
-3.474999999999908
 20
18.37741064490752
 30
0.0
 40
0.0855
  0
CIRCLE
  5
F18
330
1E
100
AcDbEntity
  8
0
100
AcDbCircle
 10
-4.537499999999908
 20
19.12741064490752
 30
0.0
 40
0.0855
  0
ARC
  5
F19
330
1E
100
AcDbEntity
  8
0
100
AcDbCircle
 10
-4.068999999999902
 20
17.62741064490746
 30
0.0
 40
0.25
100
AcDbArc
 50
359.9999726792433
 51
180.0000273207567
  0
ARC
  5
F1A
330
1E
100
AcDbEntity
  8
0
100
AcDbCircle
 10
-2.349999999999908
 20
18.87741064490746
 30
0.0
 40
0.1875
100
AcDbArc
 50
0.0
 51
180.0
  0
ARC
  5
F1B
330
1E
100
AcDbEntity
  8
0
100
AcDbCircle
 10
-3.537500000001045
 20
19.62741064490752
 30
0.0
 40
0.25
100
AcDbArc
 50
180.0
 51
0.0
  0
ARC
  5
F1C
330
1E
100
AcDbEntity
  8
0
100
AcDbCircle
 10
-1.474999999999908
 20
17.25743520927853
 30
0.0
 40
0.5
100
AcDbArc
 50
180.0
 51
195.0729772896067
  0
ARC
  5
F1D
330
1E
100
AcDbEntity
  8
0
100
AcDbCircle
 10
-4.474999999999908
 20
17.25743520927853
 30
0.0
 40
0.5
100
AcDbArc
 50
180.0
 51
195.0729772896067
  0
LINE
  5
F1E
330
1E
100
AcDbEntity
  8
0
100
AcDbLine
 10
-4.974999999999908
 20
17.12741064490746
 30
0.0
 11
-4.974999999999908
 21
17.05741064490747
 31
0.0
  0
LINE
  5
F1F
330
1E
100
AcDbEntity
  8
0
100
AcDbLine
 10
-2.537499999999965
 20
17.09241064490746
 30
0.0
 11
-2.537499999999908
 21
18.87741064490746
 31
0.0
  0
LINE
  5
F20
330
1E
100
AcDbEntity
  8
0
100
AcDbLine
 10
-2.162499999999908
 20
17.09241064490749
 30
0.0
 11
-2.162499999999908
 21
18.87741064490746
 31
0.0
  0
ARC
  5
F21
330
1E
100
AcDbEntity
  8
0
100
AcDbCircle
 10
-3.116249999999922
 20
17.09241064490746
 30
0.0
 40
0.07
100
AcDbArc
 50
180.0
 51
270.0
  0
ARC
  5
F22
330
1E
100
AcDbEntity
  8
0
100
AcDbCircle
 10
-3.116249999999922
 20
17.09241064490746
 30
0.0
 40
0.14
100
AcDbArc
 50
180.0
 51
270.0
  0
LINE
  5
F23
330
1E
100
AcDbEntity
  8
0
  6
HIDDEN
100
AcDbLine
 10
-3.116249999999922
 20
17.02241064490744
 30
0.0
 11
-2.896249999999951
 21
17.02241064490744
 31
0.0
  0
LINE
  5
F24
330
1E
100
AcDbEntity
  8
0
  6
HIDDEN
100
AcDbLine
 10
-3.116249999999922
 20
16.95241064490745
 30
0.0
 11
-2.896249999999951
 21
16.95241064490745
 31
0.0
  0
ARC
  5
F25
330
1E
100
AcDbEntity
  8
0
100
AcDbCircle
 10
-2.896249999999951
 20
17.09241064490746
 30
0.0
 40
0.07
100
AcDbArc
 50
270.0
 51
0.0
  0
ARC
  5
F26
330
1E
100
AcDbEntity
  8
0
100
AcDbCircle
 10
-2.896249999999951
 20
17.09241064490746
 30
0.0
 40
0.14
100
AcDbArc
 50
270.0
 51
0.0
  0
LINE
  5
F27
330
1E
100
AcDbEntity
  8
0
100
AcDbLine
 10
-2.397499999999979
 20
17.02241064490744
 30
0.0
 11
-2.302499999999951
 21
17.02241064490747
 31
0.0
  0
LINE
  5
F28
330
1E
100
AcDbEntity
  8
0
100
AcDbLine
 10
-2.397499999999979
 20
16.95241064490745
 30
0.0
 11
-2.302499999999951
 21
16.95241064490745
 31
0.0
  0
ARC
  5
F29
330
1E
100
AcDbEntity
  8
0
100
AcDbCircle
 10
-2.302499999999951
 20
17.09241064490749
 30
0.0
 40
0.14
100
AcDbArc
 50
270.0
 51
0.0
  0
ARC
  5
F2A
330
1E
100
AcDbEntity
  8
0
100
AcDbCircle
 10
-2.302499999999951
 20
17.09241064490749
 30
0.0
 40
0.07
100
AcDbArc
 50
270.0
 51
0.0
  0
ARC
  5
F2B
330
1E
100
AcDbEntity
  8
0
100
AcDbCircle
 10
-2.397499999999979
 20
17.09241064490746
 30
0.0
 40
0.14
100
AcDbArc
 50
180.0
 51
270.0
  0
ARC
  5
F2C
330
1E
100
AcDbEntity
  8
0
100
AcDbCircle
 10
-2.397499999999979
 20
17.09241064490746
 30
0.0
 40
0.07
100
AcDbArc
 50
180.0
 51
270.0
  0
ARC
  5
F2D
330
1E
100
AcDbEntity
  8
0
100
AcDbCircle
 10
-3.958999999999946
 20
17.09241064490746
 30
0.0
 40
0.14
100
AcDbArc
 50
270.0
 51
0.0
  0
ARC
  5
F2E
330
1E
100
AcDbEntity
  8
0
100
AcDbCircle
 10
-4.178999999999916
 20
17.09241064490746
 30
0.0
 40
0.07
100
AcDbArc
 50
180.0
 51
270.0
  0
ARC
  5
F2F
330
1E
100
AcDbEntity
  8
0
100
AcDbCircle
 10
-3.958999999999946
 20
17.09241064490746
 30
0.0
 40
0.07
100
AcDbArc
 50
270.0
 51
0.0
  0
LINE
  5
F30
330
1E
100
AcDbEntity
  8
0
  6
HIDDEN
100
AcDbLine
 10
-4.178999999999916
 20
16.95241064490745
 30
0.0
 11
-3.958999999999946
 21
16.95241064490745
 31
0.0
  0
ARC
  5
F31
330
1E
100
AcDbEntity
  8
0
100
AcDbCircle
 10
-4.178999999999916
 20
17.09241064490746
 30
0.0
 40
0.14
100
AcDbArc
 50
180.0
 51
270.0
  0
LINE
  5
F32
330
1E
100
AcDbEntity
  8
0
  6
HIDDEN
100
AcDbLine
 10
-4.178999999999916
 20
17.02241064490744
 30
0.0
 11
-3.958999999999946
 21
17.02241064490744
 31
0.0
  0
LINE
  5
F33
330
1E
100
AcDbEntity
  8
0
100
AcDbLine
 10
-3.256249999999965
 20
19.62741064490752
 30
0.0
 11
-3.256249999999965
 21
17.09241064490746
 31
0.0
  0
LINE
  5
F34
330
1E
100
AcDbEntity
  8
0
100
AcDbLine
 10
-2.756249999999965
 20
17.09241064490746
 30
0.0
 11
-2.756249999999965
 21
19.62741064490752
 31
0.0
  0
LINE
  5
F35
330
1E
100
AcDbEntity
  8
0
  6
THD
100
AcDbLine
 10
-3.186249999999972
 20
19.62741064490752
 30
0.0
 11
-3.186249999999972
 21
17.09241064490746
 31
0.0
  0
LINE
  5
F36
330
1E
100
AcDbEntity
  8
0
  6
THD
100
AcDbLine
 10
-2.826249999999958
 20
17.09241064490746
 30
0.0
 11
-2.826249999999958
 21
19.62741064490752
 31
0.0
  0
ARC
  5
F37
330
1E
100
AcDbEntity
  8
0
  6
THD
100
AcDbCircle
 10
-3.006249999999908
 20
17.62741064490746
 30
0.0
 40
0.18
100
AcDbArc
 50
0.0
 51
180.0
  0
ARC
  5
F38
330
1E
100
AcDbEntity
  8
0
100
AcDbCircle
 10
-3.006249999999908
 20
17.62741064490746
 30
0.0
 40
0.25
100
AcDbArc
 50
359.9999726792433
 51
180.0000273207567
  0
LINE
  5
F39
330
1E
100
AcDbEntity
  8
0
  6
THD
100
AcDbLine
 10
-3.888999999999952
 20
17.09241064490746
 30
0.0
 11
-3.888999999999952
 21
19.62741064490752
 31
0.0
  0
LINE
  5
F3A
330
1E
100
AcDbEntity
  8
0
  6
THD
100
AcDbLine
 10
-4.248999999999966
 20
19.62741064490752
 30
0.0
 11
-4.248999999999966
 21
17.09241064490746
 31
0.0
  0
ARC
  5
F3B
330
1E
100
AcDbEntity
  8
0
  6
THD
100
AcDbCircle
 10
-4.068999999999902
 20
17.62741064490746
 30
0.0
 40
0.18
100
AcDbArc
 50
0.0
 51
180.0
  0
ARC
  5
F3C
330
1E
100
AcDbEntity
  8
0
  6
THD
100
AcDbCircle
 10
-2.349999999999908
 20
18.87741064490746
 30
0.0
 40
0.1175
100
AcDbArc
 50
0.0
 51
180.0
  0
LINE
  5
F3D
330
1E
100
AcDbEntity
  8
0
  6
THD
100
AcDbLine
 10
-2.467499999999915
 20
18.87741064490746
 30
0.0
 11
-2.467499999999972
 21
17.09241064490746
 31
0.0
  0
LINE
  5
F3E
330
1E
100
AcDbEntity
  8
0
  6
THD
100
AcDbLine
 10
-2.232499999999901
 20
18.87741064490746
 30
0.0
 11
-2.232499999999958
 21
17.09241064490749
 31
0.0
  0
ARC
  5
F3F
330
1E
100
AcDbEntity
  8
0
  6
THD
100
AcDbCircle
 10
-2.349999999999908
 20
17.68991064490746
 30
0.0
 40
0.1175
100
AcDbArc
 50
0.0
 51
180.0
  0
ARC
  5
F40
330
1E
100
AcDbEntity
  8
0
  6
THD
100
AcDbCircle
 10
2.349999999999965
 20
17.68991064490746
 30
0.0
 40
0.1175
100
AcDbArc
 50
0.0
 51
180.0
  0
LINE
  5
F41
330
1E
100
AcDbEntity
  8
0
  6
THD
100
AcDbLine
 10
2.232499999999901
 20
18.87741064490746
 30
0.0
 11
2.232499999999958
 21
17.09241064490749
 31
0.0
  0
LINE
  5
F42
330
1E
100
AcDbEntity
  8
0
  6
THD
100
AcDbLine
 10
2.467499999999915
 20
18.87741064490746
 30
0.0
 11
2.467499999999972
 21
17.09241064490746
 31
0.0
  0
ARC
  5
F43
330
1E
100
AcDbEntity
  8
0
  6
THD
100
AcDbCircle
 10
2.349999999999965
 20
18.87741064490746
 30
0.0
 40
0.1175
100
AcDbArc
 50
0.0
 51
180.0
  0
ARC
  5
F44
330
1E
100
AcDbEntity
  8
0
  6
THD
100
AcDbCircle
 10
4.068999999999902
 20
17.62741064490746
 30
0.0
 40
0.18
100
AcDbArc
 50
0.0
 51
180.0
  0
LINE
  5
F45
330
1E
100
AcDbEntity
  8
0
  6
THD
100
AcDbLine
 10
4.248999999999966
 20
19.62741064490752
 30
0.0
 11
4.248999999999966
 21
17.09241064490746
 31
0.0
  0
LINE
  5
F46
330
1E
100
AcDbEntity
  8
0
  6
THD
100
AcDbLine
 10
3.888999999999952
 20
17.09241064490746
 30
0.0
 11
3.888999999999952
 21
19.62741064490752
 31
0.0
  0
ARC
  5
F47
330
1E
100
AcDbEntity
  8
0
100
AcDbCircle
 10
3.006249999999965
 20
17.62741064490746
 30
0.0
 40
0.25
100
AcDbArc
 50
359.9999726792433
 51
180.0000273207567
  0
ARC
  5
F48
330
1E
100
AcDbEntity
  8
0
  6
THD
100
AcDbCircle
 10
3.006249999999965
 20
17.62741064490746
 30
0.0
 40
0.18
100
AcDbArc
 50
0.0
 51
180.0
  0
LINE
  5
F49
330
1E
100
AcDbEntity
  8
0
  6
THD
100
AcDbLine
 10
2.826249999999958
 20
17.09241064490746
 30
0.0
 11
2.826249999999958
 21
19.62741064490752
 31
0.0
  0
LINE
  5
F4A
330
1E
100
AcDbEntity
  8
0
  6
THD
100
AcDbLine
 10
3.186249999999972
 20
19.62741064490752
 30
0.0
 11
3.186249999999972
 21
17.09241064490746
 31
0.0
  0
LINE
  5
F4B
330
1E
100
AcDbEntity
  8
0
100
AcDbLine
 10
2.756249999999965
 20
17.09241064490746
 30
0.0
 11
2.756249999999965
 21
19.62741064490752
 31
0.0
  0
LINE
  5
F4C
330
1E
100
AcDbEntity
  8
0
100
AcDbLine
 10
3.256249999999965
 20
19.62741064490752
 30
0.0
 11
3.256249999999965
 21
17.09241064490746
 31
0.0
  0
LINE
  5
F4D
330
1E
100
AcDbEntity
  8
0
  6
HIDDEN
100
AcDbLine
 10
4.178999999999973
 20
17.02241064490744
 30
0.0
 11
3.959000000000002
 21
17.02241064490744
 31
0.0
  0
ARC
  5
F4E
330
1E
100
AcDbEntity
  8
0
100
AcDbCircle
 10
4.178999999999973
 20
17.09241064490746
 30
0.0
 40
0.14
100
AcDbArc
 50
270.0
 51
0.0
  0
LINE
  5
F4F
330
1E
100
AcDbEntity
  8
0
  6
HIDDEN
100
AcDbLine
 10
4.178999999999973
 20
16.95241064490745
 30
0.0
 11
3.959000000000002
 21
16.95241064490745
 31
0.0
  0
ARC
  5
F50
330
1E
100
AcDbEntity
  8
0
100
AcDbCircle
 10
3.959000000000002
 20
17.09241064490746
 30
0.0
 40
0.07
100
AcDbArc
 50
180.0
 51
270.0
  0
ARC
  5
F51
330
1E
100
AcDbEntity
  8
0
100
AcDbCircle
 10
4.178999999999973
 20
17.09241064490746
 30
0.0
 40
0.07
100
AcDbArc
 50
270.0
 51
0.0
  0
ARC
  5
F52
330
1E
100
AcDbEntity
  8
0
100
AcDbCircle
 10
3.959000000000002
 20
17.09241064490746
 30
0.0
 40
0.14
100
AcDbArc
 50
180.0
 51
270.0
  0
ARC
  5
F53
330
1E
100
AcDbEntity
  8
0
100
AcDbCircle
 10
2.397499999999979
 20
17.09241064490746
 30
0.0
 40
0.07
100
AcDbArc
 50
270.0
 51
0.0
  0
ARC
  5
F54
330
1E
100
AcDbEntity
  8
0
100
AcDbCircle
 10
2.397499999999979
 20
17.09241064490746
 30
0.0
 40
0.14
100
AcDbArc
 50
270.0
 51
0.0
  0
ARC
  5
F55
330
1E
100
AcDbEntity
  8
0
100
AcDbCircle
 10
2.302499999999951
 20
17.09241064490749
 30
0.0
 40
0.07
100
AcDbArc
 50
180.0
 51
270.0
  0
ARC
  5
F56
330
1E
100
AcDbEntity
  8
0
100
AcDbCircle
 10
2.302499999999951
 20
17.09241064490749
 30
0.0
 40
0.14
100
AcDbArc
 50
180.0
 51
270.0
  0
LINE
  5
F57
330
1E
100
AcDbEntity
  8
0
100
AcDbLine
 10
2.397499999999979
 20
16.95241064490745
 30
0.0
 11
2.302499999999951
 21
16.95241064490745
 31
0.0
  0
LINE
  5
F58
330
1E
100
AcDbEntity
  8
0
100
AcDbLine
 10
2.397499999999979
 20
17.02241064490744
 30
0.0
 11
2.302499999999951
 21
17.02241064490747
 31
0.0
  0
ARC
  5
F59
330
1E
100
AcDbEntity
  8
0
100
AcDbCircle
 10
2.896249999999951
 20
17.09241064490746
 30
0.0
 40
0.14
100
AcDbArc
 50
180.0
 51
270.0
  0
ARC
  5
F5A
330
1E
100
AcDbEntity
  8
0
100
AcDbCircle
 10
2.896249999999951
 20
17.09241064490746
 30
0.0
 40
0.07
100
AcDbArc
 50
180.0
 51
270.0
  0
LINE
  5
F5B
330
1E
100
AcDbEntity
  8
0
  6
HIDDEN
100
AcDbLine
 10
3.116249999999979
 20
16.95241064490745
 30
0.0
 11
2.896249999999951
 21
16.95241064490745
 31
0.0
  0
LINE
  5
F5C
330
1E
100
AcDbEntity
  8
0
  6
HIDDEN
100
AcDbLine
 10
3.116249999999979
 20
17.02241064490744
 30
0.0
 11
2.896249999999951
 21
17.02241064490744
 31
0.0
  0
ARC
  5
F5D
330
1E
100
AcDbEntity
  8
0
100
AcDbCircle
 10
3.116249999999979
 20
17.09241064490746
 30
0.0
 40
0.14
100
AcDbArc
 50
270.0
 51
0.0
  0
ARC
  5
F5E
330
1E
100
AcDbEntity
  8
0
100
AcDbCircle
 10
3.116249999999979
 20
17.09241064490746
 30
0.0
 40
0.07
100
AcDbArc
 50
270.0
 51
0.0
  0
LINE
  5
F5F
330
1E
100
AcDbEntity
  8
0
100
AcDbLine
 10
2.162499999999965
 20
17.09241064490749
 30
0.0
 11
2.162499999999965
 21
18.87741064490746
 31
0.0
  0
LINE
  5
F60
330
1E
100
AcDbEntity
  8
0
100
AcDbLine
 10
2.537499999999965
 20
17.09241064490746
 30
0.0
 11
2.537499999999965
 21
18.87741064490746
 31
0.0
  0
LINE
  5
F61
330
1E
100
AcDbEntity
  8
0
100
AcDbLine
 10
4.974999999999965
 20
17.12741064490746
 30
0.0
 11
4.974999999999965
 21
17.05741064490747
 31
0.0
  0
ARC
  5
F62
330
1E
100
AcDbEntity
  8
0
100
AcDbCircle
 10
4.474999999999965
 20
17.25743520927853
 30
0.0
 40
0.5
100
AcDbArc
 50
344.9270227103933
 51
0.0
  0
ARC
  5
F63
330
1E
100
AcDbEntity
  8
0
100
AcDbCircle
 10
1.474999999999965
 20
17.25743520927853
 30
0.0
 40
0.5
100
AcDbArc
 50
344.9270227103933
 51
0.0
  0
ARC
  5
F64
330
1E
100
AcDbEntity
  8
0
100
AcDbCircle
 10
3.53749999999826
 20
19.62741064490752
 30
0.0
 40
0.25
100
AcDbArc
 50
180.0
 51
0.0
  0
ARC
  5
F65
330
1E
100
AcDbEntity
  8
0
100
AcDbCircle
 10
2.349999999999965
 20
18.87741064490746
 30
0.0
 40
0.1875
100
AcDbArc
 50
0.0
 51
180.0
  0
ARC
  5
F66
330
1E
100
AcDbEntity
  8
0
100
AcDbCircle
 10
4.068999999999902
 20
17.62741064490746
 30
0.0
 40
0.25
100
AcDbArc
 50
359.9999726792433
 51
180.0000273207567
  0
CIRCLE
  5
F67
330
1E
100
AcDbEntity
  8
0
100
AcDbCircle
 10
4.537499999999965
 20
19.12741064490752
 30
0.0
 40
0.0855
  0
CIRCLE
  5
F68
330
1E
100
AcDbEntity
  8
0
100
AcDbCircle
 10
3.474999999999965
 20
18.37741064490752
 30
0.0
 40
0.0855
  0
LINE
  5
F69
330
1E
100
AcDbEntity
  8
0
100
AcDbLine
 10
4.318999999999902
 20
17.09241064490746
 30
0.0
 11
4.318999999999902
 21
19.62741064490752
 31
0.0
  0
LINE
  5
F6A
330
1E
100
AcDbEntity
  8
0
100
AcDbLine
 10
3.818999999999902
 20
17.09241064490746
 30
0.0
 11
3.818999999999902
 21
19.62741064490752
 31
0.0
  0
CIRCLE
  5
F6B
330
1E
100
AcDbEntity
  8
0
100
AcDbCircle
 10
2.412499999999965
 20
19.31491064490752
 30
0.0
 40
0.0855
  0
ARC
  5
F6C
330
1E
100
AcDbEntity
  8
0
100
AcDbCircle
 10
2.349999999999965
 20
17.68991064490746
 30
0.0
 40
0.1875
100
AcDbArc
 50
0.0
 51
180.0
  0
LINE
  5
F6D
330
1E
100
AcDbEntity
  8
0
100
AcDbLine
 10
1.974999999999965
 20
17.25743520927853
 30
0.0
 11
1.974999999999965
 21
19.37741064490752
 31
0.0
  0
LINE
  5
F6E
330
1E
100
AcDbEntity
  8
0
100
AcDbLine
 10
1.974999999999965
 20
19.37741064490752
 30
0.0
 11
2.224999999999965
 21
19.62741064490752
 31
0.0
  0
LINE
  5
F6F
330
1E
100
AcDbEntity
  8
0
100
AcDbLine
 10
2.224999999999965
 20
19.62741064490752
 30
0.0
 11
3.28749999999826
 21
19.62741064490752
 31
0.0
  0
LINE
  5
F70
330
1E
100
AcDbEntity
  8
0
100
AcDbLine
 10
3.78749999999826
 20
19.62741064490752
 30
0.0
 11
4.724999999999965
 21
19.62741064490752
 31
0.0
  0
LINE
  5
F71
330
1E
100
AcDbEntity
  8
0
100
AcDbLine
 10
4.724999999999965
 20
19.62741064490752
 30
0.0
 11
4.974999999999965
 21
19.37741064490752
 31
0.0
  0
LINE
  5
F72
330
1E
100
AcDbEntity
  8
0
100
AcDbLine
 10
4.974999999999965
 20
19.37741064490752
 30
0.0
 11
4.974999999999965
 21
17.25743520927853
 31
0.0
  0
ARC
  5
F73
330
1E
100
AcDbEntity
  8
0
100
AcDbCircle
 10
1.920000000000015
 20
16.98741064490747
 30
0.0
 40
0.14
100
AcDbArc
 50
90.0
 51
180.0
  0
ARC
  5
F74
330
1E
100
AcDbEntity
  8
0
100
AcDbCircle
 10
1.920000000000015
 20
16.98741064490747
 30
0.0
 40
0.07
100
AcDbArc
 50
90.0
 51
180.0
  0
LINE
  5
F75
330
1E
100
AcDbEntity
  8
0
  6
HIDDEN
100
AcDbLine
 10
1.920000000000015
 20
17.12741064490746
 30
0.0
 11
4.974999999999965
 21
17.12741064490746
 31
0.0
  0
LINE
  5
F76
330
1E
100
AcDbEntity
  8
0
100
AcDbLine
 10
1.920000000000015
 20
17.05741064490747
 30
0.0
 11
2.166945582882698
 21
17.05741064490747
 31
0.0
  0
LINE
  5
F77
330
1E
100
AcDbEntity
  8
0
100
AcDbLine
 10
1.849999999999965
 20
16.98741064490747
 30
0.0
 11
1.849999999999965
 21
13.90116064490751
 31
0.0
  0
LINE
  5
F78
330
1E
100
AcDbEntity
  8
0
100
AcDbLine
 10
1.780000000000029
 20
16.98741064490747
 30
0.0
 11
1.780000000000029
 21
13.90116064490751
 31
0.0
  0
LINE
  5
F79
330
1E
100
AcDbEntity
  8
0
100
AcDbLine
 10
4.974999999999965
 20
9.264999999999976
 30
0.0
 11
4.974999999999965
 21
9.194999999999983
 31
0.0
  0
LINE
  5
F7A
330
1E
100
AcDbEntity
  8
0
  6
HIDDEN
100
AcDbLine
 10
4.974999999999965
 20
9.194999999999983
 30
0.0
 11
1.957797693304427
 21
9.194999999999983
 31
0.0
  0
LINE
  5
F7B
330
1E
100
AcDbEntity
  8
0
100
AcDbLine
 10
1.849999999999979
 20
0.1399999999999935
 30
0.0
 11
1.849999999999965
 21
8.994305650487993
 31
0.0
  0
CIRCLE
  5
F7C
330
1E
100
AcDbEntity
  8
0
100
AcDbCircle
 10
3.724999999999965
 20
8.444999999999984
 30
0.0
 40
0.0855
  0
CIRCLE
  5
F7D
330
1E
100
AcDbEntity
  8
0
100
AcDbCircle
 10
2.537499999999965
 20
8.069999999999984
 30
0.0
 40
0.0855
  0
CIRCLE
  5
F7E
330
1E
100
AcDbEntity
  8
0
100
AcDbCircle
 10
3.474999999901399
 20
7.382499999788498
 30
0.0
 40
0.0855
  0
CIRCLE
  5
F7F
330
1E
100
AcDbEntity
  8
0
100
AcDbCircle
 10
2.349999999901399
 20
7.069999999823386
 30
0.0
 40
0.0855
  0
CIRCLE
  5
F80
330
1E
100
AcDbEntity
  8
0
100
AcDbCircle
 10
2.89591836734695
 20
5.22625
 30
0.0
 40
0.0855
  0
ARC
  5
F81
330
1E
100
AcDbEntity
  8
0
100
AcDbCircle
 10
1.474999999999965
 20
9.325024564371038
 30
0.0
 40
0.5
100
AcDbArc
 50
318.590377890731
 51
353.1050620539855
  0
LINE
  5
F82
330
1E
100
AcDbEntity
  8
0
100
AcDbLine
 10
1.780000000000001
 20
0.139999999999993
 30
0.0
 11
1.780000000000029
 21
8.928823857657894
 31
0.0
  0
ARC
  5
F83
330
1E
100
AcDbEntity
  8
0
100
AcDbCircle
 10
1.709999999999979
 20
0.1399999999999935
 30
0.0
 40
0.07
100
AcDbArc
 50
270.0
 51
0.0
  0
ARC
  5
F84
330
1E
100
AcDbEntity
  8
0
100
AcDbCircle
 10
1.709999999999979
 20
0.1399999999999935
 30
0.0
 40
0.14
100
AcDbArc
 50
270.0
 51
0.0
  0
ARC
  5
F85
330
1E
100
AcDbEntity
  8
0
100
AcDbCircle
 10
1.474999999999965
 20
9.325024564371038
 30
0.0
 40
0.5
100
AcDbArc
 50
307.5895029648578
 51
319.9999999999992
  0
LINE
  5
F86
330
1E
100
AcDbEntity
  8
0
100
AcDbLine
 10
1.974999999999965
 20
9.264999999999947
 30
0.0
 11
1.974999999999965
 21
9.194999999999983
 31
0.0
  0
LINE
  5
F87
330
1E
100
AcDbEntity
  8
0
100
AcDbLine
 10
4.974999999999965
 20
9.264999999999976
 30
0.0
 11
4.314554417117235
 21
9.264999999999969
 31
0.0
  0
ARC
  5
F88
330
1E
100
AcDbEntity
  8
0
  6
THD
100
AcDbCircle
 10
3.116249999999979
 20
9.159999999999986
 30
0.0
 40
0.07
100
AcDbArc
 50
0.0
 51
90.0
  0
ARC
  5
F89
330
1E
100
AcDbEntity
  8
0
  6
THD
100
AcDbCircle
 10
3.116249999999979
 20
9.159999999999986
 30
0.0
 40
0.14
100
AcDbArc
 50
0.0
 51
90.0
  0
ARC
  5
F8A
330
1E
100
AcDbEntity
  8
0
  6
THD
100
AcDbCircle
 10
3.116249999999979
 20
9.229999999999979
 30
0.0
 40
0.07
100
AcDbArc
 50
0.0
 51
90.0
  0
ARC
  5
F8B
330
1E
100
AcDbEntity
  8
0
100
AcDbCircle
 10
3.116249999999979
 20
9.229999999999979
 30
0.0
 40
0.14
100
AcDbArc
 50
0.0
 51
90.0
  0
ARC
  5
F8C
330
1E
100
AcDbEntity
  8
0
  6
THD
100
AcDbCircle
 10
2.896249999999951
 20
9.159999999999986
 30
0.0
 40
0.07
100
AcDbArc
 50
90.0
 51
180.0
  0
LINE
  5
F8D
330
1E
100
AcDbEntity
  8
0
  6
THD
100
AcDbLine
 10
3.116249999999979
 20
9.229999999999979
 30
0.0
 11
2.896249999999951
 21
9.229999999999979
 31
0.0
  0
LINE
  5
F8E
330
1E
100
AcDbEntity
  8
0
  6
THD
100
AcDbLine
 10
3.116249999999979
 20
9.299999999999972
 30
0.0
 11
2.896249999999951
 21
9.299999999999972
 31
0.0
  0
ARC
  5
F8F
330
1E
100
AcDbEntity
  8
0
  6
THD
100
AcDbCircle
 10
2.896249999999951
 20
9.159999999999986
 30
0.0
 40
0.14
100
AcDbArc
 50
90.0
 51
180.0
  0
LINE
  5
F90
330
1E
100
AcDbEntity
  8
0
  6
HIDDEN
100
AcDbLine
 10
3.116249999999979
 20
9.36999999999998
 30
0.0
 11
2.896249999999951
 21
9.36999999999998
 31
0.0
  0
ARC
  5
F91
330
1E
100
AcDbEntity
  8
0
  6
THD
100
AcDbCircle
 10
2.896249999999951
 20
9.229999999999979
 30
0.0
 40
0.07
100
AcDbArc
 50
90.0
 51
180.0
  0
ARC
  5
F92
330
1E
100
AcDbEntity
  8
0
100
AcDbCircle
 10
2.896249999999951
 20
9.229999999999979
 30
0.0
 40
0.14
100
AcDbArc
 50
90.0
 51
180.0
  0
LINE
  5
F93
330
1E
100
AcDbEntity
  8
0
  6
THD
100
AcDbLine
 10
2.36721498398657
 20
9.229999999999979
 30
0.0
 11
2.319714983986557
 21
9.229999999999979
 31
0.0
  0
LINE
  5
F94
330
1E
100
AcDbEntity
  8
0
  6
THD
100
AcDbLine
 10
2.373749999999972
 20
9.299999999999972
 30
0.0
 11
2.326249999999958
 21
9.299999999999972
 31
0.0
  0
LINE
  5
F95
330
1E
100
AcDbEntity
  8
0
100
AcDbLine
 10
2.397499999999979
 20
9.36999999999998
 30
0.0
 11
2.302499999999951
 21
9.369999999999966
 31
0.0
  0
ARC
  5
F96
330
1E
100
AcDbEntity
  8
0
100
AcDbCircle
 10
2.302499999999951
 20
9.229999999999979
 30
0.0
 40
0.14
100
AcDbArc
 50
90.0
 51
180.0
  0
ARC
  5
F97
330
1E
100
AcDbEntity
  8
0
  6
THD
100
AcDbCircle
 10
2.302499999999951
 20
9.229999999999979
 30
0.0
 40
0.07
100
AcDbArc
 50
90.0
 51
180.0
  0
ARC
  5
F98
330
1E
100
AcDbEntity
  8
0
  6
THD
100
AcDbCircle
 10
2.302499999999951
 20
9.159999999999972
 30
0.0
 40
0.14
100
AcDbArc
 50
90.0
 51
180.0
  0
ARC
  5
F99
330
1E
100
AcDbEntity
  8
0
  6
THD
100
AcDbCircle
 10
2.302499999999951
 20
9.159999999999972
 30
0.0
 40
0.07
100
AcDbArc
 50
90.0
 51
180.0
  0
ARC
  5
F9A
330
1E
100
AcDbEntity
  8
0
100
AcDbCircle
 10
2.397499999999979
 20
9.229999999999979
 30
0.0
 40
0.14
100
AcDbArc
 50
0.0
 51
90.0
  0
ARC
  5
F9B
330
1E
100
AcDbEntity
  8
0
  6
THD
100
AcDbCircle
 10
2.397499999999979
 20
9.229999999999979
 30
0.0
 40
0.07
100
AcDbArc
 50
0.0
 51
90.0
  0
ARC
  5
F9C
330
1E
100
AcDbEntity
  8
0
  6
THD
100
AcDbCircle
 10
2.397499999999979
 20
9.159999999999986
 30
0.0
 40
0.14
100
AcDbArc
 50
0.0
 51
90.0
  0
ARC
  5
F9D
330
1E
100
AcDbEntity
  8
0
  6
THD
100
AcDbCircle
 10
2.397499999999979
 20
9.159999999999986
 30
0.0
 40
0.07
100
AcDbArc
 50
0.0
 51
90.0
  0
ARC
  5
F9E
330
1E
100
AcDbEntity
  8
0
100
AcDbCircle
 10
3.959000000000002
 20
9.229999999999979
 30
0.0
 40
0.14
100
AcDbArc
 50
90.0
 51
180.0
  0
ARC
  5
F9F
330
1E
100
AcDbEntity
  8
0
  6
THD
100
AcDbCircle
 10
3.959000000000002
 20
9.159999999999986
 30
0.0
 40
0.14
100
AcDbArc
 50
90.0
 51
180.0
  0
ARC
  5
FA0
330
1E
100
AcDbEntity
  8
0
  6
THD
100
AcDbCircle
 10
4.178999999999973
 20
9.229999999999979
 30
0.0
 40
0.07
100
AcDbArc
 50
0.0
 51
90.0
  0
ARC
  5
FA1
330
1E
100
AcDbEntity
  8
0
  6
THD
100
AcDbCircle
 10
3.959000000000002
 20
9.229999999999979
 30
0.0
 40
0.07
100
AcDbArc
 50
90.0
 51
180.0
  0
LINE
  5
FA2
330
1E
100
AcDbEntity
  8
0
  6
HIDDEN
100
AcDbLine
 10
4.178999999999973
 20
9.36999999999998
 30
0.0
 11
3.959000000000002
 21
9.36999999999998
 31
0.0
  0
ARC
  5
FA3
330
1E
100
AcDbEntity
  8
0
100
AcDbCircle
 10
4.178999999999973
 20
9.229999999999979
 30
0.0
 40
0.14
100
AcDbArc
 50
0.0
 51
90.0
  0
ARC
  5
FA4
330
1E
100
AcDbEntity
  8
0
  6
THD
100
AcDbCircle
 10
4.178999999999973
 20
9.159999999999986
 30
0.0
 40
0.14
100
AcDbArc
 50
0.0
 51
90.0
  0
ARC
  5
FA5
330
1E
100
AcDbEntity
  8
0
  6
THD
100
AcDbCircle
 10
3.959000000000002
 20
9.159999999999986
 30
0.0
 40
0.07
100
AcDbArc
 50
90.0
 51
180.0
  0
ARC
  5
FA6
330
1E
100
AcDbEntity
  8
0
  6
THD
100
AcDbCircle
 10
4.178999999999973
 20
9.159999999999986
 30
0.0
 40
0.07
100
AcDbArc
 50
0.0
 51
90.0
  0
LINE
  5
FA7
330
1E
100
AcDbEntity
  8
0
  6
THD
100
AcDbLine
 10
4.178999999999973
 20
9.299999999999972
 30
0.0
 11
3.959000000000002
 21
9.299999999999972
 31
0.0
  0
LINE
  5
FA8
330
1E
100
AcDbEntity
  8
0
  6
THD
100
AcDbLine
 10
4.178999999999973
 20
9.229999999999979
 30
0.0
 11
3.959000000000002
 21
9.229999999999979
 31
0.0
  0
LINE
  5
FA9
330
1E
100
AcDbEntity
  8
0
  6
THD
100
AcDbLine
 10
-4.178999999999916
 20
9.229999999999979
 30
0.0
 11
-3.958999999999946
 21
9.229999999999979
 31
0.0
  0
LINE
  5
FAA
330
1E
100
AcDbEntity
  8
0
  6
THD
100
AcDbLine
 10
-4.178999999999916
 20
9.299999999999972
 30
0.0
 11
-3.958999999999946
 21
9.299999999999972
 31
0.0
  0
ARC
  5
FAB
330
1E
100
AcDbEntity
  8
0
  6
THD
100
AcDbCircle
 10
-4.178999999999916
 20
9.159999999999986
 30
0.0
 40
0.07
100
AcDbArc
 50
90.0
 51
180.0
  0
ARC
  5
FAC
330
1E
100
AcDbEntity
  8
0
  6
THD
100
AcDbCircle
 10
-3.958999999999946
 20
9.159999999999986
 30
0.0
 40
0.07
100
AcDbArc
 50
0.0
 51
90.0
  0
ARC
  5
FAD
330
1E
100
AcDbEntity
  8
0
  6
THD
100
AcDbCircle
 10
-4.178999999999916
 20
9.159999999999986
 30
0.0
 40
0.14
100
AcDbArc
 50
90.0
 51
180.0
  0
ARC
  5
FAE
330
1E
100
AcDbEntity
  8
0
100
AcDbCircle
 10
-4.178999999999916
 20
9.229999999999979
 30
0.0
 40
0.14
100
AcDbArc
 50
90.0
 51
180.0
  0
LINE
  5
FAF
330
1E
100
AcDbEntity
  8
0
  6
HIDDEN
100
AcDbLine
 10
-4.178999999999916
 20
9.36999999999998
 30
0.0
 11
-3.958999999999946
 21
9.36999999999998
 31
0.0
  0
ARC
  5
FB0
330
1E
100
AcDbEntity
  8
0
  6
THD
100
AcDbCircle
 10
-3.958999999999946
 20
9.229999999999979
 30
0.0
 40
0.07
100
AcDbArc
 50
0.0
 51
90.0
  0
ARC
  5
FB1
330
1E
100
AcDbEntity
  8
0
  6
THD
100
AcDbCircle
 10
-4.178999999999916
 20
9.229999999999979
 30
0.0
 40
0.07
100
AcDbArc
 50
90.0
 51
180.0
  0
ARC
  5
FB2
330
1E
100
AcDbEntity
  8
0
  6
THD
100
AcDbCircle
 10
-3.958999999999946
 20
9.159999999999986
 30
0.0
 40
0.14
100
AcDbArc
 50
0.0
 51
90.0
  0
ARC
  5
FB3
330
1E
100
AcDbEntity
  8
0
100
AcDbCircle
 10
-3.958999999999946
 20
9.229999999999979
 30
0.0
 40
0.14
100
AcDbArc
 50
0.0
 51
90.0
  0
ARC
  5
FB4
330
1E
100
AcDbEntity
  8
0
  6
THD
100
AcDbCircle
 10
-2.397499999999979
 20
9.159999999999986
 30
0.0
 40
0.07
100
AcDbArc
 50
90.0
 51
180.0
  0
ARC
  5
FB5
330
1E
100
AcDbEntity
  8
0
  6
THD
100
AcDbCircle
 10
-2.397499999999979
 20
9.159999999999986
 30
0.0
 40
0.14
100
AcDbArc
 50
90.0
 51
180.0
  0
ARC
  5
FB6
330
1E
100
AcDbEntity
  8
0
  6
THD
100
AcDbCircle
 10
-2.397499999999979
 20
9.229999999999979
 30
0.0
 40
0.07
100
AcDbArc
 50
90.0
 51
180.0
  0
ARC
  5
FB7
330
1E
100
AcDbEntity
  8
0
100
AcDbCircle
 10
-2.397499999999979
 20
9.229999999999979
 30
0.0
 40
0.14
100
AcDbArc
 50
90.0
 51
180.0
  0
ARC
  5
FB8
330
1E
100
AcDbEntity
  8
0
  6
THD
100
AcDbCircle
 10
-2.302499999999951
 20
9.159999999999972
 30
0.0
 40
0.07
100
AcDbArc
 50
0.0
 51
90.0
  0
ARC
  5
FB9
330
1E
100
AcDbEntity
  8
0
  6
THD
100
AcDbCircle
 10
-2.302499999999951
 20
9.159999999999972
 30
0.0
 40
0.14
100
AcDbArc
 50
0.0
 51
90.0
  0
ARC
  5
FBA
330
1E
100
AcDbEntity
  8
0
  6
THD
100
AcDbCircle
 10
-2.302499999999951
 20
9.229999999999979
 30
0.0
 40
0.07
100
AcDbArc
 50
0.0
 51
90.0
  0
ARC
  5
FBB
330
1E
100
AcDbEntity
  8
0
100
AcDbCircle
 10
-2.302499999999951
 20
9.229999999999979
 30
0.0
 40
0.14
100
AcDbArc
 50
0.0
 51
90.0
  0
LINE
  5
FBC
330
1E
100
AcDbEntity
  8
0
100
AcDbLine
 10
-2.397499999999979
 20
9.36999999999998
 30
0.0
 11
-2.302499999999951
 21
9.369999999999966
 31
0.0
  0
LINE
  5
FBD
330
1E
100
AcDbEntity
  8
0
  6
THD
100
AcDbLine
 10
-2.373749999999972
 20
9.299999999999972
 30
0.0
 11
-2.326249999999958
 21
9.299999999999972
 31
0.0
  0
LINE
  5
FBE
330
1E
100
AcDbEntity
  8
0
  6
THD
100
AcDbLine
 10
-2.373749999999972
 20
9.229999999999979
 30
0.0
 11
-2.326249999999958
 21
9.229999999999979
 31
0.0
  0
ARC
  5
FBF
330
1E
100
AcDbEntity
  8
0
100
AcDbCircle
 10
-2.349999999999965
 20
8.444999999999984
 30
0.0
 40
0.1875
100
AcDbArc
 50
180.0
 51
0.0
  0
ARC
  5
FC0
330
1E
100
AcDbEntity
  8
0
  6
THD
100
AcDbCircle
 10
-2.349999999999965
 20
8.444999999999984
 30
0.0
 40
0.1175
100
AcDbArc
 50
180.0
 51
0.0
  0
LINE
  5
FC1
330
1E
100
AcDbEntity
  8
0
100
AcDbLine
 10
-2.162499999999965
 20
8.444999999999984
 30
0.0
 11
-2.162499999999965
 21
9.229999999999979
 31
0.0
  0
LINE
  5
FC2
330
1E
100
AcDbEntity
  8
0
100
AcDbLine
 10
-2.537499999999965
 20
8.444999999999984
 30
0.0
 11
-2.537499999999965
 21
9.229999999999979
 31
0.0
  0
LINE
  5
FC3
330
1E
100
AcDbEntity
  8
0
  6
THD
100
AcDbLine
 10
-2.467499999999965
 20
8.444999999999984
 30
0.0
 11
-2.467499999999915
 21
9.229999999999979
 31
0.0
  0
LINE
  5
FC4
330
1E
100
AcDbEntity
  8
0
  6
THD
100
AcDbLine
 10
-2.232499999999965
 20
8.444999999999984
 30
0.0
 11
-2.232499999999958
 21
9.229999999999979
 31
0.0
  0
ARC
  5
FC5
330
1E
100
AcDbEntity
  8
0
100
AcDbCircle
 10
-2.896249999999951
 20
9.229999999999979
 30
0.0
 40
0.14
100
AcDbArc
 50
0.0
 51
90.0
  0
ARC
  5
FC6
330
1E
100
AcDbEntity
  8
0
  6
THD
100
AcDbCircle
 10
-2.896249999999951
 20
9.229999999999979
 30
0.0
 40
0.07
100
AcDbArc
 50
0.0
 51
90.0
  0
LINE
  5
FC7
330
1E
100
AcDbEntity
  8
0
  6
HIDDEN
100
AcDbLine
 10
-3.116249999999922
 20
9.36999999999998
 30
0.0
 11
-2.896249999999951
 21
9.36999999999998
 31
0.0
  0
ARC
  5
FC8
330
1E
100
AcDbEntity
  8
0
  6
THD
100
AcDbCircle
 10
-2.896249999999951
 20
9.159999999999986
 30
0.0
 40
0.14
100
AcDbArc
 50
0.0
 51
90.0
  0
LINE
  5
FC9
330
1E
100
AcDbEntity
  8
0
  6
THD
100
AcDbLine
 10
-3.116249999999922
 20
9.299999999999972
 30
0.0
 11
-2.896249999999951
 21
9.299999999999972
 31
0.0
  0
LINE
  5
FCA
330
1E
100
AcDbEntity
  8
0
  6
THD
100
AcDbLine
 10
-3.116249999999922
 20
9.229999999999979
 30
0.0
 11
-2.896249999999951
 21
9.229999999999979
 31
0.0
  0
ARC
  5
FCB
330
1E
100
AcDbEntity
  8
0
  6
THD
100
AcDbCircle
 10
-2.896249999999951
 20
9.159999999999986
 30
0.0
 40
0.07
100
AcDbArc
 50
0.0
 51
90.0
  0
ARC
  5
FCC
330
1E
100
AcDbEntity
  8
0
100
AcDbCircle
 10
-3.116249999999922
 20
9.229999999999979
 30
0.0
 40
0.14
100
AcDbArc
 50
90.0
 51
180.0
  0
ARC
  5
FCD
330
1E
100
AcDbEntity
  8
0
  6
THD
100
AcDbCircle
 10
-3.116249999999922
 20
9.229999999999979
 30
0.0
 40
0.07
100
AcDbArc
 50
90.0
 51
180.0
  0
ARC
  5
FCE
330
1E
100
AcDbEntity
  8
0
  6
THD
100
AcDbCircle
 10
-3.116249999999922
 20
9.159999999999986
 30
0.0
 40
0.14
100
AcDbArc
 50
90.0
 51
180.0
  0
ARC
  5
FCF
330
1E
100
AcDbEntity
  8
0
  6
THD
100
AcDbCircle
 10
-3.116249999999922
 20
9.159999999999986
 30
0.0
 40
0.07
100
AcDbArc
 50
90.0
 51
180.0
  0
LINE
  5
FD0
330
1E
100
AcDbEntity
  8
0
100
AcDbLine
 10
-4.974999999999908
 20
9.264999999999976
 30
0.0
 11
-4.314554417117178
 21
9.264999999999976
 31
0.0
  0
LINE
  5
FD1
330
1E
100
AcDbEntity
  8
0
100
AcDbLine
 10
-1.974999999999908
 20
9.264999999999947
 30
0.0
 11
-1.974999999999965
 21
9.194999999999983
 31
0.0
  0
ARC
  5
FD2
330
1E
100
AcDbEntity
  8
0
100
AcDbCircle
 10
-1.474999999999965
 20
9.325024564371038
 30
0.0
 40
0.5
100
AcDbArc
 50
220.0000000000007
 51
232.4104970351421
  0
LINE
  5
FD3
330
1E
100
AcDbEntity
  8
0
100
AcDbLine
 10
-1.709999999999979
 20
0.0000000000000071
 30
0.0
 11
1.709999999999979
 21
-0.0000000000000071
 31
0.0
  0
ARC
  5
FD4
330
1E
100
AcDbEntity
  8
0
100
AcDbCircle
 10
-1.709999999999979
 20
0.1399999999999935
 30
0.0
 40
0.14
100
AcDbArc
 50
180.0
 51
270.0
  0
ARC
  5
FD5
330
1E
100
AcDbEntity
  8
0
100
AcDbCircle
 10
-1.709999999999979
 20
0.1399999999999935
 30
0.0
 40
0.07
100
AcDbArc
 50
180.0
 51
270.0
  0
LINE
  5
FD6
330
1E
100
AcDbEntity
  8
0
100
AcDbLine
 10
-1.779999999999976
 20
0.1399999999999935
 30
0.0
 11
-1.779999999999972
 21
8.928823857657894
 31
0.0
  0
ARC
  5
FD7
330
1E
100
AcDbEntity
  8
0
100
AcDbCircle
 10
-1.474999999999965
 20
9.325024564371038
 30
0.0
 40
0.5
100
AcDbArc
 50
186.8949379460144
 51
221.409622109269
  0
CIRCLE
  5
FD8
330
1E
100
AcDbEntity
  8
0
100
AcDbCircle
 10
-2.89591836734695
 20
5.22625
 30
0.0
 40
0.0855
  0
CIRCLE
  5
FD9
330
1E
100
AcDbEntity
  8
0
100
AcDbCircle
 10
-2.349999999901342
 20
7.069999999823386
 30
0.0
 40
0.0855
  0
CIRCLE
  5
FDA
330
1E
100
AcDbEntity
  8
0
100
AcDbCircle
 10
-3.474999999901342
 20
7.382499999788498
 30
0.0
 40
0.0855
  0
CIRCLE
  5
FDB
330
1E
100
AcDbEntity
  8
0
100
AcDbCircle
 10
-2.537499999999965
 20
8.069999999999984
 30
0.0
 40
0.0855
  0
CIRCLE
  5
FDC
330
1E
100
AcDbEntity
  8
0
100
AcDbCircle
 10
-3.724999999999965
 20
8.444999999999984
 30
0.0
 40
0.0855
  0
LINE
  5
FDD
330
1E
100
AcDbEntity
  8
0
100
AcDbLine
 10
-1.709999999999979
 20
0.0700000000000003
 30
0.0
 11
1.709999999999979
 21
0.0699999999999932
 31
0.0
  0
LINE
  5
FDE
330
1E
100
AcDbEntity
  8
0
100
AcDbLine
 10
-1.849999999999977
 20
0.1399999999999935
 30
0.0
 11
-1.849999999999965
 21
8.994305650487993
 31
0.0
  0
LINE
  5
FDF
330
1E
100
AcDbEntity
  8
0
  6
HIDDEN
100
AcDbLine
 10
-4.974999999999908
 20
9.194999999999983
 30
0.0
 11
-1.957797693304427
 21
9.194999999999983
 31
0.0
  0
LINE
  5
FE0
330
1E
100
AcDbEntity
  8
0
100
AcDbLine
 10
-4.974999999999908
 20
9.264999999999976
 30
0.0
 11
-4.974999999999908
 21
9.194999999999983
 31
0.0
  0
LINE
  5
FE1
330
1E
100
AcDbEntity
  8
0
100
AcDbLine
 10
1.976473197217202
 20
1.290142678051453
 30
0.0
 11
3.349072260865284
 21
4.233690869129696
 31
0.0
  0
LINE
  5
FE2
330
1E
100
AcDbEntity
  8
0
100
AcDbLine
 10
3.39591836734695
 20
6.444999999999999
 30
0.0
 11
3.39591836734695
 21
4.445000000000029
 31
0.0
  0
ARC
  5
FE3
330
1E
100
AcDbEntity
  8
0
100
AcDbCircle
 10
3.89591836734695
 20
6.444999999999984
 30
0.0
 40
0.5
100
AcDbArc
 50
154.9999999999999
 51
180.0
  0
LINE
  5
FE4
330
1E
100
AcDbEntity
  8
0
100
AcDbLine
 10
3.442764473828674
 20
6.656309130870346
 30
0.0
 11
4.276761910114998
 21
8.444822404673579
 31
0.0
  0
ARC
  5
FE5
330
1E
100
AcDbEntity
  8
0
100
AcDbCircle
 10
2.89591836734695
 20
4.445000000000029
 30
0.0
 40
0.5
100
AcDbArc
 50
334.9999999999992
 51
0.0
  0
ARC
  5
FE6
330
1E
100
AcDbEntity
  8
0
100
AcDbCircle
 10
4.475000000000022
 20
9.325020806325473
 30
0.0
 40
0.5
100
AcDbArc
 50
310.0000000000001
 51
353.1054958311911
  0
LINE
  5
FE7
330
1E
100
AcDbEntity
  8
0
100
AcDbLine
 10
4.796393804843262
 20
8.941998584766003
 30
0.0
 11
4.408521998790092
 21
8.616535495362745
 31
0.0
  0
ARC
  5
FE8
330
1E
100
AcDbEntity
  8
0
100
AcDbCircle
 10
4.729915803633332
 20
8.233513273803217
 30
0.0
 40
0.5
100
AcDbArc
 50
129.9999999999976
 51
154.9999999999992
  0
ARC
  5
FE9
330
1E
100
AcDbEntity
  8
0
100
AcDbCircle
 10
-4.474999999999965
 20
9.325020806325473
 30
0.0
 40
0.5
100
AcDbArc
 50
186.8945041688088
 51
229.9999999999999
  0
LINE
  5
FEA
330
1E
100
AcDbEntity
  8
0
100
AcDbLine
 10
-4.796393804843262
 20
8.941998584766003
 30
0.0
 11
-4.408521998790035
 21
8.616535495362745
 31
0.0
  0
ARC
  5
FEB
330
1E
100
AcDbEntity
  8
0
100
AcDbCircle
 10
-4.729915803633275
 20
8.233513273803217
 30
0.0
 40
0.5
100
AcDbArc
 50
25.00000000000079
 51
50.0000000000024
  0
LINE
  5
FEC
330
1E
100
AcDbEntity
  8
0
100
AcDbLine
 10
-3.442764473828617
 20
6.656309130870346
 30
0.0
 11
-4.276761910114941
 21
8.444822404673579
 31
0.0
  0
ARC
  5
FED
330
1E
100
AcDbEntity
  8
0
100
AcDbCircle
 10
-3.895918367346893
 20
6.444999999999984
 30
0.0
 40
0.5
100
AcDbArc
 50
0.0
 51
25.00000000000006
  0
LINE
  5
FEE
330
1E
100
AcDbEntity
  8
0
100
AcDbLine
 10
-3.39591836734695
 20
6.444999999999999
 30
0.0
 11
-3.39591836734695
 21
4.445000000000029
 31
0.0
  0
ARC
  5
FEF
330
1E
100
AcDbEntity
  8
0
100
AcDbCircle
 10
-2.89591836734695
 20
4.445000000000029
 30
0.0
 40
0.5
100
AcDbArc
 50
180.0
 51
205.0000000000008
  0
LINE
  5
FF0
330
1E
100
AcDbEntity
  8
0
100
AcDbLine
 10
-1.976473197217193
 20
1.290142678051446
 30
0.0
 11
-3.349072260865227
 21
4.233690869129696
 31
0.0
  0
ARC
  5
1371
330
1E
100
AcDbEntity
  8
0
100
AcDbCircle
 10
12.35060443855053
 20
8.768054417117311
 30
0.0
 40
0.14
100
AcDbArc
 50
180.0
 51
255.5224878141091
  0
LINE
  5
1605
330
1E
100
AcDbEntity
  8
0
100
AcDbLine
 10
-2.533054417117239
 20
17.05741064490747
 30
0.0
 11
-2.760695582882691
 21
17.05741064490747
 31
0.0
  0
LINE
  5
1606
330
1E
100
AcDbEntity
  8
0
100
AcDbLine
 10
-3.251804417117183
 20
17.05741064490747
 30
0.0
 11
-3.823445582882685
 21
17.05741064490747
 31
0.0
  0
LINE
  5
1607
330
1E
100
AcDbEntity
  8
0
100
AcDbLine
 10
-4.314554417117177
 20
17.05741064490747
 30
0.0
 11
-4.974999999999908
 21
17.05741064490747
 31
0.0
  0
LINE
  5
1608
330
1E
100
AcDbEntity
  8
0
100
AcDbLine
 10
-4.256224327349348
 20
17.05741064490746
 30
0.0
 11
-3.870386980178936
 21
17.05741064490747
 31
0.0
  0
LINE
  5
160A
330
1E
100
AcDbEntity
  8
0
100
AcDbLine
 10
-2.432757007524574
 20
17.05741064490747
 30
0.0
 11
-2.249702590407305
 21
17.05741064490747
 31
0.0
  0
LINE
  5
160B
330
1E
100
AcDbEntity
  8
0
100
AcDbLine
 10
4.314554417117233
 20
17.05741064490747
 30
0.0
 11
4.974999999999965
 21
17.05741064490747
 31
0.0
  0
LINE
  5
160C
330
1E
100
AcDbEntity
  8
0
100
AcDbLine
 10
3.251804417117239
 20
17.05741064490747
 30
0.0
 11
3.823445582882742
 21
17.05741064490747
 31
0.0
  0
LINE
  5
160D
330
1E
100
AcDbEntity
  8
0
100
AcDbLine
 10
2.533054417117239
 20
17.05741064490747
 30
0.0
 11
2.760695582882691
 21
17.05741064490747
 31
0.0
  0
LINE
  5
160F
330
1E
100
AcDbEntity
  8
0
100
AcDbLine
 10
-3.193474327349354
 20
17.05741064490746
 30
0.0
 11
-2.807636980178942
 21
17.05741064490747
 31
0.0
  0
LINE
  5
1610
330
1E
100
AcDbEntity
  8
0
100
AcDbLine
 10
4.256224327349405
 20
17.05741064490746
 30
0.0
 11
3.870386980178993
 21
17.05741064490747
 31
0.0
  0
LINE
  5
1611
330
1E
100
AcDbEntity
  8
0
100
AcDbLine
 10
3.193474327349411
 20
17.05741064490746
 30
0.0
 11
2.807636980178999
 21
17.05741064490747
 31
0.0
  0
LINE
  5
1612
330
1E
100
AcDbEntity
  8
0
100
AcDbLine
 10
2.432757007524631
 20
17.05741064490747
 30
0.0
 11
2.249702590407362
 21
17.05741064490747
 31
0.0
  0
LINE
  5
1613
330
1E
100
AcDbEntity
  8
0
100
AcDbLine
 10
-2.166945582882685
 20
9.264999999999954
 30
0.0
 11
-1.971383976042772
 21
9.264999999999947
 31
0.0
  0
LINE
  5
1614
330
1E
100
AcDbEntity
  8
0
100
AcDbLine
 10
-2.760695582882686
 20
9.264999999999962
 30
0.0
 11
-2.533054417117246
 21
9.264999999999954
 31
0.0
  0
LINE
  5
1615
330
1E
100
AcDbEntity
  8
0
100
AcDbLine
 10
-3.823445582882683
 20
9.264999999999969
 30
0.0
 11
-3.251804417117186
 21
9.264999999999962
 31
0.0
  0
LINE
  5
1616
330
1E
100
AcDbEntity
  8
0
100
AcDbLine
 10
3.82344558288274
 20
9.264999999999969
 30
0.0
 11
3.251804417117243
 21
9.264999999999962
 31
0.0
  0
LINE
  5
1617
330
1E
100
AcDbEntity
  8
0
100
AcDbLine
 10
2.760695582882685
 20
9.264999999999954
 30
0.0
 11
2.533054417117246
 21
9.264999999999947
 31
0.0
  0
LINE
  5
1618
330
1E
100
AcDbEntity
  8
0
100
AcDbLine
 10
2.166945582882684
 20
9.264999999999947
 30
0.0
 11
1.971383976042772
 21
9.264999999999947
 31
0.0
  0
LINE
  5
1654
330
1E
100
AcDbEntity
  8
0
100
AcDbLine
 10
1.920000000000015
 20
1.233669480834273
 30
0.0
 11
1.920000000000015
 21
2.511256443472568
 31
0.0
  0
LINE
  5
1655
330
1E
100
AcDbEntity
  8
0
100
AcDbLine
 10
-1.919999999999958
 20
1.23366948083422
 30
0.0
 11
-1.919999999999958
 21
2.511256443472568
 31
0.0
  0
LINE
  5
1E97
330
1E
100
AcDbEntity
  8
0
100
AcDbLine
 10
13.12810443855061
 20
9.19499999999999
 30
0.0
 11
13.12810443855061
 21
9.229999999999986
 31
0.0
  0
ARC
  5
1E98
330
1E
100
AcDbEntity
  8
0
100
AcDbCircle
 10
12.98810443855062
 20
9.229999999999986
 30
0.0
 40
0.14
100
AcDbArc
 50
0.0
 51
90.0
  0
LINE
  5
200E
330
1E
100
AcDbEntity
  8
0
100
AcDbLine
 10
-10.28357893947213
 20
1.035679582101999
 30
0.0
 11
-10.09762993762899
 21
1.035679582101999
 31
0.0
  0
LINE
  5
200F
330
1E
100
AcDbEntity
  8
0
  6
HIDDEN
100
AcDbLine
 10
-10.09892607461893
 20
1.085177056785064
 30
0.0
 11
-10.2822828024822
 21
1.085177056785064
 31
0.0
  0
ARC
  5
2010
330
1E
100
AcDbEntity
  8
0
100
AcDbCircle
 10
-10.19060443855056
 20
1.257157308624365
 30
0.0
 40
0.0873150977150265
100
AcDbArc
 50
5.076634500832909
 51
174.9233654991754
  0
ARC
  5
2011
330
1E
100
AcDbEntity
  8
0
100
AcDbCircle
 10
-10.19060443855079
 20
1.185272379078107
 30
0.0
 40
0.1097025525782063
100
AcDbArc
 50
37.25445108739468
 51
142.7455489122072
  0
LINE
  5
2012
330
1E
100
AcDbEntity
  8
0
100
AcDbLine
 10
-10.27607513983594
 20
1.32223812908034
 30
0.0
 11
-10.28357893947213
 21
1.035679582101999
 31
0.0
  0
LINE
  5
2013
330
1E
100
AcDbEntity
  8
0
100
AcDbLine
 10
-10.10513373726513
 20
1.32223812908034
 30
0.0
 11
-10.09762993762899
 21
1.035679582101999
 31
0.0
  0
ARC
  5
2014
330
1E
100
AcDbEntity
  8
0
100
AcDbCircle
 10
-10.19060443855056
 20
1.320000000000015
 30
0.0
 40
0.0855
100
AcDbArc
 50
1.499999999999456
 51
178.5000000000014
  0
ARC
  5
2015
330
1E
100
AcDbEntity
  8
0
100
AcDbCircle
 10
-10.81560443825475
 20
2.120379588302747
 30
0.0
 40
0.03125
100
AcDbArc
 50
210.0000000962494
 51
330.0000000962507
  0
ARC
  5
2016
330
1E
100
AcDbEntity
  8
0
100
AcDbCircle
 10
-10.89657781374421
 20
2.260629588166729
 30
0.0
 40
0.03125
100
AcDbArc
 50
90.00000009625082
 51
210.0000000962494
  0
ARC
  5
2017
330
1E
100
AcDbEntity
  8
0
100
AcDbCircle
 10
-10.73463106307946
 20
2.260629588166729
 30
0.0
 40
0.03125
100
AcDbArc
 50
330.0000000962507
 51
90.00000009625245
  0
LINE
  5
2018
330
1E
100
AcDbEntity
  8
0
100
AcDbLine
 10
-10.73463106313193
 20
2.291879588166729
 30
0.0
 11
-10.89657781379668
 21
2.291879588166715
 31
0.0
  0
LINE
  5
2019
330
1E
100
AcDbEntity
  8
0
100
AcDbLine
 10
-10.70756776918495
 20
2.245004588212204
 30
0.0
 11
-10.78854114436024
 21
2.104754588348222
 31
0.0
  0
LINE
  5
201A
330
1E
100
AcDbEntity
  8
0
100
AcDbLine
 10
-10.84266773209674
 20
2.104754588257286
 30
0.0
 11
-10.92364110758621
 21
2.245004588121269
 31
0.0
  0
ARC
  5
201B
330
1E
100
AcDbEntity
  8
0
100
AcDbCircle
 10
-11.19060443825475
 20
2.745379588302747
 30
0.0
 40
0.03125
100
AcDbArc
 50
210.0000000962494
 51
330.0000000962507
  0
ARC
  5
201C
330
1E
100
AcDbEntity
  8
0
100
AcDbCircle
 10
-11.27157781374421
 20
2.885629588166729
 30
0.0
 40
0.03125
100
AcDbArc
 50
90.00000009625082
 51
210.0000000962494
  0
ARC
  5
201D
330
1E
100
AcDbEntity
  8
0
100
AcDbCircle
 10
-11.10963106307946
 20
2.885629588166729
 30
0.0
 40
0.03125
100
AcDbArc
 50
330.0000000962507
 51
90.00000009625245
  0
LINE
  5
201E
330
1E
100
AcDbEntity
  8
0
100
AcDbLine
 10
-11.10963106313193
 20
2.916879588166729
 30
0.0
 11
-11.27157781379668
 21
2.916879588166715
 31
0.0
  0
LINE
  5
201F
330
1E
100
AcDbEntity
  8
0
100
AcDbLine
 10
-11.08256776918495
 20
2.870004588212204
 30
0.0
 11
-11.16354114436024
 21
2.729754588348222
 31
0.0
  0
LINE
  5
2020
330
1E
100
AcDbEntity
  8
0
100
AcDbLine
 10
-11.21766773209674
 20
2.729754588257286
 30
0.0
 11
-11.29864110758621
 21
2.870004588121269
 31
0.0
  0
ARC
  5
2021
330
1E
100
AcDbEntity
  8
0
100
AcDbCircle
 10
-11.56560443825475
 20
3.370379588237434
 30
0.0
 40
0.03125
100
AcDbArc
 50
210.0000000962494
 51
330.0000000962507
  0
ARC
  5
2022
330
1E
100
AcDbEntity
  8
0
100
AcDbCircle
 10
-11.64657781374421
 20
3.510629588101416
 30
0.0
 40
0.03125
100
AcDbArc
 50
90.00000009625082
 51
210.0000000962494
  0
ARC
  5
2023
330
1E
100
AcDbEntity
  8
0
100
AcDbCircle
 10
-11.48463106307946
 20
3.510629588101416
 30
0.0
 40
0.03125
100
AcDbArc
 50
330.0000000962507
 51
90.00000009625245
  0
LINE
  5
2024
330
1E
100
AcDbEntity
  8
0
100
AcDbLine
 10
-11.48463106313193
 20
3.541879588101416
 30
0.0
 11
-11.64657781379668
 21
3.541879588101402
 31
0.0
  0
LINE
  5
2025
330
1E
100
AcDbEntity
  8
0
100
AcDbLine
 10
-11.45756776918495
 20
3.495004588146891
 30
0.0
 11
-11.53854114436024
 21
3.354754588282908
 31
0.0
  0
LINE
  5
2026
330
1E
100
AcDbEntity
  8
0
100
AcDbLine
 10
-11.59266773209674
 20
3.354754588191973
 30
0.0
 11
-11.67364110758621
 21
3.495004588055956
 31
0.0
  0
ARC
  5
2027
330
1E
100
AcDbEntity
  8
0
  6
HIDDEN
100
AcDbCircle
 10
-11.44060443855062
 20
0.5699999999999861
 30
0.0
 40
0.1175
100
AcDbArc
 50
180.0000000000009
 51
0.0000000000008212
  0
ARC
  5
2028
330
1E
100
AcDbEntity
  8
0
100
AcDbCircle
 10
-11.44060443855062
 20
0.5699999999999861
 30
0.0
 40
0.1875
100
AcDbArc
 50
180.0000000000009
 51
0.0000000000008212
  0
LINE
  5
2029
330
1E
100
AcDbEntity
  8
0
  6
HIDDEN
100
AcDbLine
 10
-11.55810443855063
 20
2.35189411814995
 30
0.0
 11
-11.55810443855063
 21
0.6504418988099374
 31
0.0
  0
LINE
  5
202A
330
1E
100
AcDbEntity
  8
0
  6
HIDDEN
100
AcDbLine
 10
-11.32310443855061
 20
2.35189411814995
 30
0.0
 11
-11.32310443855061
 21
0.6504418988099374
 31
0.0
  0
ARC
  5
202B
330
1E
100
AcDbEntity
  8
0
  6
HIDDEN
100
AcDbCircle
 10
-11.44060443855062
 20
2.444999999999986
 30
0.0
 40
0.1175
100
AcDbArc
 50
0.0000000000008212
 51
180.0000000000009
  0
ARC
  5
202C
330
1E
100
AcDbEntity
  8
0
100
AcDbCircle
 10
-11.44060443855062
 20
2.444999999999986
 30
0.0
 40
0.1875
100
AcDbArc
 50
0.0000000000008212
 51
180.0000000000009
  0
LINE
  5
202D
330
1E
100
AcDbEntity
  8
0
100
AcDbLine
 10
-11.62810443855062
 20
2.444999999999986
 30
0.0
 11
-11.62810443855062
 21
0.5699999999999861
 31
0.0
  0
LINE
  5
202E
330
1E
100
AcDbEntity
  8
0
100
AcDbLine
 10
-11.25310443855062
 20
2.444999999999986
 30
0.0
 11
-11.25310443855062
 21
0.5700000000000003
 31
0.0
  0
LINE
  5
202F
330
1E
100
AcDbEntity
  8
0
100
AcDbLine
 10
-9.06560443855062
 20
0.0000000000000071
 30
0.0
 11
-9.06560443855062
 21
0.0700000000000003
 31
0.0
  0
LINE
  5
2030
330
1E
100
AcDbEntity
  8
0
100
AcDbLine
 10
-12.06560443855062
 20
0.0000000000000071
 30
0.0
 11
-9.06560443855062
 21
0.0000000000000071
 31
0.0
  0
LINE
  5
2031
330
1E
100
AcDbEntity
  8
0
100
AcDbLine
 10
-9.09685443855062
 20
0.1950000000000145
 30
0.0
 11
-9.06560443855062
 21
0.1950000000000145
 31
0.0
  0
ARC
  5
2032
330
1E
100
AcDbEntity
  8
0
100
AcDbCircle
 10
-9.09685443855062
 20
0.1325000000000003
 30
0.0
 40
0.0625
100
AcDbArc
 50
90.0
 51
180.0
  0
LINE
  5
2033
330
1E
100
AcDbEntity
  8
0
100
AcDbLine
 10
-9.15935443855062
 20
0.0000000000000071
 30
0.0
 11
-9.15935443855062
 21
0.1325000000000145
 31
0.0
  0
LINE
  5
2034
330
1E
100
AcDbEntity
  8
0
100
AcDbLine
 10
-9.06560443855062
 20
0.1950000000000145
 30
0.0
 11
-9.06560443855062
 21
0.3719459699114722
 31
0.0
  0
LINE
  5
2035
330
1E
100
AcDbEntity
  8
0
100
AcDbLine
 10
-9.112450545032287
 20
0.5832551007817912
 30
0.0
 11
-10.81467669941588
 21
4.233690869129696
 31
0.0
  0
ARC
  5
2036
330
1E
100
AcDbEntity
  8
0
100
AcDbCircle
 10
-9.56560443855062
 20
0.3719459699114296
 30
0.0
 40
0.5
100
AcDbArc
 50
0.0000000000016355
 51
25.00000000000006
  0
LINE
  5
2037
330
1E
100
AcDbEntity
  8
0
100
AcDbLine
 10
-9.15935443855062
 20
0.0700000000000003
 30
0.0
 11
-9.06560443855062
 21
0.0700000000000003
 31
0.0
  0
LINE
  5
2038
330
1E
100
AcDbEntity
  8
0
  6
HIDDEN
100
AcDbLine
 10
-11.97185443855062
 20
0.0700000000000003
 30
0.0
 11
-9.15935443855062
 21
0.0700000000000003
 31
0.0
  0
LINE
  5
2039
330
1E
100
AcDbEntity
  8
0
100
AcDbLine
 10
-12.06560443855062
 20
0.0700000000000003
 30
0.0
 11
-12.06560443855062
 21
0.0000000000000071
 31
0.0
  0
LINE
  5
203A
330
1E
100
AcDbEntity
  8
0
100
AcDbLine
 10
-12.06560443855062
 20
0.0700000000000003
 30
0.0
 11
-11.97185443855062
 21
0.0700000000000003
 31
0.0
  0
LINE
  5
203B
330
1E
100
AcDbEntity
  8
0
100
AcDbLine
 10
-12.31560443855062
 20
1.018920031360296
 30
0.0
 11
-12.31560443855062
 21
9.124999999999991
 31
0.0
  0
LINE
  5
203C
330
1E
100
AcDbEntity
  8
0
100
AcDbLine
 10
-14.88560443855056
 20
9.194999999999997
 30
0.0
 11
-12.45560443855061
 21
9.194999999999983
 31
0.0
  0
LINE
  5
203D
330
1E
100
AcDbEntity
  8
0
100
AcDbLine
 10
-12.38560443855056
 20
1.169035515795822
 30
0.0
 11
-12.38560443855056
 21
9.124999999999991
 31
0.0
  0
LINE
  5
203E
330
1E
100
AcDbEntity
  8
0
100
AcDbLine
 10
-14.88560443855061
 20
9.26499999999999
 30
0.0
 11
-12.45560443855061
 21
9.26499999999999
 31
0.0
  0
ARC
  5
203F
330
1E
100
AcDbEntity
  8
0
100
AcDbCircle
 10
-12.45560443855061
 20
9.124999999999991
 30
0.0
 40
0.07
100
AcDbArc
 50
0.000000000000007
 51
90.0
  0
ARC
  5
2040
330
1E
100
AcDbEntity
  8
0
100
AcDbCircle
 10
-12.45560443855061
 20
9.124999999999991
 30
0.0
 40
0.14
100
AcDbArc
 50
0.000000000000007
 51
90.0
  0
LINE
  5
2041
330
1E
100
AcDbEntity
  8
0
100
AcDbLine
 10
-12.21060443855054
 20
6.893054417117318
 30
0.0
 11
-12.2106044385506
 21
9.124999999999991
 31
0.0
  0
ARC
  5
2042
330
1E
100
AcDbEntity
  8
0
100
AcDbCircle
 10
-12.35060443855053
 20
6.893054417117318
 30
0.0
 40
0.14
100
AcDbArc
 50
270.0
 51
0.000000000000007
  0
LINE
  5
2043
330
1E
100
AcDbEntity
  8
0
100
AcDbLine
 10
-12.38560443855056
 20
6.753054417117317
 30
0.0
 11
-12.35060443855053
 21
6.753054417117317
 31
0.0
  0
LINE
  5
2044
330
1E
100
AcDbEntity
  8
0
100
AcDbLine
 10
-13.00060443855056
 20
9.369999999999994
 30
0.0
 11
-12.45560443855061
 21
9.369999999999994
 31
0.0
  0
ARC
  5
2045
330
1E
100
AcDbEntity
  8
0
100
AcDbCircle
 10
-12.45560443855061
 20
9.124999999999991
 30
0.0
 40
0.245
100
AcDbArc
 50
0.000000000000007
 51
90.0
  0
LINE
  5
2046
330
1E
100
AcDbEntity
  8
0
100
AcDbLine
 10
-14.88560443855061
 20
9.299999999999987
 30
0.0
 11
-13.10934799508044
 21
9.299999999999987
 31
0.0
  0
LINE
  5
2047
330
1E
100
AcDbEntity
  8
0
100
AcDbLine
 10
-11.97185443855062
 20
0.1325000000000145
 30
0.0
 11
-11.97185443855062
 21
0.0000000000000071
 31
0.0
  0
ARC
  5
2048
330
1E
100
AcDbEntity
  8
0
100
AcDbCircle
 10
-12.03435443855062
 20
0.1325000000000003
 30
0.0
 40
0.0625
100
AcDbArc
 50
0.000000000000007
 51
90.0
  0
LINE
  5
2049
330
1E
100
AcDbEntity
  8
0
100
AcDbLine
 10
-12.06560443855062
 20
0.1950000000000145
 30
0.0
 11
-12.03435443855062
 21
0.1950000000000145
 31
0.0
  0
LINE
  5
204A
330
1E
100
AcDbEntity
  8
0
100
AcDbLine
 10
-12.06560443855062
 20
0.3719459699114438
 30
0.0
 11
-12.06560443855062
 21
0.1950000000000145
 31
0.0
  0
ARC
  5
204B
330
1E
100
AcDbEntity
  8
0
100
AcDbCircle
 10
-12.56560443855062
 20
0.3719459699114296
 30
0.0
 40
0.5
100
AcDbArc
 50
0.0000000000016355
 51
25.00000000000006
  0
LINE
  5
204C
330
1E
100
AcDbEntity
  8
0
100
AcDbLine
 10
-12.11245054503229
 20
0.5832551007817912
 30
0.0
 11
-12.38560443855056
 21
1.169035515795819
 31
0.0
  0
LINE
  5
204D
330
1E
100
AcDbEntity
  8
0
100
AcDbLine
 10
-10.86152280589755
 20
4.445000000000029
 30
0.0
 11
-10.86152280589755
 21
6.444999999999999
 31
0.0
  0
ARC
  5
204E
330
1E
100
AcDbEntity
  8
0
100
AcDbCircle
 10
-10.36152280589755
 20
4.445000000000029
 30
0.0
 40
0.5
100
AcDbArc
 50
180.0
 51
205.0000000000001
  0
ARC
  5
204F
330
1E
100
AcDbEntity
  8
0
100
AcDbCircle
 10
-11.36152280589755
 20
6.444999999999984
 30
0.0
 40
0.5
100
AcDbArc
 50
0.000000000000007
 51
25.00000000000006
  0
LINE
  5
2050
330
1E
100
AcDbEntity
  8
0
100
AcDbLine
 10
-10.90836891237922
 20
6.656309130870346
 30
0.0
 11
-11.7423663486656
 21
8.444822404673579
 31
0.0
  0
LINE
  5
2051
330
1E
100
AcDbEntity
  8
0
100
AcDbLine
 10
-12.2106044385506
 20
8.898874062077232
 30
0.0
 11
-11.87412643734069
 21
8.616535495362831
 31
0.0
  0
ARC
  5
2052
330
1E
100
AcDbEntity
  8
0
100
AcDbCircle
 10
-12.19552024218393
 20
8.233513273803302
 30
0.0
 40
0.5
100
AcDbArc
 50
25.00000000000154
 51
50.00000000000632
  0
LINE
  5
2053
330
1E
100
AcDbEntity
  8
0
100
AcDbLine
 10
-14.88560443855061
 20
9.299999999999987
 30
0.0
 11
-14.88560443855056
 21
9.194999999999997
 31
0.0
  0
ARC
  5
2054
330
1E
100
AcDbEntity
  8
0
100
AcDbCircle
 10
-12.35060443855053
 20
8.768054417117311
 30
0.0
 40
0.14
100
AcDbArc
 50
284.4775121858909
 51
0.000000000000007
  0
LINE
  5
205B
330
1E
100
AcDbEntity
  8
0
100
AcDbLine
 10
-13.1281044385506
 20
9.19499999999999
 30
0.0
 11
-13.1281044385506
 21
9.229999999999986
 31
0.0
  0
ARC
  5
205C
330
1E
100
AcDbEntity
  8
0
100
AcDbCircle
 10
-12.98810443855062
 20
9.229999999999986
 30
0.0
 40
0.14
100
AcDbArc
 50
90.0
 51
180.0
  0
ENDSEC
  0
SECTION
  2
OBJECTS
  0
DICTIONARY
  5
C
330
0
100
AcDbDictionary
281
     1
  3
ACAD_COLOR
350
1EC5
  3
ACAD_GROUP
350
D
  3
ACAD_LAYOUT
350
19
  3
ACAD_MATERIAL
350
1EC4
  3
ACAD_MLINESTYLE
350
16
  3
ACAD_PLOTSETTINGS
350
18
  3
ACAD_PLOTSTYLENAME
350
E
  3
ACAD_TABLESTYLE
350
1EC6
  3
ACDBHEADERROUNDTRIPXREC
350
206A
  3
AcDbVariableDictionary
350
1ED2
  0
DICTIONARY
  5
1FD8
330
2
100
AcDbDictionary
280
     1
281
     1
  3
ACAD_LAYERFILTERS
360
1FDA
  3
ACLYDICTIONARY
360
1FD9
  0
DICTIONARY
  5
1EF1
330
1EF0
100
AcDbDictionary
280
     1
281
     1
  3
ACAD_SORTENTS
360
1EF2
  0
DICTIONARY
  5
1EC5
102
{ACAD_REACTORS
330
C
102
}
330
C
100
AcDbDictionary
281
     1
  0
DICTIONARY
  5
D
102
{ACAD_REACTORS
330
C
102
}
330
C
100
AcDbDictionary
281
     1
  0
DICTIONARY
  5
19
102
{ACAD_REACTORS
330
C
102
}
330
C
100
AcDbDictionary
281
     1
  3
Layout1
350
1D
  3
Model
350
21
  0
DICTIONARY
  5
1EC4
102
{ACAD_REACTORS
330
C
102
}
330
C
100
AcDbDictionary
281
     1
  0
DICTIONARY
  5
16
102
{ACAD_REACTORS
330
C
102
}
330
C
100
AcDbDictionary
281
     1
  3
Standard
350
17
  0
DICTIONARY
  5
18
102
{ACAD_REACTORS
330
C
102
}
330
C
100
AcDbDictionary
281
     1
  0
ACDBDICTIONARYWDFLT
  5
E
102
{ACAD_REACTORS
330
C
102
}
330
C
100
AcDbDictionary
281
     1
  3
Normal
350
F
100
AcDbDictionaryWithDefault
340
F
  0
DICTIONARY
  5
1EC6
102
{ACAD_REACTORS
330
C
102
}
330
C
100
AcDbDictionary
281
     1
  3
Standard
350
1EC7
  0
DICTIONARY
  5
206A
102
{ACAD_REACTORS
330
C
102
}
330
C
100
AcDbDictionary
281
     1
  3
COLORDICT
350
206B
  3
MATERIALDICT
350
206C
  0
DICTIONARY
  5
1ED2
102
{ACAD_REACTORS
330
C
102
}
330
C
100
AcDbDictionary
281
     1
  3
CTABLESTYLE
350
1ED3
  0
DICTIONARY
  5
1FDA
102
{ACAD_REACTORS
330
1FD8
102
}
330
1FD8
100
AcDbDictionary
281
     1
  0
DICTIONARY
  5
1FD9
102
{ACAD_REACTORS
330
1FD8
102
}
330
1FD8
100
AcDbDictionary
281
     1
1001
ACAD
1000
<All
  0
SORTENTSTABLE
  5
1EF2
102
{ACAD_REACTORS
330
1EF1
102
}
330
1EF1
100
AcDbSortentsTable
330
1EF0
  0
LAYOUT
  5
1D
102
{ACAD_REACTORS
330
19
102
}
102
{ACAD_XDICTIONARY
360
206D
102
}
330
19
100
AcDbPlotSettings
  1

  2
HP LaserJet 2100 Series PS
  4

  6

 40
0.0
 41
0.0
 42
0.0
 43
0.0
 44
0.0
 45
0.0
 46
0.0
 47
0.0
 48
0.0
 49
0.0
140
0.0
141
0.0
142
1.0
143
1.0
 70
   688
 72
     0
 73
     0
 74
     5
  7
monochrome.ctb
 75
    16
147
1.0
148
0.0
149
0.0
100
AcDbLayout
  1
Layout1
 70
     0
 71
     1
 10
0.0
 20
0.0
 11
12.0
 21
9.0
 12
0.0
 22
0.0
 32
0.0
 14
1.000000000000000E+20
 24
1.000000000000000E+20
 34
1.000000000000000E+20
 15
-1.000000000000000E+20
 25
-1.000000000000000E+20
 35
-1.000000000000000E+20
146
0.0
 13
0.0
 23
0.0
 33
0.0
 16
1.0
 26
0.0
 36
0.0
 17
0.0
 27
1.0
 37
0.0
 76
     0
330
1A
  0
LAYOUT
  5
21
102
{ACAD_REACTORS
330
19
102
}
102
{ACAD_XDICTIONARY
360
206F
102
}
330
19
100
AcDbPlotSettings
  1

  2
HP LaserJet 2100 Series PS
  4
Letter
  6

 40
5.365749835968018
 41
5.408073902130127
 42
5.132904052734375
 43
5.090576171875
 44
215.8999938964844
 45
279.3999938964844
 46
0.0
 47
0.0
 48
0.0
 49
0.0
140
0.0
141
0.0
142
1.0
143
3.30601215063799
 70
 11952
 72
     0
 73
     0
 74
     2
  7
monochrome.ctb
 75
     0
147
0.3024792270672754
148
0.0
149
0.0
100
AcDbLayout
  1
Model
 70
     1
 71
     0
 10
0.0
 20
0.0
 11
12.0
 21
9.0
 12
0.0
 22
0.0
 32
0.0
 14
0.0
 24
0.0
 34
0.0
 15
0.0
 25
0.0
 35
0.0
146
0.0
 13
0.0
 23
0.0
 33
0.0
 16
1.0
 26
0.0
 36
0.0
 17
0.0
 27
1.0
 37
0.0
 76
     0
330
1E
1001
ACAD_PSEXT
1000
HP LaserJet 2100 Series PS
1000
HP LaserJet 2100 Series PS
1000
LPT1:
1000

1070
     0
  0
MLINESTYLE
  5
17
102
{ACAD_REACTORS
330
16
102
}
330
16
100
AcDbMlineStyle
  2
STANDARD
 70
     0
  3

 62
   256
 51
90.0
 52
90.0
 71
     2
 49
0.5
 62
   256
  6
BYLAYER
 49
-0.5
 62
   256
  6
BYLAYER
  0
ACDBPLACEHOLDER
  5
F
102
{ACAD_REACTORS
330
E
102
}
330
E
  0
ACAD_PROXY_OBJECT
  5
1EC7
102
{ACAD_REACTORS
330
1EC6
102
}
330
1EC6
100
AcDbProxyObject
 90
      499
 91
      523
 95
   983063
 70
     0
 93
     1841
310
4214DD185B99185C9928B81E85EB51B8AE3F2E07A17AD46E2B8FC02B5E8DC0F42B1CFD028000000C1008070000C3001FDFF8000000C1003FBFF000000182007F7FE00000030400FEFFC00000060801FDFF8000000C1003FBFF00000018200000000000000681FA0B0000001820100E000186003FBFF000000182007F7FE000
310
00030400FEFFC00000060801FDFF8000000C1003FBFF000000182007F7FE000000304000AD7A3703D0AC73F4160000003040201C00030C007F7FE00000030400FEFFC00000060801FDFF8000000C1003FBFF000000182007F7FE00000030400FEFFC000000608000
340
11
340
11
340
11
 94
        0
  0
XRECORD
  5
206B
102
{ACAD_REACTORS
330
206A
102
}
330
206A
100
AcDbXrecord
340
1EC5
  0
XRECORD
  5
206C
102
{ACAD_REACTORS
330
206A
102
}
330
206A
100
AcDbXrecord
340
1EC4
  0
DICTIONARYVAR
  5
1ED3
102
{ACAD_REACTORS
330
1ED2
102
}
330
1ED2
100
DictionaryVariables
280
     0
  1
STANDARD
  0
DICTIONARY
  5
206D
330
1D
100
AcDbDictionary
280
     1
281
     1
  3
ACAD_XREC_ROUNDTRIP
360
206E
  0
DICTIONARY
  5
206F
330
21
100
AcDbDictionary
280
     1
281
     1
  3
ACAD_XREC_ROUNDTRIP
360
2070
  0
XRECORD
  5
206E
102
{ACAD_REACTORS
330
206D
102
}
330
206D
100
AcDbXrecord
102
SHADEPLOT
 70
     0
102
SHADEPLOTRESLEVEL
 70
     2
102
SHADEPLOTCUSTOMDPI
 70
   300
  0
XRECORD
  5
2070
102
{ACAD_REACTORS
330
206F
102
}
330
206F
100
AcDbXrecord
102
SHADEPLOT
 70
     0
102
SHADEPLOTRESLEVEL
 70
     2
102
SHADEPLOTCUSTOMDPI
 70
   300
  0
ENDSEC
  0
EOF
