  0
SECTION
  2
HEADER
  9
$ACADVER
  1
AC1015
  9
$ACADMAINTVER
 70
     6
  9
$DWGCODEPAGE
  3
ANSI_1252
  9
$INSBASE
 10
0.0
 20
0.0
 30
0.0
  9
$EXTMIN
 10
-9.901267591022442
 20
-0.0008006280115467
 30
-0.0000000000000053
  9
$EXTMAX
 10
15.40126066539335
 20
17.45820708861198
 30
0.0000000000000099
  9
$LIMMIN
 10
0.0
 20
0.0
  9
$LIMMAX
 10
20.0000000000004
 20
26.25000000000052
  9
$ORTHOMODE
 70
     1
  9
$REGENMODE
 70
     1
  9
$FILLMODE
 70
     1
  9
$QTEXTMODE
 70
     0
  9
$MIRRTEXT
 70
     1
  9
$LTSCALE
 40
0.5
  9
$ATTMODE
 70
     1
  9
$TEXTSIZE
 40
0.225000000000005
  9
$TRACEWID
 40
0.05
  9
$TEXTSTYLE
  7
STANDARD
  9
$CLAYER
  8
0
  9
$CELTYPE
  6
ByLayer
  9
$CECOLOR
 62
   256
  9
$CELTSCALE
 40
1.0
  9
$DISPSILH
 70
     0
  9
$DIMSCALE
 40
1.0
  9
$DIMASZ
 40
0.312500000000005
  9
$DIMEXO
 40
0.0625
  9
$DIMDLI
 40
0.375
  9
$DIMRND
 40
0.0
  9
$DIMDLE
 40
0.0
  9
$DIMEXE
 40
0.200000000000004
  9
$DIMTP
 40
0.0
  9
$DIMTM
 40
0.0
  9
$DIMTXT
 40
0.225000000000005
  9
$DIMCEN
 40
-0.06
  9
$DIMTSZ
 40
0.0
  9
$DIMTOL
 70
     0
  9
$DIMLIM
 70
     0
  9
$DIMTIH
 70
     1
  9
$DIMTOH
 70
     1
  9
$DIMSE1
 70
     0
  9
$DIMSE2
 70
     0
  9
$DIMTAD
 70
     0
  9
$DIMZIN
 70
     0
  9
$DIMBLK
  1

  9
$DIMASO
 70
     0
  9
$DIMSHO
 70
     0
  9
$DIMPOST
  1

  9
$DIMAPOST
  1

  9
$DIMALT
 70
     0
  9
$DIMALTD
 70
     2
  9
$DIMALTF
 40
25.4
  9
$DIMLFAC
 40
1.0
  9
$DIMTOFL
 70
     0
  9
$DIMTVP
 40
0.0
  9
$DIMTIX
 70
     0
  9
$DIMSOXD
 70
     0
  9
$DIMSAH
 70
     0
  9
$DIMBLK1
  1

  9
$DIMBLK2
  1

  9
$DIMSTYLE
  2
Standard
  9
$DIMCLRD
 70
     0
  9
$DIMCLRE
 70
     0
  9
$DIMCLRT
 70
     0
  9
$DIMTFAC
 40
1.0
  9
$DIMGAP
 40
0.09
  9
$DIMJUST
 70
     0
  9
$DIMSD1
 70
     0
  9
$DIMSD2
 70
     0
  9
$DIMTOLJ
 70
     1
  9
$DIMTZIN
 70
     0
  9
$DIMALTZ
 70
     0
  9
$DIMALTTZ
 70
     0
  9
$DIMUPT
 70
     0
  9
$DIMDEC
 70
     3
  9
$DIMTDEC
 70
     3
  9
$DIMALTU
 70
     2
  9
$DIMALTTD
 70
     2
  9
$DIMTXSTY
  7
STANDARD
  9
$DIMAUNIT
 70
     0
  9
$DIMADEC
 70
     0
  9
$DIMALTRND
 40
0.0
  9
$DIMAZIN
 70
     0
  9
$DIMDSEP
 70
    46
  9
$DIMATFIT
 70
     3
  9
$DIMFRAC
 70
     0
  9
$DIMLDRBLK
  1

  9
$DIMLUNIT
 70
     2
  9
$DIMLWD
 70
    -2
  9
$DIMLWE
 70
    -2
  9
$DIMTMOVE
 70
     2
  9
$LUNITS
 70
     2
  9
$LUPREC
 70
     3
  9
$SKETCHINC
 40
0.1
  9
$FILLETRAD
 40
0.0
  9
$AUNITS
 70
     0
  9
$AUPREC
 70
     0
  9
$MENU
  1
acad
  9
$ELEVATION
 40
0.0
  9
$PELEVATION
 40
0.0
  9
$THICKNESS
 40
0.0
  9
$LIMCHECK
 70
     0
  9
$CHAMFERA
 40
0.0
  9
$CHAMFERB
 40
0.0
  9
$CHAMFERC
 40
0.0
  9
$CHAMFERD
 40
0.0
  9
$SKPOLY
 70
     0
  9
$TDCREATE
 40
2448867.736045023
  9
$TDUCREATE
 40
2448868.069378356
  9
$TDUPDATE
 40
2454946.978638148
  9
$TDUUPDATE
 40
2454947.311971481
  9
$TDINDWG
 40
0.1018279398
  9
$TDUSRTIMER
 40
0.1018279398
  9
$USRTIMER
 70
     1
  9
$ANGBASE
 50
0.0
  9
$ANGDIR
 70
     0
  9
$PDMODE
 70
     0
  9
$PDSIZE
 40
0.0
  9
$PLINEWID
 40
0.0
  9
$SPLFRAME
 70
     0
  9
$SPLINETYPE
 70
     6
  9
$SPLINESEGS
 70
     8
  9
$HANDSEED
  5
ADB
  9
$SURFTAB1
 70
     6
  9
$SURFTAB2
 70
     6
  9
$SURFTYPE
 70
     6
  9
$SURFU
 70
     6
  9
$SURFV
 70
     6
  9
$UCSBASE
  2

  9
$UCSNAME
  2

  9
$UCSORG
 10
0.0
 20
0.0
 30
0.0
  9
$UCSXDIR
 10
1.0
 20
0.0
 30
0.0
  9
$UCSYDIR
 10
0.0
 20
1.0
 30
0.0
  9
$UCSORTHOREF
  2

  9
$UCSORTHOVIEW
 70
     0
  9
$UCSORGTOP
 10
0.0
 20
0.0
 30
0.0
  9
$UCSORGBOTTOM
 10
0.0
 20
0.0
 30
0.0
  9
$UCSORGLEFT
 10
0.0
 20
0.0
 30
0.0
  9
$UCSORGRIGHT
 10
0.0
 20
0.0
 30
0.0
  9
$UCSORGFRONT
 10
0.0
 20
0.0
 30
0.0
  9
$UCSORGBACK
 10
0.0
 20
0.0
 30
0.0
  9
$PUCSBASE
  2

  9
$PUCSNAME
  2

  9
$PUCSORG
 10
0.0
 20
0.0
 30
0.0
  9
$PUCSXDIR
 10
1.0
 20
0.0
 30
0.0
  9
$PUCSYDIR
 10
0.0
 20
1.0
 30
0.0
  9
$PUCSORTHOREF
  2

  9
$PUCSORTHOVIEW
 70
     0
  9
$PUCSORGTOP
 10
0.0
 20
0.0
 30
0.0
  9
$PUCSORGBOTTOM
 10
0.0
 20
0.0
 30
0.0
  9
$PUCSORGLEFT
 10
0.0
 20
0.0
 30
0.0
  9
$PUCSORGRIGHT
 10
0.0
 20
0.0
 30
0.0
  9
$PUCSORGFRONT
 10
0.0
 20
0.0
 30
0.0
  9
$PUCSORGBACK
 10
0.0
 20
0.0
 30
0.0
  9
$USERI1
 70
     0
  9
$USERI2
 70
     0
  9
$USERI3
 70
     0
  9
$USERI4
 70
     0
  9
$USERI5
 70
     0
  9
$USERR1
 40
0.0
  9
$USERR2
 40
0.0
  9
$USERR3
 40
0.0
  9
$USERR4
 40
0.0
  9
$USERR5
 40
0.0
  9
$WORLDVIEW
 70
     1
  9
$SHADEDGE
 70
     3
  9
$SHADEDIF
 70
    70
  9
$TILEMODE
 70
     1
  9
$MAXACTVP
 70
    16
  9
$PINSBASE
 10
0.0
 20
0.0
 30
0.0
  9
$PLIMCHECK
 70
     0
  9
$PEXTMIN
 10
1.000000000000000E+20
 20
1.000000000000000E+20
 30
1.000000000000000E+20
  9
$PEXTMAX
 10
-1.000000000000000E+20
 20
-1.000000000000000E+20
 30
-1.000000000000000E+20
  9
$PLIMMIN
 10
0.0
 20
0.0
  9
$PLIMMAX
 10
12.0
 20
9.0
  9
$UNITMODE
 70
     0
  9
$VISRETAIN
 70
     0
  9
$PLINEGEN
 70
     0
  9
$PSLTSCALE
 70
     0
  9
$TREEDEPTH
 70
  3020
  9
$CMLSTYLE
  2
Standard
  9
$CMLJUST
 70
     0
  9
$CMLSCALE
 40
1.0
  9
$PROXYGRAPHICS
 70
     1
  9
$MEASUREMENT
 70
     0
  9
$CELWEIGHT
370
    -1
  9
$ENDCAPS
280
     0
  9
$JOINSTYLE
280
     0
  9
$LWDISPLAY
290
     0
  9
$INSUNITS
 70
     0
  9
$HYPERLINKBASE
  1

  9
$STYLESHEET
  1
monochrome.ctb
  9
$XEDIT
290
     1
  9
$CEPSNTYPE
380
     0
  9
$PSTYLEMODE
290
     1
  9
$FINGERPRINTGUID
  2
{21BBB1E4-9ABF-4BC4-A245-4D9CD1DB2F78}
  9
$VERSIONGUID
  2
{1D6A1DCD-90BD-45A0-A062-83D37DB8BDB8}
  9
$EXTNAMES
290
     1
  9
$PSVPSCALE
 40
0.0
  9
$OLESTARTUP
290
     0
  0
ENDSEC
  0
SECTION
  2
CLASSES
  0
CLASS
  1
ACDBDICTIONARYWDFLT
  2
AcDbDictionaryWithDefault
  3
AutoCAD 2000
 90
        0
280
     0
281
     0
  0
CLASS
  1
ACDBPLACEHOLDER
  2
AcDbPlaceHolder
  3
ObjectDBX Classes
 90
        0
280
     0
281
     0
  0
CLASS
  1
LAYOUT
  2
AcDbLayout
  3
ObjectDBX Classes
 90
        0
280
     0
281
     0
  0
CLASS
  1
LONG_TRANSACTION
  2
AcDbLongTransaction
  3
ObjectDBX Classes
 90
   -65536
280
     1
281
     0
  0
CLASS
  1
LWPOLYLINE
  2
AcDbPolyline
  3
AutoCAD 2000
 90
        0
280
     0
281
     1
  0
CLASS
  1
HATCH
  2
AcDbHatch
  3
AutoCAD 2000
 90
        0
280
     0
281
     1
  0
CLASS
  1
XRECORD
  2
AcDbXrecord
  3
AutoCAD 2000
 90
        0
280
     0
281
     0
  0
CLASS
  1
LONG_TRANSACTION
  2
AcDbLongTransaction
  3
ObjectDBX Classes
 90
   -65536
280
     1
281
     0
  0
CLASS
  1
LWPOLYLINE
  2
AcDbPolyline
  3
AutoCAD 2000
 90
        0
280
     0
281
     1
  0
CLASS
  1
HATCH
  2
AcDbHatch
  3
AutoCAD 2000
 90
        0
280
     0
281
     1
  0
CLASS
  1
XRECORD
  2
AcDbXrecord
  3
AutoCAD 2000
 90
        0
280
     0
281
     0
  0
CLASS
  1
LONG_TRANSACTION
  2
AcDbLongTransaction
  3
ObjectDBX Classes
 90
   -65536
280
     1
281
     0
  0
CLASS
  1
LWPOLYLINE
  2
AcDbPolyline
  3
AutoCAD 2000
 90
        0
280
     0
281
     1
  0
CLASS
  1
HATCH
  2
AcDbHatch
  3
AutoCAD 2000
 90
        0
280
     0
281
     1
  0
CLASS
  1
XRECORD
  2
AcDbXrecord
  3
AutoCAD 2000
 90
        0
280
     0
281
     0
  0
CLASS
  1
LONG_TRANSACTION
  2
AcDbLongTransaction
  3
ObjectDBX Classes
 90
   -65536
280
     1
281
     0
  0
CLASS
  1
LWPOLYLINE
  2
AcDbPolyline
  3
AutoCAD 2000
 90
        0
280
     0
281
     1
  0
CLASS
  1
HATCH
  2
AcDbHatch
  3
AutoCAD 2000
 90
        0
280
     0
281
     1
  0
CLASS
  1
XRECORD
  2
AcDbXrecord
  3
AutoCAD 2000
 90
        0
280
     0
281
     0
  0
CLASS
  1
LONG_TRANSACTION
  2
AcDbLongTransaction
  3
ObjectDBX Classes
 90
   -65536
280
     1
281
     0
  0
CLASS
  1
LWPOLYLINE
  2
AcDbPolyline
  3
AutoCAD 2000
 90
        0
280
     0
281
     1
  0
CLASS
  1
HATCH
  2
AcDbHatch
  3
AutoCAD 2000
 90
        0
280
     0
281
     1
  0
CLASS
  1
XRECORD
  2
AcDbXrecord
  3
AutoCAD 2000
 90
        0
280
     0
281
     0
  0
CLASS
  1
LONG_TRANSACTION
  2
AcDbLongTransaction
  3
ObjectDBX Classes
 90
   -65536
280
     1
281
     0
  0
CLASS
  1
LWPOLYLINE
  2
AcDbPolyline
  3
AutoCAD 2000
 90
        0
280
     0
281
     1
  0
CLASS
  1
HATCH
  2
AcDbHatch
  3
AutoCAD 2000
 90
        0
280
     0
281
     1
  0
CLASS
  1
XRECORD
  2
AcDbXrecord
  3
AutoCAD 2000
 90
        0
280
     0
281
     0
  0
CLASS
  1
LONG_TRANSACTION
  2
AcDbLongTransaction
  3
ObjectDBX Classes
 90
   -65536
280
     1
281
     0
  0
CLASS
  1
LWPOLYLINE
  2
AcDbPolyline
  3
AutoCAD 2000
 90
        0
280
     0
281
     1
  0
CLASS
  1
HATCH
  2
AcDbHatch
  3
AutoCAD 2000
 90
        0
280
     0
281
     1
  0
CLASS
  1
XRECORD
  2
AcDbXrecord
  3
AutoCAD 2000
 90
        0
280
     0
281
     0
  0
CLASS
  1
TABLESTYLE
  2
AcDbTableStyle
  3
ObjectDBX Classes
 90
     2047
280
     1
281
     0
  0
CLASS
  1
SORTENTSTABLE
  2
AcDbSortentsTable
  3
AutoCAD 2000
 90
        0
280
     0
281
     0
  0
CLASS
  1
DIMASSOC
  2
AcDbDimAssoc
  3
"AcDbDimAssoc|Product Desc:     AcDim ARX App For Dimension|Company:          Autodesk, Inc.|WEB Address:      www.autodesk.com"
 90
        0
280
     0
281
     0
  0
CLASS
  1
DICTIONARYVAR
  2
AcDbDictionaryVar
  3
AutoCAD 2000
 90
        0
280
     0
281
     0
  0
ENDSEC
  0
SECTION
  2
TABLES
  0
TABLE
  2
VPORT
  5
8
330
0
100
AcDbSymbolTable
 70
     4
  0
VPORT
  5
ACB
330
8
100
AcDbSymbolTableRecord
100
AcDbViewportTableRecord
  2
*Active
 70
     0
 10
0.0
 20
0.0
 11
1.0
 21
1.0
 12
14.40028572367289
 22
7.710772760394967
 13
0.0
 23
0.0
 14
0.0625
 24
0.0625
 15
0.25
 25
0.25
 16
0.0
 26
0.0
 36
1.0
 17
0.0
 27
0.0
 37
0.0
 40
37.72792583032066
 41
1.87741935483871
 42
50.0
 43
0.0
 44
0.0
 50
0.0
 51
0.0
 71
     0
 72
   100
 73
     1
 74
     1
 75
     0
 76
     0
 77
     0
 78
     0
281
     0
 65
     1
110
0.0
120
0.0
130
0.0
111
1.0
121
0.0
131
0.0
112
0.0
122
1.0
132
0.0
 79
     0
146
0.0
  0
ENDTAB
  0
TABLE
  2
LTYPE
  5
5
330
0
100
AcDbSymbolTable
 70
     3
  0
LTYPE
  5
13
330
5
100
AcDbSymbolTableRecord
100
AcDbLinetypeTableRecord
  2
ByBlock
 70
     0
  3

 72
    65
 73
     0
 40
0.0
  0
LTYPE
  5
14
330
5
100
AcDbSymbolTableRecord
100
AcDbLinetypeTableRecord
  2
ByLayer
 70
     0
  3

 72
    65
 73
     0
 40
0.0
  0
LTYPE
  5
15
330
5
100
AcDbSymbolTableRecord
100
AcDbLinetypeTableRecord
  2
CONTINUOUS
 70
     0
  3
Solid line
 72
    65
 73
     0
 40
0.0
  0
LTYPE
  5
34
330
5
100
AcDbSymbolTableRecord
100
AcDbLinetypeTableRecord
  2
DASHED
 70
     0
  3
__ __ __ __ __ __ __ __ __ __ __ __ __ __ __
 72
    65
 73
     2
 40
0.75
 49
0.5
 74
     0
 49
-0.25
 74
     0
  0
ENDTAB
  0
TABLE
  2
LAYER
  5
2
102
{ACAD_XDICTIONARY
360
760
102
}
330
0
100
AcDbSymbolTable
 70
    12
  0
LAYER
  5
10
330
2
100
AcDbSymbolTableRecord
100
AcDbLayerTableRecord
  2
0
 70
     0
 62
     7
  6
CONTINUOUS
370
    -3
390
F
  0
LAYER
  5
42
330
2
100
AcDbSymbolTableRecord
100
AcDbLayerTableRecord
  2
DASH1M
 70
     0
 62
     8
  6
DASHED
370
    -3
390
F
  0
LAYER
  5
75C
330
2
100
AcDbSymbolTableRecord
100
AcDbLayerTableRecord
  2
Defpoints
 70
     0
 62
     7
  6
CONTINUOUS
290
     0
370
    -3
390
F
  0
ENDTAB
  0
TABLE
  2
STYLE
  5
3
330
0
100
AcDbSymbolTable
 70
     4
  0
STYLE
  5
11
330
3
100
AcDbSymbolTableRecord
100
AcDbTextStyleTableRecord
  2
STANDARD
 70
     0
 40
0.0
 41
1.0
 50
0.0
 71
     0
 42
0.225000000000005
  3
TXT
  4

  0
ENDTAB
  0
TABLE
  2
VIEW
  5
6
330
0
100
AcDbSymbolTable
 70
     0
  0
ENDTAB
  0
TABLE
  2
UCS
  5
7
330
0
100
AcDbSymbolTable
 70
     0
  0
ENDTAB
  0
TABLE
  2
APPID
  5
9
330
0
100
AcDbSymbolTable
 70
     2
  0
APPID
  5
12
330
9
100
AcDbSymbolTableRecord
100
AcDbRegAppTableRecord
  2
ACAD
 70
     0
  0
APPID
  5
75F
330
9
100
AcDbSymbolTableRecord
100
AcDbRegAppTableRecord
  2
ACAD_PSEXT
 70
     0
  0
ENDTAB
  0
TABLE
  2
DIMSTYLE
  5
A
330
0
100
AcDbSymbolTable
 70
     1
100
AcDbDimStyleTable
  0
DIMSTYLE
105
492
330
A
100
AcDbSymbolTableRecord
100
AcDbDimStyleTableRecord
  2
Standard
 70
     0
  3

  4

340
11
  0
ENDTAB
  0
TABLE
  2
BLOCK_RECORD
  5
1
330
0
100
AcDbSymbolTable
 70
     7
  0
BLOCK_RECORD
  5
1E
330
1
100
AcDbSymbolTableRecord
100
AcDbBlockTableRecord
  2
*Model_Space
340
21
  0
BLOCK_RECORD
  5
1A
330
1
100
AcDbSymbolTableRecord
100
AcDbBlockTableRecord
  2
*Paper_Space
340
1D
  0
ENDTAB
  0
ENDSEC
  0
SECTION
  2
BLOCKS
  0
BLOCK
  5
4D
330
1E
100
AcDbEntity
  8
0
100
AcDbBlockBegin
  2
*Model_Space
 70
     0
 10
0.0
 20
0.0
 30
0.0
  3
*Model_Space
  1

  4

  0
ENDBLK
  5
4E
330
1E
100
AcDbEntity
  8
0
100
AcDbBlockEnd
  0
BLOCK
  5
4B
330
1A
100
AcDbEntity
 67
     1
  8
0
100
AcDbBlockBegin
  2
*Paper_Space
 70
     0
 10
0.0
 20
0.0
 30
0.0
  3
*Paper_Space
  1

  4

  0
ENDBLK
  5
4C
330
1A
100
AcDbEntity
 67
     1
  8
0
100
AcDbBlockEnd
  0
ENDSEC
  0
SECTION
  2
ENTITIES
  0
LINE
  5
2CD
330
1E
100
AcDbEntity
  8
0
100
AcDbLine
 10
2.75
 20
3.375
 30
0.0
 11
4.9375
 21
3.375
 31
0.0
  0
LINE
  5
2CE
330
1E
100
AcDbEntity
  8
0
100
AcDbLine
 10
2.75
 20
6.8125
 30
0.0
 11
3.0
 21
6.8125
 31
0.0
  0
LINE
  5
2CF
330
1E
100
AcDbEntity
  8
0
100
AcDbLine
 10
3.0
 20
6.8125
 30
0.0
 11
4.9375
 21
4.875
 31
0.0
  0
LINE
  5
2D0
330
1E
100
AcDbEntity
  8
0
100
AcDbLine
 10
4.9375
 20
4.875
 30
0.0
 11
4.9375
 21
3.375
 31
0.0
  0
LINE
  5
2D1
330
1E
100
AcDbEntity
  8
0
100
AcDbLine
 10
4.9375
 20
3.375
 30
0.0
 11
5.438000000000002
 21
3.375
 31
0.0
  0
LINE
  5
2D2
330
1E
100
AcDbEntity
  8
0
100
AcDbLine
 10
5.5
 20
3.313000000000001
 30
0.0
 11
5.5
 21
0.0
 31
0.0
  0
LINE
  5
2D3
330
1E
100
AcDbEntity
  8
0
100
AcDbLine
 10
5.5
 20
0.0
 30
0.0
 11
5.5625
 21
0.0
 31
0.0
  0
LINE
  5
2D4
330
1E
100
AcDbEntity
  8
0
100
AcDbLine
 10
5.5625
 20
0.0
 30
0.0
 11
5.5625
 21
3.3125
 31
0.0
  0
LINE
  5
2D5
330
1E
100
AcDbEntity
  8
0
100
AcDbLine
 10
5.4375
 20
3.4375
 30
0.0
 11
4.9375
 21
3.4375
 31
0.0
  0
ARC
  5
2D6
330
1E
100
AcDbEntity
  8
0
100
AcDbCircle
 10
5.438000000000002
 20
3.313000000000001
 30
0.0
 40
0.062
100
AcDbArc
 50
0.0
 51
90.0
  0
ARC
  5
2D7
330
1E
100
AcDbEntity
  8
0
100
AcDbCircle
 10
5.4375
 20
3.3125
 30
0.0
 40
0.125
100
AcDbArc
 50
0.0
 51
90.0
  0
ARC
  5
2D8
330
1E
100
AcDbEntity
  8
0
100
AcDbCircle
 10
0.0625
 20
3.3125
 30
0.0
 40
0.125
100
AcDbArc
 50
90.0
 51
180.0
  0
LINE
  5
2D9
330
1E
100
AcDbEntity
  8
0
100
AcDbLine
 10
0.0625
 20
3.4375
 30
0.0
 11
0.5625
 21
3.4375
 31
0.0
  0
LINE
  5
2DA
330
1E
100
AcDbEntity
  8
0
100
AcDbLine
 10
-0.0625
 20
0.0
 30
0.0
 11
-0.0625
 21
3.3125
 31
0.0
  0
ARC
  5
2DB
330
1E
100
AcDbEntity
  8
0
100
AcDbCircle
 10
0.0619999999999994
 20
3.313000000000001
 30
0.0
 40
0.062
100
AcDbArc
 50
90.0
 51
180.0
  0
LINE
  5
2DC
330
1E
100
AcDbEntity
  8
0
100
AcDbLine
 10
0.0
 20
3.313000000000001
 30
0.0
 11
0.0
 21
0.0
 31
0.0
  0
LINE
  5
2DD
330
1E
100
AcDbEntity
  8
0
100
AcDbLine
 10
0.5625
 20
3.375
 30
0.0
 11
0.0619999999999994
 21
3.375
 31
0.0
  0
LINE
  5
2DE
330
1E
100
AcDbEntity
  8
DASH1M
100
AcDbLine
 10
0.625
 20
3.4375
 30
0.0
 11
4.875
 21
3.4375
 31
0.0
  0
LINE
  5
2DF
330
1E
100
AcDbEntity
  8
0
100
AcDbLine
 10
0.5625
 20
4.875
 30
0.0
 11
0.5625
 21
3.375
 31
0.0
  0
LINE
  5
2E0
330
1E
100
AcDbEntity
  8
0
100
AcDbLine
 10
2.75
 20
3.375
 30
0.0
 11
0.5625
 21
3.375
 31
0.0
  0
LINE
  5
2E1
330
1E
100
AcDbEntity
  8
0
100
AcDbLine
 10
0.0
 20
0.0
 30
0.0
 11
-0.0625
 21
0.0
 31
0.0
  0
LINE
  5
2E2
330
1E
100
AcDbEntity
  8
0
100
AcDbLine
 10
2.5
 20
6.8125
 30
0.0
 11
0.5625
 21
4.875
 31
0.0
  0
LINE
  5
2E3
330
1E
100
AcDbEntity
  8
0
100
AcDbLine
 10
2.75
 20
6.8125
 30
0.0
 11
2.5
 21
6.8125
 31
0.0
  0
LINE
  5
2E4
330
1E
100
AcDbEntity
  8
0
100
AcDbLine
 10
12.5625
 20
0.0
 30
0.0
 11
12.8125
 21
0.0
 31
0.0
  0
LINE
  5
2E5
330
1E
100
AcDbEntity
  8
0
100
AcDbLine
 10
12.8125
 20
0.0
 30
0.0
 11
14.75
 21
1.9375
 31
0.0
  0
CIRCLE
  5
2E6
330
1E
100
AcDbEntity
  8
0
100
AcDbCircle
 10
14.4375
 20
2.5
 30
0.0
 40
0.0855000000000025
  0
CIRCLE
  5
2E7
330
1E
100
AcDbEntity
  8
0
100
AcDbCircle
 10
13.4375
 20
1.0
 30
0.0
 40
0.0855000000000025
  0
LINE
  5
2E8
330
1E
100
AcDbEntity
  8
0
100
AcDbLine
 10
15.3125
 20
6.8125
 30
0.0
 11
15.375
 21
6.8125
 31
0.0
  0
LINE
  5
2E9
330
1E
100
AcDbEntity
  8
0
100
AcDbLine
 10
12.5625
 20
3.4375
 30
0.0
 11
14.75
 21
3.4375
 31
0.0
  0
LINE
  5
2EA
330
1E
100
AcDbEntity
  8
0
100
AcDbLine
 10
14.75
 20
1.9375
 30
0.0
 11
14.75
 21
3.4375
 31
0.0
  0
LINE
  5
2EB
330
1E
100
AcDbEntity
  8
0
100
AcDbLine
 10
14.75
 20
3.4375
 30
0.0
 11
15.2505
 21
3.4375
 31
0.0
  0
LINE
  5
2EC
330
1E
100
AcDbEntity
  8
0
100
AcDbLine
 10
15.3125
 20
3.499499999999999
 30
0.0
 11
15.3125
 21
6.8125
 31
0.0
  0
ARC
  5
2ED
330
1E
100
AcDbEntity
  8
0
100
AcDbCircle
 10
15.2505
 20
3.499499999999999
 30
0.0
 40
0.062
100
AcDbArc
 50
270.0
 51
0.0
  0
LINE
  5
2EE
330
1E
100
AcDbEntity
  8
0
100
AcDbLine
 10
15.375
 20
6.8125
 30
0.0
 11
15.375
 21
3.5
 31
0.0
  0
LINE
  5
2EF
330
1E
100
AcDbEntity
  8
0
100
AcDbLine
 10
15.25
 20
3.375
 30
0.0
 11
14.75
 21
3.375
 31
0.0
  0
ARC
  5
2F0
330
1E
100
AcDbEntity
  8
0
100
AcDbCircle
 10
15.25
 20
3.5
 30
0.0
 40
0.125
100
AcDbArc
 50
270.0
 51
0.0
  0
ARC
  5
2F1
330
1E
100
AcDbEntity
  8
0
100
AcDbCircle
 10
9.875
 20
3.5
 30
0.0
 40
0.125
100
AcDbArc
 50
180.0000000000001
 51
270.0
  0
ARC
  5
2F2
330
1E
100
AcDbEntity
  8
0
100
AcDbCircle
 10
9.874499999999998
 20
3.499499999999999
 30
0.0
 40
0.062
100
AcDbArc
 50
180.0000000000001
 51
270.0
  0
LINE
  5
2F3
330
1E
100
AcDbEntity
  8
DASH1M
100
AcDbLine
 10
10.4375
 20
3.375
 30
0.0
 11
14.6875
 21
3.375
 31
0.0
  0
LINE
  5
2F4
330
1E
100
AcDbEntity
  8
0
100
AcDbLine
 10
9.875
 20
3.375
 30
0.0
 11
10.375
 21
3.375
 31
0.0
  0
LINE
  5
2F5
330
1E
100
AcDbEntity
  8
0
100
AcDbLine
 10
9.75
 20
6.8125
 30
0.0
 11
9.75
 21
3.5
 31
0.0
  0
LINE
  5
2F6
330
1E
100
AcDbEntity
  8
0
100
AcDbLine
 10
9.8125
 20
6.8125
 30
0.0
 11
9.75
 21
6.8125
 31
0.0
  0
LINE
  5
2F7
330
1E
100
AcDbEntity
  8
0
100
AcDbLine
 10
9.8125
 20
3.499499999999999
 30
0.0
 11
9.8125
 21
6.8125
 31
0.0
  0
LINE
  5
2F8
330
1E
100
AcDbEntity
  8
0
100
AcDbLine
 10
10.375
 20
3.4375
 30
0.0
 11
9.874499999999998
 21
3.4375
 31
0.0
  0
CIRCLE
  5
2F9
330
1E
100
AcDbEntity
  8
0
100
AcDbCircle
 10
11.6875
 20
1.0
 30
0.0
 40
0.0855000000000025
  0
CIRCLE
  5
2FA
330
1E
100
AcDbEntity
  8
0
100
AcDbCircle
 10
10.6875
 20
2.5
 30
0.0
 40
0.0855000000000025
  0
CIRCLE
  5
2FB
330
1E
100
AcDbEntity
  8
0
100
AcDbCircle
 10
12.5625
 20
0.2905000000000015
 30
0.0
 40
0.0855000000000025
  0
CIRCLE
  5
2FC
330
1E
100
AcDbEntity
  8
0
100
AcDbCircle
 10
12.5625
 20
2.5
 30
0.0
 40
0.0855000000000025
  0
LINE
  5
2FD
330
1E
100
AcDbEntity
  8
0
100
AcDbLine
 10
10.375
 20
1.9375
 30
0.0
 11
10.375
 21
3.4375
 31
0.0
  0
LINE
  5
2FE
330
1E
100
AcDbEntity
  8
0
100
AcDbLine
 10
12.3125
 20
0.0
 30
0.0
 11
10.375
 21
1.9375
 31
0.0
  0
LINE
  5
2FF
330
1E
100
AcDbEntity
  8
0
100
AcDbLine
 10
12.5625
 20
0.0
 30
0.0
 11
12.3125
 21
0.0
 31
0.0
  0
LINE
  5
300
330
1E
100
AcDbEntity
  8
0
100
AcDbLine
 10
12.5625
 20
3.4375
 30
0.0
 11
10.375
 21
3.4375
 31
0.0
  0
LINE
  5
301
330
1E
100
AcDbEntity
  8
0
100
AcDbLine
 10
2.75
 20
11.5817110385555
 30
0.0
 11
4.9375
 21
11.5817110385555
 31
0.0
  0
LINE
  5
302
330
1E
100
AcDbEntity
  8
0
100
AcDbLine
 10
4.9375
 20
11.5817110385555
 30
0.0
 11
4.9375
 21
11.6442110385555
 31
0.0
  0
LINE
  5
303
330
1E
100
AcDbEntity
  8
0
100
AcDbLine
 10
5.5
 20
12.3317110385555
 30
0.0
 11
5.5625
 21
12.3317110385555
 31
0.0
  0
LINE
  5
304
330
1E
100
AcDbEntity
  8
0
100
AcDbLine
 10
5.5625
 20
12.3317110385555
 30
0.0
 11
5.5625
 21
14.5192110385555
 31
0.0
  0
ARC
  5
305
330
1E
100
AcDbEntity
  8
0
100
AcDbCircle
 10
5.5
 20
12.0817110385555
 30
0.0
 40
0.25
100
AcDbArc
 50
90.0
 51
144.462322208025
  0
LINE
  5
306
330
1E
100
AcDbEntity
  8
0
100
AcDbLine
 10
5.296566632198317
 20
12.22702058698527
 30
0.0
 11
4.984066632198308
 21
11.78952058698526
 31
0.0
  0
ARC
  5
307
330
1E
100
AcDbEntity
  8
0
100
AcDbCircle
 10
5.1875
 20
11.6442110385555
 30
0.0
 40
0.25
100
AcDbArc
 50
144.4623222080284
 51
180.0
  0
LINE
  5
308
330
1E
100
AcDbEntity
  8
DASH1M
100
AcDbLine
 10
5.5
 20
16.7067110385555
 30
0.0
 11
5.5
 21
12.3317110385555
 31
0.0
  0
ARC
  5
309
330
1E
100
AcDbEntity
  8
0
100
AcDbCircle
 10
5.1875
 20
17.3942110385555
 30
0.0
 40
0.25
100
AcDbArc
 50
180.0000000000001
 51
215.5376777919716
  0
LINE
  5
30A
330
1E
100
AcDbEntity
  8
0
100
AcDbLine
 10
5.296566632198317
 20
16.81140149012573
 30
0.0
 11
4.984066632198308
 21
17.24890149012573
 31
0.0
  0
ARC
  5
30B
330
1E
100
AcDbEntity
  8
0
100
AcDbCircle
 10
5.5
 20
16.9567110385555
 30
0.0
 40
0.25
100
AcDbArc
 50
215.537677791975
 51
270.0
  0
LINE
  5
30C
330
1E
100
AcDbEntity
  8
0
100
AcDbLine
 10
5.5625
 20
16.7067110385555
 30
0.0
 11
5.5625
 21
14.5192110385555
 31
0.0
  0
LINE
  5
30D
330
1E
100
AcDbEntity
  8
0
100
AcDbLine
 10
5.5
 20
16.7067110385555
 30
0.0
 11
5.5625
 21
16.7067110385555
 31
0.0
  0
LINE
  5
30E
330
1E
100
AcDbEntity
  8
0
100
AcDbLine
 10
4.9375
 20
17.4567110385555
 30
0.0
 11
4.9375
 21
17.3942110385555
 31
0.0
  0
LINE
  5
30F
330
1E
100
AcDbEntity
  8
0
100
AcDbLine
 10
2.75
 20
17.4567110385555
 30
0.0
 11
4.9375
 21
17.4567110385555
 31
0.0
  0
LINE
  5
310
330
1E
100
AcDbEntity
  8
0
100
AcDbLine
 10
2.75
 20
17.4567110385555
 30
0.0
 11
0.5625
 21
17.4567110385555
 31
0.0
  0
LINE
  5
311
330
1E
100
AcDbEntity
  8
0
100
AcDbLine
 10
0.5625
 20
17.4567110385555
 30
0.0
 11
0.5625
 21
17.3942110385555
 31
0.0
  0
LINE
  5
312
330
1E
100
AcDbEntity
  8
0
100
AcDbLine
 10
0.0
 20
16.7067110385555
 30
0.0
 11
-0.0625
 21
16.7067110385555
 31
0.0
  0
LINE
  5
313
330
1E
100
AcDbEntity
  8
0
100
AcDbLine
 10
-0.0625
 20
16.7067110385555
 30
0.0
 11
-0.0625
 21
14.5192110385555
 31
0.0
  0
ARC
  5
314
330
1E
100
AcDbEntity
  8
0
100
AcDbCircle
 10
0.0
 20
16.9567110385555
 30
0.0
 40
0.25
100
AcDbArc
 50
270.0
 51
324.462322208025
  0
LINE
  5
315
330
1E
100
AcDbEntity
  8
0
100
AcDbLine
 10
0.2034333678016829
 20
16.81140149012573
 30
0.0
 11
0.5159333678016917
 21
17.24890149012573
 31
0.0
  0
ARC
  5
316
330
1E
100
AcDbEntity
  8
0
100
AcDbCircle
 10
0.3125
 20
17.3942110385555
 30
0.0
 40
0.25
100
AcDbArc
 50
324.4623222080284
 51
0.0
  0
LINE
  5
317
330
1E
100
AcDbEntity
  8
DASH1M
100
AcDbLine
 10
0.0
 20
16.7067110385555
 30
0.0
 11
0.0
 21
12.3317110385555
 31
0.0
  0
LINE
  5
318
330
1E
100
AcDbEntity
  8
0
100
AcDbLine
 10
0.5625
 20
17.3942110385555
 30
0.0
 11
4.9375
 21
17.3942110385555
 31
0.0
  0
LINE
  5
319
330
1E
100
AcDbEntity
  8
0
100
AcDbLine
 10
0.5625
 20
11.6442110385555
 30
0.0
 11
4.9375
 21
11.6442110385555
 31
0.0
  0
ARC
  5
31A
330
1E
100
AcDbEntity
  8
0
100
AcDbCircle
 10
0.3125
 20
11.6442110385555
 30
0.0
 40
0.25
100
AcDbArc
 50
0.0
 51
35.53767779197158
  0
LINE
  5
31B
330
1E
100
AcDbEntity
  8
0
100
AcDbLine
 10
0.2034333678016829
 20
12.22702058698527
 30
0.0
 11
0.5159333678016917
 21
11.78952058698526
 31
0.0
  0
ARC
  5
31C
330
1E
100
AcDbEntity
  8
0
100
AcDbCircle
 10
0.0
 20
12.0817110385555
 30
0.0
 40
0.25
100
AcDbArc
 50
35.53767779197499
 51
90.0
  0
LINE
  5
31D
330
1E
100
AcDbEntity
  8
0
100
AcDbLine
 10
-0.0625
 20
12.3317110385555
 30
0.0
 11
-0.0625
 21
14.5192110385555
 31
0.0
  0
LINE
  5
31E
330
1E
100
AcDbEntity
  8
0
100
AcDbLine
 10
0.0
 20
12.3317110385555
 30
0.0
 11
-0.0625
 21
12.3317110385555
 31
0.0
  0
LINE
  5
31F
330
1E
100
AcDbEntity
  8
0
100
AcDbLine
 10
0.5625
 20
11.5817110385555
 30
0.0
 11
0.5625
 21
11.6442110385555
 31
0.0
  0
LINE
  5
320
330
1E
100
AcDbEntity
  8
0
100
AcDbLine
 10
2.75
 20
11.5817110385555
 30
0.0
 11
0.5625
 21
11.5817110385555
 31
0.0
  0
CIRCLE
  5
324
330
1E
100
AcDbEntity
  8
0
100
AcDbCircle
 10
2.75
 20
4.249499999999999
 30
0.0
 40
0.0855000000000025
  0
CIRCLE
  5
325
330
1E
100
AcDbEntity
  8
0
100
AcDbCircle
 10
2.75
 20
6.4375
 30
0.0
 40
0.0855000000000025
  0
CIRCLE
  5
326
330
1E
100
AcDbEntity
  8
0
100
AcDbCircle
 10
2.75
 20
6.4375
 30
0.0
 40
0.0855000000000025
  0
CIRCLE
  5
327
330
1E
100
AcDbEntity
  8
0
100
AcDbCircle
 10
2.75
 20
6.4375
 30
0.0
 40
0.0855000000000025
  0
CIRCLE
  5
328
330
1E
100
AcDbEntity
  8
0
100
AcDbCircle
 10
4.625
 20
4.249499999999999
 30
0.0
 40
0.0855000000000025
  0
CIRCLE
  5
329
330
1E
100
AcDbEntity
  8
0
100
AcDbCircle
 10
3.625
 20
5.686999999999999
 30
0.0
 40
0.0855000000000025
  0
CIRCLE
  5
383
330
1E
100
AcDbEntity
  8
0
100
AcDbCircle
 10
1.875
 20
5.686999999999999
 30
0.0
 40
0.0855000000000025
  0
CIRCLE
  5
384
330
1E
100
AcDbEntity
  8
0
100
AcDbCircle
 10
0.875
 20
4.249499999999999
 30
0.0
 40
0.0855000000000025
  0
CIRCLE
  5
39A
330
1E
100
AcDbEntity
  8
0
100
AcDbCircle
 10
2.75
 20
5.4375
 30
0.0
 40
0.281250000000002
  0
CIRCLE
  5
3B2
330
1E
100
AcDbEntity
  8
0
100
AcDbCircle
 10
12.5625
 20
1.375
 30
0.0
 40
0.281250000000002
  0
LINE
  5
A9F
330
1E
100
AcDbEntity
  8
0
100
AcDbLine
 10
-7.0625
 20
0.0
 30
0.0
 11
-7.3125
 21
0.0
 31
0.0
  0
LINE
  5
AA0
330
1E
100
AcDbEntity
  8
0
100
AcDbLine
 10
-7.3125
 20
0.0
 30
0.0
 11
-9.25
 21
1.9375
 31
0.0
  0
CIRCLE
  5
AA1
330
1E
100
AcDbEntity
  8
0
100
AcDbCircle
 10
-8.9375
 20
2.5
 30
0.0
 40
0.0855000000000025
  0
CIRCLE
  5
AA2
330
1E
100
AcDbEntity
  8
0
100
AcDbCircle
 10
-7.9375
 20
1.0
 30
0.0
 40
0.0855000000000025
  0
LINE
  5
AA3
330
1E
100
AcDbEntity
  8
0
100
AcDbLine
 10
-9.8125
 20
6.8125
 30
0.0
 11
-9.875
 21
6.8125
 31
0.0
  0
LINE
  5
AA4
330
1E
100
AcDbEntity
  8
0
100
AcDbLine
 10
-7.0625
 20
3.4375
 30
0.0
 11
-9.25
 21
3.4375
 31
0.0
  0
LINE
  5
AA5
330
1E
100
AcDbEntity
  8
0
100
AcDbLine
 10
-9.25
 20
1.9375
 30
0.0
 11
-9.25
 21
3.4375
 31
0.0
  0
LINE
  5
AA6
330
1E
100
AcDbEntity
  8
0
100
AcDbLine
 10
-9.25
 20
3.4375
 30
0.0
 11
-9.750500000000002
 21
3.4375
 31
0.0
  0
LINE
  5
AA7
330
1E
100
AcDbEntity
  8
0
100
AcDbLine
 10
-9.8125
 20
3.499499999999999
 30
0.0
 11
-9.8125
 21
6.8125
 31
0.0
  0
ARC
  5
AA8
330
1E
100
AcDbEntity
  8
0
100
AcDbCircle
 10
-9.750500000000002
 20
3.499499999999999
 30
0.0
 40
0.062
100
AcDbArc
 50
180.0
 51
270.0
  0
LINE
  5
AA9
330
1E
100
AcDbEntity
  8
0
100
AcDbLine
 10
-9.875
 20
6.8125
 30
0.0
 11
-9.875
 21
3.5
 31
0.0
  0
LINE
  5
AAA
330
1E
100
AcDbEntity
  8
0
100
AcDbLine
 10
-9.75
 20
3.375
 30
0.0
 11
-9.25
 21
3.375
 31
0.0
  0
ARC
  5
AAB
330
1E
100
AcDbEntity
  8
0
100
AcDbCircle
 10
-9.75
 20
3.5
 30
0.0
 40
0.125
100
AcDbArc
 50
180.0
 51
270.0
  0
ARC
  5
AAC
330
1E
100
AcDbEntity
  8
0
100
AcDbCircle
 10
-4.375
 20
3.5
 30
0.0
 40
0.125
100
AcDbArc
 50
270.0
 51
0.0
  0
ARC
  5
AAD
330
1E
100
AcDbEntity
  8
0
100
AcDbCircle
 10
-4.374499999999998
 20
3.499499999999999
 30
0.0
 40
0.062
100
AcDbArc
 50
270.0
 51
0.0
  0
LINE
  5
AAE
330
1E
100
AcDbEntity
  8
DASH1M
100
AcDbLine
 10
-4.9375
 20
3.375
 30
0.0
 11
-9.1875
 21
3.375
 31
0.0
  0
LINE
  5
AAF
330
1E
100
AcDbEntity
  8
0
100
AcDbLine
 10
-4.375
 20
3.375
 30
0.0
 11
-4.875
 21
3.375
 31
0.0
  0
LINE
  5
AB0
330
1E
100
AcDbEntity
  8
0
100
AcDbLine
 10
-4.25
 20
6.8125
 30
0.0
 11
-4.25
 21
3.5
 31
0.0
  0
LINE
  5
AB1
330
1E
100
AcDbEntity
  8
0
100
AcDbLine
 10
-4.3125
 20
6.8125
 30
0.0
 11
-4.25
 21
6.8125
 31
0.0
  0
LINE
  5
AB2
330
1E
100
AcDbEntity
  8
0
100
AcDbLine
 10
-4.3125
 20
3.499499999999999
 30
0.0
 11
-4.3125
 21
6.8125
 31
0.0
  0
LINE
  5
AB3
330
1E
100
AcDbEntity
  8
0
100
AcDbLine
 10
-4.875
 20
3.4375
 30
0.0
 11
-4.374499999999998
 21
3.4375
 31
0.0
  0
CIRCLE
  5
AB4
330
1E
100
AcDbEntity
  8
0
100
AcDbCircle
 10
-6.1875
 20
1.0
 30
0.0
 40
0.0855000000000025
  0
CIRCLE
  5
AB5
330
1E
100
AcDbEntity
  8
0
100
AcDbCircle
 10
-5.1875
 20
2.5
 30
0.0
 40
0.0855000000000025
  0
CIRCLE
  5
AB6
330
1E
100
AcDbEntity
  8
0
100
AcDbCircle
 10
-7.0625
 20
0.2905000000000015
 30
0.0
 40
0.0855000000000025
  0
CIRCLE
  5
AB7
330
1E
100
AcDbEntity
  8
0
100
AcDbCircle
 10
-7.0625
 20
2.5
 30
0.0
 40
0.0855000000000025
  0
LINE
  5
AB8
330
1E
100
AcDbEntity
  8
0
100
AcDbLine
 10
-4.875
 20
1.9375
 30
0.0
 11
-4.875
 21
3.4375
 31
0.0
  0
LINE
  5
AB9
330
1E
100
AcDbEntity
  8
0
100
AcDbLine
 10
-6.8125
 20
0.0
 30
0.0
 11
-4.875
 21
1.9375
 31
0.0
  0
LINE
  5
ABA
330
1E
100
AcDbEntity
  8
0
100
AcDbLine
 10
-7.0625
 20
0.0
 30
0.0
 11
-6.8125
 21
0.0
 31
0.0
  0
LINE
  5
ABB
330
1E
100
AcDbEntity
  8
0
100
AcDbLine
 10
-7.0625
 20
3.4375
 30
0.0
 11
-4.875
 21
3.4375
 31
0.0
  0
CIRCLE
  5
ABC
330
1E
100
AcDbEntity
  8
0
100
AcDbCircle
 10
-7.0625
 20
1.375
 30
0.0
 40
0.281250000000002
  0
ENDSEC
  0
SECTION
  2
OBJECTS
  0
DICTIONARY
  5
C
330
0
100
AcDbDictionary
281
     1
  3
ACAD_COLOR
350
6F1
  3
ACAD_GROUP
350
D
  3
ACAD_LAYOUT
350
19
  3
ACAD_MATERIAL
350
6F0
  3
ACAD_MLINESTYLE
350
16
  3
ACAD_PLOTSETTINGS
350
18
  3
ACAD_PLOTSTYLENAME
350
E
  3
ACAD_TABLESTYLE
350
6F2
  3
ACDBHEADERROUNDTRIPXREC
350
AD4
  3
AcDbVariableDictionary
350
A6B
  0
DICTIONARY
  5
760
330
2
100
AcDbDictionary
280
     1
281
     1
  3
ACAD_LAYERFILTERS
360
A81
  3
ACAD_LAYERSTATES
360
761
  3
ACLYDICTIONARY
360
A80
  0
DICTIONARY
  5
6F1
102
{ACAD_REACTORS
330
C
102
}
330
C
100
AcDbDictionary
281
     1
  0
DICTIONARY
  5
D
102
{ACAD_REACTORS
330
C
102
}
330
C
100
AcDbDictionary
281
     1
  0
DICTIONARY
  5
19
102
{ACAD_REACTORS
330
C
102
}
330
C
100
AcDbDictionary
281
     1
  3
Layout1
350
1D
  3
Model
350
21
  0
DICTIONARY
  5
6F0
102
{ACAD_REACTORS
330
C
102
}
330
C
100
AcDbDictionary
281
     1
  0
DICTIONARY
  5
16
102
{ACAD_REACTORS
330
C
102
}
330
C
100
AcDbDictionary
281
     1
  3
Standard
350
17
  0
DICTIONARY
  5
18
102
{ACAD_REACTORS
330
C
102
}
330
C
100
AcDbDictionary
281
     1
  0
ACDBDICTIONARYWDFLT
  5
E
102
{ACAD_REACTORS
330
C
102
}
330
C
100
AcDbDictionary
281
     1
  3
Normal
350
F
100
AcDbDictionaryWithDefault
340
F
  0
DICTIONARY
  5
6F2
102
{ACAD_REACTORS
330
C
102
}
330
C
100
AcDbDictionary
281
     1
  3
Standard
350
6F3
  0
DICTIONARY
  5
AD4
102
{ACAD_REACTORS
330
C
102
}
330
C
100
AcDbDictionary
281
     1
  3
COLORDICT
350
AD5
  3
MATERIALDICT
350
AD6
  0
DICTIONARY
  5
A6B
102
{ACAD_REACTORS
330
C
102
}
330
C
100
AcDbDictionary
281
     1
  3
CTABLESTYLE
350
A6C
  0
DICTIONARY
  5
A81
102
{ACAD_REACTORS
330
760
102
}
330
760
100
AcDbDictionary
281
     1
  0
DICTIONARY
  5
761
102
{ACAD_REACTORS
330
760
102
}
330
760
100
AcDbDictionary
281
     1
  0
DICTIONARY
  5
A80
102
{ACAD_REACTORS
330
760
102
}
330
760
100
AcDbDictionary
281
     1
1001
ACAD
1000
<All
  0
LAYOUT
  5
1D
102
{ACAD_REACTORS
330
19
102
}
102
{ACAD_XDICTIONARY
360
AD7
102
}
330
19
100
AcDbPlotSettings
  1

  2
C:\ACAD2000\plotters\HP LaserJet 2100 Series PS.pc3
  4

  6

 40
0.0
 41
0.0
 42
0.0
 43
0.0
 44
0.0
 45
0.0
 46
0.0
 47
0.0
 48
0.0
 49
0.0
140
0.0
141
0.0
142
1.0
143
1.0
 70
   688
 72
     0
 73
     0
 74
     5
  7
monochrome.ctb
 75
    16
147
1.0
148
0.0
149
0.0
100
AcDbLayout
  1
Layout1
 70
     0
 71
     1
 10
0.0
 20
0.0
 11
12.0
 21
9.0
 12
0.0
 22
0.0
 32
0.0
 14
1.000000000000000E+20
 24
1.000000000000000E+20
 34
1.000000000000000E+20
 15
-1.000000000000000E+20
 25
-1.000000000000000E+20
 35
-1.000000000000000E+20
146
0.0
 13
0.0
 23
0.0
 33
0.0
 16
1.0
 26
0.0
 36
0.0
 17
0.0
 27
1.0
 37
0.0
 76
     0
330
1A
  0
LAYOUT
  5
21
102
{ACAD_REACTORS
330
19
102
}
102
{ACAD_XDICTIONARY
360
AD9
102
}
330
19
100
AcDbPlotSettings
  1

  2
HP LaserJet 2100 Series PS
  4
Letter
  6

 40
5.365749835968018
 41
5.408073902130127
 42
5.132904052734375
 43
5.090576171875
 44
215.8999938964844
 45
279.3999938964844
 46
0.0
 47
0.0
 48
0.0
 49
0.0
140
0.0
141
0.0
142
1.0
143
2.479533908317625
 70
 11952
 72
     0
 73
     2
 74
     2
  7
monochrome.ctb
 75
     0
147
0.4033016030333316
148
0.0
149
0.0
100
AcDbLayout
  1
Model
 70
     1
 71
     0
 10
0.0
 20
0.0
 11
12.0
 21
9.0
 12
0.0
 22
0.0
 32
0.0
 14
0.0
 24
0.0
 34
0.0
 15
0.0
 25
0.0
 35
0.0
146
0.0
 13
0.0
 23
0.0
 33
0.0
 16
1.0
 26
0.0
 36
0.0
 17
0.0
 27
1.0
 37
0.0
 76
     0
330
1E
1001
ACAD_PSEXT
1000
HP LaserJet 2100 Series PS
1000
HP LaserJet 2100 Series PS
1000
LPT1:
1000

1070
     0
  0
MLINESTYLE
  5
17
102
{ACAD_REACTORS
330
16
102
}
330
16
100
AcDbMlineStyle
  2
STANDARD
 70
     0
  3

 62
   256
 51
90.0
 52
90.0
 71
     2
 49
0.5
 62
   256
  6
BYLAYER
 49
-0.5
 62
   256
  6
BYLAYER
  0
ACDBPLACEHOLDER
  5
F
102
{ACAD_REACTORS
330
E
102
}
330
E
  0
ACAD_PROXY_OBJECT
  5
6F3
102
{ACAD_REACTORS
330
6F2
102
}
330
6F2
100
AcDbProxyObject
 90
      499
 91
      531
 95
   983063
 70
     0
 93
     1841
310
4214DD185B99185C9928B81E85EB51B8AE3F2E07A17AD46E2B8FC02B5E8DC0F42B1CFD028000000C1008070000C3001FDFF8000000C1003FBFF000000182007F7FE00000030400FEFFC00000060801FDFF8000000C1003FBFF00000018200000000000000681FA0B0000001820100E000186003FBFF000000182007F7FE000
310
00030400FEFFC00000060801FDFF8000000C1003FBFF000000182007F7FE000000304000AD7A3703D0AC73F4160000003040201C00030C007F7FE00000030400FEFFC00000060801FDFF8000000C1003FBFF000000182007F7FE00000030400FEFFC000000608000
340
11
340
11
340
11
 94
        0
  0
XRECORD
  5
AD5
102
{ACAD_REACTORS
330
AD4
102
}
330
AD4
100
AcDbXrecord
340
6F1
  0
XRECORD
  5
AD6
102
{ACAD_REACTORS
330
AD4
102
}
330
AD4
100
AcDbXrecord
340
6F0
  0
DICTIONARYVAR
  5
A6C
102
{ACAD_REACTORS
330
A6B
102
}
330
A6B
100
DictionaryVariables
280
     0
  1
STANDARD
  0
DICTIONARY
  5
AD7
330
1D
100
AcDbDictionary
280
     1
281
     1
  3
ACAD_XREC_ROUNDTRIP
360
AD8
  0
DICTIONARY
  5
AD9
330
21
100
AcDbDictionary
280
     1
281
     1
  3
ACAD_XREC_ROUNDTRIP
360
ADA
  0
XRECORD
  5
AD8
102
{ACAD_REACTORS
330
AD7
102
}
330
AD7
100
AcDbXrecord
102
SHADEPLOT
 70
     0
102
SHADEPLOTRESLEVEL
 70
     2
102
SHADEPLOTCUSTOMDPI
 70
   300
  0
XRECORD
  5
ADA
102
{ACAD_REACTORS
330
AD9
102
}
330
AD9
100
AcDbXrecord
102
SHADEPLOT
 70
     0
102
SHADEPLOTRESLEVEL
 70
     2
102
SHADEPLOTCUSTOMDPI
 70
   300
  0
ENDSEC
  0
EOF
