  0
SECTION
  2
HEADER
  9
$ACADVER
  1
AC1015
  9
$ACADMAINTVER
 70
     6
  9
$DWGCODEPAGE
  3
ANSI_1252
  9
$INSBASE
 10
0.0
 20
0.0
 30
0.0
  9
$EXTMIN
 10
-2.330926803805184
 20
-0.0003202072018027
 30
-0.0000000000000023
  9
$EXTMAX
 10
11.53301105313938
 20
14.3457558612409
 30
0.000000000000013
  9
$LIMMIN
 10
0.0
 20
0.0
  9
$LIMMAX
 10
20.0
 20
26.25
  9
$ORTHOMODE
 70
     1
  9
$REGENMODE
 70
     1
  9
$FILLMODE
 70
     1
  9
$QTEXTMODE
 70
     0
  9
$MIRRTEXT
 70
     0
  9
$LTSCALE
 40
0.5
  9
$ATTMODE
 70
     1
  9
$TEXTSIZE
 40
0.225
  9
$TRACEWID
 40
0.05
  9
$TEXTSTYLE
  7
STANDARD
  9
$CLAYER
  8
0
  9
$CELTYPE
  6
ByLayer
  9
$CECOLOR
 62
   256
  9
$CELTSCALE
 40
1.0
  9
$DISPSILH
 70
     0
  9
$DIMSCALE
 40
1.0
  9
$DIMASZ
 40
0.3125
  9
$DIMEXO
 40
0.1
  9
$DIMDLI
 40
0.0
  9
$DIMRND
 40
0.0
  9
$DIMDLE
 40
0.0
  9
$DIMEXE
 40
0.2
  9
$DIMTP
 40
0.0
  9
$DIMTM
 40
0.0
  9
$DIMTXT
 40
0.225
  9
$DIMCEN
 40
-0.06
  9
$DIMTSZ
 40
0.0
  9
$DIMTOL
 70
     0
  9
$DIMLIM
 70
     0
  9
$DIMTIH
 70
     1
  9
$DIMTOH
 70
     1
  9
$DIMSE1
 70
     0
  9
$DIMSE2
 70
     0
  9
$DIMTAD
 70
     0
  9
$DIMZIN
 70
     0
  9
$DIMBLK
  1

  9
$DIMASO
 70
     0
  9
$DIMSHO
 70
     0
  9
$DIMPOST
  1

  9
$DIMAPOST
  1

  9
$DIMALT
 70
     0
  9
$DIMALTD
 70
     2
  9
$DIMALTF
 40
25.4
  9
$DIMLFAC
 40
1.0
  9
$DIMTOFL
 70
     0
  9
$DIMTVP
 40
0.0
  9
$DIMTIX
 70
     0
  9
$DIMSOXD
 70
     0
  9
$DIMSAH
 70
     0
  9
$DIMBLK1
  1

  9
$DIMBLK2
  1

  9
$DIMSTYLE
  2
Standard
  9
$DIMCLRD
 70
     0
  9
$DIMCLRE
 70
     0
  9
$DIMCLRT
 70
     0
  9
$DIMTFAC
 40
1.0
  9
$DIMGAP
 40
0.09
  9
$DIMJUST
 70
     0
  9
$DIMSD1
 70
     0
  9
$DIMSD2
 70
     0
  9
$DIMTOLJ
 70
     1
  9
$DIMTZIN
 70
     0
  9
$DIMALTZ
 70
     0
  9
$DIMALTTZ
 70
     0
  9
$DIMUPT
 70
     0
  9
$DIMDEC
 70
     5
  9
$DIMTDEC
 70
     5
  9
$DIMALTU
 70
     5
  9
$DIMALTTD
 70
     2
  9
$DIMTXSTY
  7
STANDARD
  9
$DIMAUNIT
 70
     0
  9
$DIMADEC
 70
     0
  9
$DIMALTRND
 40
0.0
  9
$DIMAZIN
 70
     0
  9
$DIMDSEP
 70
    46
  9
$DIMATFIT
 70
     3
  9
$DIMFRAC
 70
     2
  9
$DIMLDRBLK
  1

  9
$DIMLUNIT
 70
     5
  9
$DIMLWD
 70
    -2
  9
$DIMLWE
 70
    -2
  9
$DIMTMOVE
 70
     2
  9
$LUNITS
 70
     5
  9
$LUPREC
 70
     4
  9
$SKETCHINC
 40
0.062
  9
$FILLETRAD
 40
0.125
  9
$AUNITS
 70
     0
  9
$AUPREC
 70
     0
  9
$MENU
  1
ACAD
  9
$ELEVATION
 40
0.0
  9
$PELEVATION
 40
0.0
  9
$THICKNESS
 40
0.0
  9
$LIMCHECK
 70
     0
  9
$CHAMFERA
 40
0.0
  9
$CHAMFERB
 40
0.0
  9
$CHAMFERC
 40
0.0
  9
$CHAMFERD
 40
0.0
  9
$SKPOLY
 70
     0
  9
$TDCREATE
 40
2449869.770046065
  9
$TDUCREATE
 40
2449870.103379398
  9
$TDUPDATE
 40
2454935.764464479
  9
$TDUUPDATE
 40
2454936.097797812
  9
$TDINDWG
 40
0.1565388773
  9
$TDUSRTIMER
 40
0.1565388773
  9
$USRTIMER
 70
     1
  9
$ANGBASE
 50
0.0
  9
$ANGDIR
 70
     0
  9
$PDMODE
 70
     0
  9
$PDSIZE
 40
0.0
  9
$PLINEWID
 40
0.0
  9
$SPLFRAME
 70
     0
  9
$SPLINETYPE
 70
     6
  9
$SPLINESEGS
 70
     8
  9
$HANDSEED
  5
3B7C
  9
$SURFTAB1
 70
     6
  9
$SURFTAB2
 70
     6
  9
$SURFTYPE
 70
     6
  9
$SURFU
 70
     6
  9
$SURFV
 70
     6
  9
$UCSBASE
  2

  9
$UCSNAME
  2

  9
$UCSORG
 10
0.0
 20
0.0
 30
0.0
  9
$UCSXDIR
 10
1.0
 20
0.0
 30
0.0
  9
$UCSYDIR
 10
0.0
 20
1.0
 30
0.0
  9
$UCSORTHOREF
  2

  9
$UCSORTHOVIEW
 70
     0
  9
$UCSORGTOP
 10
0.0
 20
0.0
 30
0.0
  9
$UCSORGBOTTOM
 10
0.0
 20
0.0
 30
0.0
  9
$UCSORGLEFT
 10
0.0
 20
0.0
 30
0.0
  9
$UCSORGRIGHT
 10
0.0
 20
0.0
 30
0.0
  9
$UCSORGFRONT
 10
0.0
 20
0.0
 30
0.0
  9
$UCSORGBACK
 10
0.0
 20
0.0
 30
0.0
  9
$PUCSBASE
  2

  9
$PUCSNAME
  2

  9
$PUCSORG
 10
0.0
 20
0.0
 30
0.0
  9
$PUCSXDIR
 10
1.0
 20
0.0
 30
0.0
  9
$PUCSYDIR
 10
0.0
 20
1.0
 30
0.0
  9
$PUCSORTHOREF
  2

  9
$PUCSORTHOVIEW
 70
     0
  9
$PUCSORGTOP
 10
0.0
 20
0.0
 30
0.0
  9
$PUCSORGBOTTOM
 10
0.0
 20
0.0
 30
0.0
  9
$PUCSORGLEFT
 10
0.0
 20
0.0
 30
0.0
  9
$PUCSORGRIGHT
 10
0.0
 20
0.0
 30
0.0
  9
$PUCSORGFRONT
 10
0.0
 20
0.0
 30
0.0
  9
$PUCSORGBACK
 10
0.0
 20
0.0
 30
0.0
  9
$USERI1
 70
     0
  9
$USERI2
 70
     0
  9
$USERI3
 70
     0
  9
$USERI4
 70
     0
  9
$USERI5
 70
     0
  9
$USERR1
 40
0.0
  9
$USERR2
 40
0.0
  9
$USERR3
 40
0.0
  9
$USERR4
 40
0.0
  9
$USERR5
 40
0.0
  9
$WORLDVIEW
 70
     1
  9
$SHADEDGE
 70
     3
  9
$SHADEDIF
 70
    70
  9
$TILEMODE
 70
     1
  9
$MAXACTVP
 70
    16
  9
$PINSBASE
 10
0.0
 20
0.0
 30
0.0
  9
$PLIMCHECK
 70
     0
  9
$PEXTMIN
 10
1.000000000000000E+20
 20
1.000000000000000E+20
 30
1.000000000000000E+20
  9
$PEXTMAX
 10
-1.000000000000000E+20
 20
-1.000000000000000E+20
 30
-1.000000000000000E+20
  9
$PLIMMIN
 10
0.0
 20
0.0
  9
$PLIMMAX
 10
12.0
 20
9.0
  9
$UNITMODE
 70
     0
  9
$VISRETAIN
 70
     0
  9
$PLINEGEN
 70
     0
  9
$PSLTSCALE
 70
     0
  9
$TREEDEPTH
 70
  3020
  9
$CMLSTYLE
  2
Standard
  9
$CMLJUST
 70
     0
  9
$CMLSCALE
 40
1.0
  9
$PROXYGRAPHICS
 70
     1
  9
$MEASUREMENT
 70
     0
  9
$CELWEIGHT
370
    -1
  9
$ENDCAPS
280
     0
  9
$JOINSTYLE
280
     0
  9
$LWDISPLAY
290
     0
  9
$INSUNITS
 70
     0
  9
$HYPERLINKBASE
  1

  9
$STYLESHEET
  1
monochrome.ctb
  9
$XEDIT
290
     1
  9
$CEPSNTYPE
380
     0
  9
$PSTYLEMODE
290
     1
  9
$FINGERPRINTGUID
  2
{8CE97AB5-5BC1-48D4-88C2-5274015CF611}
  9
$VERSIONGUID
  2
{B555423E-4BD5-4912-804D-91F9093D0A27}
  9
$EXTNAMES
290
     1
  9
$PSVPSCALE
 40
0.0
  9
$OLESTARTUP
290
     0
  0
ENDSEC
  0
SECTION
  2
CLASSES
  0
CLASS
  1
ACDBDICTIONARYWDFLT
  2
AcDbDictionaryWithDefault
  3
AutoCAD 2000
 90
        0
280
     0
281
     0
  0
CLASS
  1
ACDBPLACEHOLDER
  2
AcDbPlaceHolder
  3
ObjectDBX Classes
 90
        0
280
     0
281
     0
  0
CLASS
  1
LAYOUT
  2
AcDbLayout
  3
ObjectDBX Classes
 90
        0
280
     0
281
     0
  0
CLASS
  1
DICTIONARYVAR
  2
AcDbDictionaryVar
  3
AutoCAD 2000
 90
        0
280
     0
281
     0
  0
CLASS
  1
LONG_TRANSACTION
  2
AcDbLongTransaction
  3
ObjectDBX Classes
 90
   -65536
280
     1
281
     0
  0
CLASS
  1
LWPOLYLINE
  2
AcDbPolyline
  3
AutoCAD 2000
 90
        0
280
     0
281
     1
  0
CLASS
  1
HATCH
  2
AcDbHatch
  3
AutoCAD 2000
 90
        0
280
     0
281
     1
  0
CLASS
  1
XRECORD
  2
AcDbXrecord
  3
AutoCAD 2000
 90
        0
280
     0
281
     0
  0
CLASS
  1
LONG_TRANSACTION
  2
AcDbLongTransaction
  3
ObjectDBX Classes
 90
   -65536
280
     1
281
     0
  0
CLASS
  1
LWPOLYLINE
  2
AcDbPolyline
  3
AutoCAD 2000
 90
        0
280
     0
281
     1
  0
CLASS
  1
HATCH
  2
AcDbHatch
  3
AutoCAD 2000
 90
        0
280
     0
281
     1
  0
CLASS
  1
XRECORD
  2
AcDbXrecord
  3
AutoCAD 2000
 90
        0
280
     0
281
     0
  0
CLASS
  1
TABLESTYLE
  2
AcDbTableStyle
  3
ObjectDBX Classes
 90
     2047
280
     1
281
     0
  0
CLASS
  1
SORTENTSTABLE
  2
AcDbSortentsTable
  3
AutoCAD 2000
 90
        0
280
     0
281
     0
  0
CLASS
  1
DIMASSOC
  2
AcDbDimAssoc
  3
"AcDbDimAssoc|Product Desc:     AcDim ARX App For Dimension|Company:          Autodesk, Inc.|WEB Address:      www.autodesk.com"
 90
        0
280
     0
281
     0
  0
ENDSEC
  0
SECTION
  2
TABLES
  0
TABLE
  2
VPORT
  5
8
330
0
100
AcDbSymbolTable
 70
     3
  0
VPORT
  5
3B6D
330
8
100
AcDbSymbolTableRecord
100
AcDbViewportTableRecord
  2
*Active
 70
     0
 10
0.0
 20
0.0
 11
1.0
 21
1.0
 12
10.24871702909065
 22
7.610730963373204
 13
0.0
 23
0.0
 14
0.0625
 24
0.0625
 15
0.25
 25
0.25
 16
0.0
 26
0.0
 36
1.0
 17
0.0
 27
0.0
 37
0.0
 40
18.779782355038
 41
1.77079107505071
 42
50.0
 43
0.0
 44
0.0
 50
0.0
 51
0.0
 71
     0
 72
   100
 73
     1
 74
     0
 75
     0
 76
     0
 77
     0
 78
     0
281
     0
 65
     1
110
0.0
120
0.0
130
0.0
111
1.0
121
0.0
131
0.0
112
0.0
122
1.0
132
0.0
 79
     0
146
0.0
  0
ENDTAB
  0
TABLE
  2
LTYPE
  5
5
330
0
100
AcDbSymbolTable
 70
     4
  0
LTYPE
  5
13
330
5
100
AcDbSymbolTableRecord
100
AcDbLinetypeTableRecord
  2
ByBlock
 70
     0
  3

 72
    65
 73
     0
 40
0.0
  0
LTYPE
  5
14
330
5
100
AcDbSymbolTableRecord
100
AcDbLinetypeTableRecord
  2
ByLayer
 70
     0
  3

 72
    65
 73
     0
 40
0.0
  0
LTYPE
  5
15
330
5
100
AcDbSymbolTableRecord
100
AcDbLinetypeTableRecord
  2
CONTINUOUS
 70
     0
  3
Solid line
 72
    65
 73
     0
 40
0.0
  0
LTYPE
  5
3C
330
5
100
AcDbSymbolTableRecord
100
AcDbLinetypeTableRecord
  2
HIDDEN
 70
     0
  3
_ _ _ _ _ _ _ _ _ _ _ _ _ _ _ _ _ _ _ _ _ _ _
 72
    65
 73
     2
 40
0.375
 49
0.25
 74
     0
 49
-0.125
 74
     0
  0
ENDTAB
  0
TABLE
  2
LAYER
  5
2
102
{ACAD_XDICTIONARY
360
E1E
102
}
330
0
100
AcDbSymbolTable
 70
    13
  0
LAYER
  5
10
330
2
100
AcDbSymbolTableRecord
100
AcDbLayerTableRecord
  2
0
 70
     0
 62
     7
  6
CONTINUOUS
370
    -3
390
F
  0
LAYER
  5
43
330
2
100
AcDbSymbolTableRecord
100
AcDbLayerTableRecord
  2
DIMF
 70
     0
 62
    10
  6
CONTINUOUS
370
    -3
390
F
  0
LAYER
  5
44
330
2
100
AcDbSymbolTableRecord
100
AcDbLayerTableRecord
  2
NOTE
 70
     0
 62
     1
  6
CONTINUOUS
370
    -3
390
F
  0
LAYER
  5
54
330
2
100
AcDbSymbolTableRecord
100
AcDbLayerTableRecord
  2
DIM
 70
     0
 62
     5
  6
CONTINUOUS
370
    -3
390
F
  0
LAYER
  5
1FFF
330
2
100
AcDbSymbolTableRecord
100
AcDbLayerTableRecord
  2
Defpoints
 70
     0
 62
     7
  6
CONTINUOUS
290
     0
370
    -3
390
F
  0
ENDTAB
  0
TABLE
  2
STYLE
  5
3
330
0
100
AcDbSymbolTable
 70
     4
  0
STYLE
  5
11
330
3
100
AcDbSymbolTableRecord
100
AcDbTextStyleTableRecord
  2
STANDARD
 70
     0
 40
0.0
 41
1.0
 50
0.0
 71
     0
 42
0.225
  3
TXT
  4

  0
ENDTAB
  0
TABLE
  2
VIEW
  5
6
330
0
100
AcDbSymbolTable
 70
     0
  0
ENDTAB
  0
TABLE
  2
UCS
  5
7
330
0
100
AcDbSymbolTable
 70
     0
  0
ENDTAB
  0
TABLE
  2
APPID
  5
9
330
0
100
AcDbSymbolTable
 70
     2
  0
APPID
  5
12
330
9
100
AcDbSymbolTableRecord
100
AcDbRegAppTableRecord
  2
ACAD
 70
     0
  0
APPID
  5
2749
330
9
100
AcDbSymbolTableRecord
100
AcDbRegAppTableRecord
  2
ACAD_PSEXT
 70
     0
  0
ENDTAB
  0
TABLE
  2
DIMSTYLE
  5
A
330
0
100
AcDbSymbolTable
 70
     1
100
AcDbDimStyleTable
  0
DIMSTYLE
105
4FF
330
A
100
AcDbSymbolTableRecord
100
AcDbDimStyleTableRecord
  2
Standard
 70
     0
  3

  4

340
11
  0
ENDTAB
  0
TABLE
  2
BLOCK_RECORD
  5
1
330
0
100
AcDbSymbolTable
 70
     8
  0
BLOCK_RECORD
  5
1E
102
{ACAD_XDICTIONARY
360
57E
102
}
330
1
100
AcDbSymbolTableRecord
100
AcDbBlockTableRecord
  2
*Model_Space
340
21
  0
BLOCK_RECORD
  5
1A
330
1
100
AcDbSymbolTableRecord
100
AcDbBlockTableRecord
  2
*Paper_Space
340
1D
  0
ENDTAB
  0
ENDSEC
  0
SECTION
  2
BLOCKS
  0
BLOCK
  5
57
330
1E
100
AcDbEntity
  8
0
100
AcDbBlockBegin
  2
*Model_Space
 70
     0
 10
0.0
 20
0.0
 30
0.0
  3
*Model_Space
  1

  4

  0
ENDBLK
  5
58
330
1E
100
AcDbEntity
  8
0
100
AcDbBlockEnd
  0
BLOCK
  5
55
330
1A
100
AcDbEntity
 67
     1
  8
0
100
AcDbBlockBegin
  2
*Paper_Space
 70
     0
 10
0.0
 20
0.0
 30
0.0
  3
*Paper_Space
  1

  4

  0
ENDBLK
  5
56
330
1A
100
AcDbEntity
 67
     1
  8
0
100
AcDbBlockEnd
  0
ENDSEC
  0
SECTION
  2
ENTITIES
  0
TEXT
  5
4BC
330
1E
100
AcDbEntity
  8
DIMF
100
AcDbText
 10
8.6875
 20
8.887499999999999
 30
0.0
 40
0.225
  1
   
100
AcDbText
  0
MTEXT
  5
2810
330
1E
100
AcDbEntity
  8
NOTE
100
AcDbMText
 10
29.94685657029147
 20
16.9568205048689
 30
0.0
 40
0.27
 41
0.0
 71
     1
 72
     1
  1
\A1;
 73
     1
 44
1.0
  0
MTEXT
  5
2812
330
1E
100
AcDbEntity
  8
DIM
100
AcDbMText
 10
30.9900211213623
 20
19.18257433342396
 30
0.0
 40
0.27
 41
0.0
 71
     1
 72
     1
  1
\A1;
 73
     1
 44
1.0
  0
MTEXT
  5
284C
330
1E
100
AcDbEntity
  8
NOTE
100
AcDbMText
 10
4.003385752616929
 20
22.55751627349371
 30
0.0
 40
0.18
 41
0.0
 71
     9
 72
     1
  1
\A1;
 73
     1
 44
1.0
  0
LINE
  5
38D9
330
1E
100
AcDbEntity
  8
0
100
AcDbLine
 10
1.6875
 20
1.1875
 30
0.0
 11
0.5
 21
0.0
 31
0.0
  0
LINE
  5
38DA
330
1E
100
AcDbEntity
  8
0
  6
HIDDEN
100
AcDbLine
 10
-1.1875
 20
2.937500000000004
 30
0.0
 11
1.6875
 21
2.937500000000004
 31
0.0
  0
LINE
  5
38DB
330
1E
100
AcDbEntity
  8
0
100
AcDbLine
 10
-2.016500000000004
 20
2.983499999999999
 30
0.0
 11
2.516499999999997
 21
2.983500000000007
 31
0.0
  0
LINE
  5
38DC
330
1E
100
AcDbEntity
  8
0
100
AcDbLine
 10
-1.1875
 20
1.1875
 30
0.0
 11
-1.1875
 21
2.983500000000003
 31
0.0
  0
LINE
  5
38DD
330
1E
100
AcDbEntity
  8
0
100
AcDbLine
 10
0.0
 20
0.0
 30
0.0
 11
-1.1875
 21
1.1875
 31
0.0
  0
LINE
  5
38DE
330
1E
100
AcDbEntity
  8
0
100
AcDbLine
 10
0.5
 20
0.0
 30
0.0
 11
0.0
 21
0.0
 31
0.0
  0
CIRCLE
  5
38DF
330
1E
100
AcDbEntity
  8
0
100
AcDbCircle
 10
0.25
 20
0.3125
 30
0.0
 40
0.0855
  0
LINE
  5
38E0
330
1E
100
AcDbEntity
  8
0
100
AcDbLine
 10
-2.108500000000003
 20
6.358499999999996
 30
0.0
 11
-2.108500000000003
 21
3.029500000000006
 31
0.0
  0
LINE
  5
38E1
330
1E
100
AcDbEntity
  8
0
100
AcDbLine
 10
-2.062500000000004
 20
6.358499999999999
 30
0.0
 11
-2.062500000000004
 21
3.029500000000002
 31
0.0
  0
ARC
  5
38E2
330
1E
100
AcDbEntity
  8
0
100
AcDbCircle
 10
-2.016500000000004
 20
3.029500000000002
 30
0.0
 40
0.046
100
AcDbArc
 50
180.0
 51
270.0
  0
ARC
  5
38E3
330
1E
100
AcDbEntity
  8
0
100
AcDbCircle
 10
-2.016500000000004
 20
3.029500000000006
 30
0.0
 40
0.092
100
AcDbArc
 50
180.0
 51
270.0
  0
LINE
  5
38E4
330
1E
100
AcDbEntity
  8
0
100
AcDbLine
 10
-2.016500000000004
 20
2.937500000000004
 30
0.0
 11
-1.1875
 21
2.937500000000004
 31
0.0
  0
CIRCLE
  5
38E5
330
1E
100
AcDbEntity
  8
0
100
AcDbCircle
 10
-0.625
 20
1.937500000000004
 30
0.0
 40
0.0855
  0
LINE
  5
38E6
330
1E
100
AcDbEntity
  8
0
100
AcDbLine
 10
11.46622727571491
 20
2.891500000000004
 30
0.0
 11
11.46622727571491
 21
0.0
 31
0.0
  0
LINE
  5
38E7
330
1E
100
AcDbEntity
  8
0
100
AcDbLine
 10
5.857727275714915
 20
0.0000000000000036
 30
0.0
 11
5.857727275714908
 21
2.891500000000001
 31
0.0
  0
LINE
  5
38E8
330
1E
100
AcDbEntity
  8
0
100
AcDbLine
 10
5.903727275714914
 20
0.0
 30
0.0
 11
5.903727275714907
 21
2.891500000000001
 31
0.0
  0
LINE
  5
38E9
330
1E
100
AcDbEntity
  8
0
100
AcDbLine
 10
11.51222727571491
 20
2.891500000000001
 30
0.0
 11
11.51222727571491
 21
0.0
 31
0.0
  0
LINE
  5
38EA
330
1E
100
AcDbEntity
  8
0
100
AcDbLine
 10
1.6875
 20
2.983500000000007
 30
0.0
 11
1.6875
 21
1.1875
 31
0.0
  0
LINE
  5
38EB
330
1E
100
AcDbEntity
  8
0
100
AcDbLine
 10
5.903727275714914
 20
0.0
 30
0.0
 11
5.857727275714915
 21
0.0
 31
0.0
  0
LINE
  5
38EC
330
1E
100
AcDbEntity
  8
0
100
AcDbLine
 10
11.51222727571491
 20
0.0
 30
0.0
 11
11.46622727571491
 21
0.0
 31
0.0
  0
LINE
  5
38ED
330
1E
100
AcDbEntity
  8
0
100
AcDbLine
 10
5.949727275714906
 20
2.9375
 30
0.0
 11
11.42022727571491
 21
2.937500000000004
 31
0.0
  0
LINE
  5
38EE
330
1E
100
AcDbEntity
  8
0
  6
HIDDEN
100
AcDbLine
 10
6.497477275714914
 20
2.983500000000007
 30
0.0
 11
10.87247727571491
 21
2.983499999999999
 31
0.0
  0
LINE
  5
38EF
330
1E
100
AcDbEntity
  8
0
100
AcDbLine
 10
2.608499999999989
 20
3.029500000000006
 30
0.0
 11
2.608499999999989
 21
6.358500000000003
 31
0.0
  0
LINE
  5
38F0
330
1E
100
AcDbEntity
  8
0
100
AcDbLine
 10
2.562499999999996
 20
3.029500000000006
 30
0.0
 11
2.562499999999989
 21
6.358500000000003
 31
0.0
  0
CIRCLE
  5
38F1
330
1E
100
AcDbEntity
  8
0
100
AcDbCircle
 10
1.125
 20
1.937500000000004
 30
0.0
 40
0.0855
  0
ARC
  5
38F2
330
1E
100
AcDbEntity
  8
0
100
AcDbCircle
 10
2.516499999999997
 20
3.029500000000006
 30
0.0
 40
0.046
100
AcDbArc
 50
270.0
 51
0.0
  0
ARC
  5
38F3
330
1E
100
AcDbEntity
  8
0
100
AcDbCircle
 10
2.51649999999999
 20
3.029500000000006
 30
0.0
 40
0.092
100
AcDbArc
 50
270.0
 51
0.0
  0
LINE
  5
38F4
330
1E
100
AcDbEntity
  8
0
100
AcDbLine
 10
1.6875
 20
2.937500000000004
 30
0.0
 11
2.51649999999999
 21
2.937500000000004
 31
0.0
  0
LINE
  5
38F5
330
1E
100
AcDbEntity
  8
0
100
AcDbLine
 10
6.497477275714914
 20
2.983499999999999
 30
0.0
 11
5.949727275714906
 21
2.983500000000003
 31
0.0
  0
ARC
  5
38F6
330
1E
100
AcDbEntity
  8
0
100
AcDbCircle
 10
5.949727275714906
 20
2.891500000000001
 30
0.0
 40
0.046
100
AcDbArc
 50
90.0
 51
180.0
  0
ARC
  5
38F7
330
1E
100
AcDbEntity
  8
0
100
AcDbCircle
 10
5.949727275714906
 20
2.891500000000001
 30
0.0
 40
0.092
100
AcDbArc
 50
90.0
 51
180.0
  0
ARC
  5
38F8
330
1E
100
AcDbEntity
  8
0
100
AcDbCircle
 10
11.42022727571491
 20
2.891500000000001
 30
0.0
 40
0.092
100
AcDbArc
 50
0.0
 51
90.0
  0
ARC
  5
38F9
330
1E
100
AcDbEntity
  8
0
100
AcDbCircle
 10
11.42022727571491
 20
2.891500000000004
 30
0.0
 40
0.046
100
AcDbArc
 50
0.0
 51
90.0
  0
LINE
  5
38FA
330
1E
100
AcDbEntity
  8
0
100
AcDbLine
 10
11.42022727571491
 20
2.983499999999999
 30
0.0
 11
10.87247727571491
 21
2.983499999999999
 31
0.0
  0
LINE
  5
38FB
330
1E
100
AcDbEntity
  8
0
100
AcDbLine
 10
8.966227275714914
 20
6.358500000000003
 30
0.0
 11
8.403727275714914
 21
6.358500000000003
 31
0.0
  0
CIRCLE
  5
38FC
330
1E
100
AcDbEntity
  8
0
100
AcDbCircle
 10
8.684977275714914
 20
6.046000000000003
 30
0.0
 40
0.0855
  0
LINE
  5
38FD
330
1E
100
AcDbEntity
  8
0
100
AcDbLine
 10
6.497477275714914
 20
4.452250000000007
 30
0.0
 11
6.497477275714914
 21
2.937499999999996
 31
0.0
  0
CIRCLE
  5
38FE
330
1E
100
AcDbEntity
  8
0
100
AcDbCircle
 10
6.809977275714914
 20
3.921000000000003
 30
0.0
 40
0.0855
  0
LINE
  5
38FF
330
1E
100
AcDbEntity
  8
0
100
AcDbLine
 10
8.403727275714914
 20
6.358500000000003
 30
0.0
 11
6.497477275714914
 21
4.452250000000007
 31
0.0
  0
CIRCLE
  5
3900
330
1E
100
AcDbEntity
  8
0
100
AcDbCircle
 10
7.809977275714914
 20
5.424500000000002
 30
0.0
 40
0.0855
  0
LINE
  5
3901
330
1E
100
AcDbEntity
  8
0
100
AcDbLine
 10
10.87247727571491
 20
2.937500000000004
 30
0.0
 11
10.87247727571491
 21
4.452249999999996
 31
0.0
  0
CIRCLE
  5
3902
330
1E
100
AcDbEntity
  8
0
100
AcDbCircle
 10
10.55997727571491
 20
3.921000000000003
 30
0.0
 40
0.0855
  0
LINE
  5
3903
330
1E
100
AcDbEntity
  8
0
100
AcDbLine
 10
10.87247727571491
 20
4.452249999999996
 30
0.0
 11
8.966227275714914
 21
6.358500000000003
 31
0.0
  0
CIRCLE
  5
3904
330
1E
100
AcDbEntity
  8
0
100
AcDbCircle
 10
9.559977275714914
 20
5.424500000000002
 30
0.0
 40
0.0855
  0
LINE
  5
3905
330
1E
100
AcDbEntity
  8
0
100
AcDbLine
 10
2.562499999999996
 20
13.70466023905001
 30
0.0
 11
2.562499999999996
 21
9.329660239050011
 31
0.0
  0
LINE
  5
3906
330
1E
100
AcDbEntity
  8
0
100
AcDbLine
 10
-2.062500000000004
 20
13.70466023905001
 30
0.0
 11
-2.062500000000004
 21
9.329660239050011
 31
0.0
  0
LINE
  5
3907
330
1E
100
AcDbEntity
  8
0
  6
HIDDEN
100
AcDbLine
 10
-1.187500000000004
 20
8.735910239050007
 30
0.0
 11
1.687499999999996
 21
8.735910239050007
 31
0.0
  0
LINE
  5
3908
330
1E
100
AcDbEntity
  8
0
100
AcDbLine
 10
-1.437500000000004
 20
9.329660239050011
 30
0.0
 11
-2.108500000000003
 21
9.329660239050011
 31
0.0
  0
ARC
  5
3909
330
1E
100
AcDbEntity
  8
0
100
AcDbCircle
 10
-1.437500000000004
 20
9.079660239050011
 30
0.0
 40
0.25
100
AcDbArc
 50
0.0
 51
90.0
  0
LINE
  5
390A
330
1E
100
AcDbEntity
  8
0
100
AcDbLine
 10
-1.187500000000004
 20
8.689910239050008
 30
0.0
 11
-1.187500000000004
 21
9.079660239050011
 31
0.0
  0
ARC
  5
390B
330
1E
100
AcDbEntity
  8
0
100
AcDbCircle
 10
1.937499999999996
 20
9.079660239050011
 30
0.0
 40
0.25
100
AcDbArc
 50
90.0
 51
180.0
  0
LINE
  5
390C
330
1E
100
AcDbEntity
  8
0
100
AcDbLine
 10
2.608499999999999
 20
9.329660239050011
 30
0.0
 11
1.937499999999996
 21
9.329660239050011
 31
0.0
  0
LINE
  5
390D
330
1E
100
AcDbEntity
  8
0
100
AcDbLine
 10
1.687499999999996
 20
9.079660239050011
 30
0.0
 11
1.687499999999996
 21
8.689910239050008
 31
0.0
  0
LINE
  5
390E
330
1E
100
AcDbEntity
  8
0
  6
HIDDEN
100
AcDbLine
 10
1.687499999999996
 20
14.29841023905001
 30
0.0
 11
-1.187500000000004
 21
14.29841023905001
 31
0.0
  0
LWPOLYLINE
  5
390F
330
1E
100
AcDbEntity
  8
0
100
AcDbPolyline
 90
        8
 70
     1
 43
0.0
 10
0.9997865832816686
 20
11.01716023905001
 10
1.749786583281669
 20
11.01716023905001
 42
0.4142135623730953
 10
1.874786583281669
 20
11.14216023905001
 10
1.874786583281669
 20
11.89216023905001
 42
0.4142135623730944
 10
1.749786583281669
 20
12.01716023905001
 10
0.9997865832816686
 20
12.01716023905001
 42
0.4142135623730954
 10
0.8747865832816686
 20
11.89216023905001
 10
0.8747865832816686
 20
11.14216023905001
 42
0.4142135623730948
  0
ARC
  5
3910
330
1E
100
AcDbEntity
  8
0
100
AcDbCircle
 10
-1.437500000000004
 20
13.95466023905001
 30
0.0
 40
0.25
100
AcDbArc
 50
270.0
 51
0.0
  0
LINE
  5
3911
330
1E
100
AcDbEntity
  8
0
100
AcDbLine
 10
-2.108500000000003
 20
13.70466023905001
 30
0.0
 11
-1.437500000000004
 21
13.70466023905001
 31
0.0
  0
LWPOLYLINE
  5
3912
330
1E
100
AcDbEntity
  8
0
100
AcDbPolyline
 90
        8
 70
     1
 43
0.0
 10
-0.5000000000000036
 20
11.01716023905001
 42
0.4142135623730951
 10
-0.3750000000000036
 20
11.14216023905001
 10
-0.3750000000000036
 20
11.89216023905001
 42
0.4142135623730949
 10
-0.5000000000000036
 20
12.01716023905001
 10
-1.250000000000004
 20
12.01716023905001
 42
0.4142135623730952
 10
-1.375000000000004
 20
11.89216023905001
 10
-1.375000000000004
 20
11.14216023905001
 42
0.4142135623730951
 10
-1.250000000000004
 20
11.01716023905001
  0
LINE
  5
3913
330
1E
100
AcDbEntity
  8
0
100
AcDbLine
 10
-1.187500000000004
 20
13.95466023905001
 30
0.0
 11
-1.187500000000004
 21
14.34441023905001
 31
0.0
  0
ARC
  5
3914
330
1E
100
AcDbEntity
  8
0
100
AcDbCircle
 10
1.937499999999996
 20
13.95466023905001
 30
0.0
 40
0.25
100
AcDbArc
 50
180.0
 51
270.0
  0
LINE
  5
3915
330
1E
100
AcDbEntity
  8
0
100
AcDbLine
 10
1.937499999999996
 20
13.70466023905001
 30
0.0
 11
2.608499999999999
 21
13.70466023905001
 31
0.0
  0
LINE
  5
3916
330
1E
100
AcDbEntity
  8
0
100
AcDbLine
 10
1.687499999999996
 20
14.34441023905001
 30
0.0
 11
1.687499999999996
 21
13.95466023905001
 31
0.0
  0
LINE
  5
3917
330
1E
100
AcDbEntity
  8
0
100
AcDbLine
 10
11.51222727571491
 20
1.1875
 30
0.0
 11
11.46622727571491
 21
1.1875
 31
0.0
  0
LINE
  5
3918
330
1E
100
AcDbEntity
  8
0
100
AcDbLine
 10
5.903727275714907
 20
1.1875
 30
0.0
 11
5.857727275714915
 21
1.1875
 31
0.0
  0
LINE
  5
3919
330
1E
100
AcDbEntity
  8
0
100
AcDbLine
 10
-2.062500000000004
 20
6.358499999999999
 30
0.0
 11
-2.108500000000003
 21
6.358499999999996
 31
0.0
  0
LINE
  5
391A
330
1E
100
AcDbEntity
  8
0
100
AcDbLine
 10
2.608499999999989
 20
6.358499999999999
 30
0.0
 11
2.562499999999989
 21
6.358500000000003
 31
0.0
  0
LINE
  5
391B
330
1E
100
AcDbEntity
  8
0
100
AcDbLine
 10
2.608499999999999
 20
13.70466023905001
 30
0.0
 11
2.608499999999999
 21
9.329660239050011
 31
0.0
  0
LINE
  5
391C
330
1E
100
AcDbEntity
  8
0
100
AcDbLine
 10
-2.108500000000003
 20
13.70466023905001
 30
0.0
 11
-2.108500000000003
 21
9.329660239050011
 31
0.0
  0
LINE
  5
391D
330
1E
100
AcDbEntity
  8
0
100
AcDbLine
 10
1.687499999999996
 20
14.34441023905001
 30
0.0
 11
-1.187500000000004
 21
14.34441023905001
 31
0.0
  0
LINE
  5
391E
330
1E
100
AcDbEntity
  8
0
100
AcDbLine
 10
-1.187500000000004
 20
8.689910239050008
 30
0.0
 11
1.687499999999996
 21
8.689910239050008
 31
0.0
  0
LINE
  5
3A43
330
1E
100
AcDbEntity
  8
0
100
AcDbLine
 10
2.562499999999996
 20
11.79841023905001
 30
0.0
 11
2.608499999999999
 21
11.79841023905001
 31
0.0
  0
LINE
  5
3A44
330
1E
100
AcDbEntity
  8
0
100
AcDbLine
 10
2.608499999999999
 20
11.23591023905001
 30
0.0
 11
2.562499999999996
 21
11.23591023905001
 31
0.0
  0
LINE
  5
3A45
330
1E
100
AcDbEntity
  8
0
100
AcDbLine
 10
-2.108500000000003
 20
11.79841023905001
 30
0.0
 11
-2.062500000000004
 21
11.79841023905001
 31
0.0
  0
LINE
  5
3A46
330
1E
100
AcDbEntity
  8
0
100
AcDbLine
 10
-2.062500000000004
 20
11.23591023905001
 30
0.0
 11
-2.108500000000003
 21
11.23591023905001
 31
0.0
  0
LINE
  5
3A47
330
1E
100
AcDbEntity
  8
0
100
AcDbLine
 10
-2.062499999999858
 20
4.452249999999999
 30
0.0
 11
-2.108499999999857
 21
4.452249999999996
 31
0.0
  0
LINE
  5
3A48
330
1E
100
AcDbEntity
  8
0
100
AcDbLine
 10
2.608499999999843
 20
4.452249999999999
 30
0.0
 11
2.562499999999844
 21
4.452250000000003
 31
0.0
  0
ARC
  5
3A5F
330
1E
100
AcDbEntity
  8
0
100
AcDbCircle
 10
8.6849772757149
 20
4.177894011026876
 30
0.0
 40
0.0855
100
AcDbArc
 50
1.500000000001089
 51
178.4999999999989
  0
LINE
  5
3A60
330
1E
100
AcDbEntity
  8
0
100
AcDbLine
 10
8.599506574429498
 20
4.180132140107173
 30
0.0
 11
8.592720960532617
 21
3.921000000000003
 31
0.0
  0
LINE
  5
3A61
330
1E
100
AcDbEntity
  8
0
100
AcDbLine
 10
8.77044797700033
 20
4.180132140107173
 30
0.0
 11
8.777233590897211
 21
3.921000000000003
 31
0.0
  0
ARC
  5
3A62
330
1E
100
AcDbEntity
  8
0
100
AcDbCircle
 10
8.684977275714672
 20
4.051671326618372
 30
0.0
 40
0.1097025525782063
100
AcDbArc
 50
37.45297271352769
 51
142.5470272860806
  0
ARC
  5
3A63
330
1E
100
AcDbEntity
  8
0
100
AcDbCircle
 10
8.6849772757149
 20
4.112949654446776
 30
0.0
 40
0.0873150977150265
100
AcDbArc
 50
4.441636263503656
 51
175.5583637367969
  0
LINE
  5
3A64
330
1E
100
AcDbEntity
  8
0
100
AcDbLine
 10
8.777233590897211
 20
3.921000000000003
 30
0.0
 11
8.592720960532617
 21
3.921000000000003
 31
0.0
  0
LINE
  5
3A65
330
1E
100
AcDbEntity
  8
0
100
AcDbLine
 10
8.59373935388183
 20
3.959890872965229
 30
0.0
 11
8.776215197547984
 21
3.959890872965229
 31
0.0
  0
MTEXT
  5
3A7D
330
1E
100
AcDbEntity
  8
DIM
100
AcDbMText
 10
5.316896963475525
 20
16.15952254392308
 30
0.0
 40
0.225
 41
0.0
 71
     1
 72
     1
  1
\A1;
 73
     1
 44
1.0
  0
LINE
  5
3B09
330
1E
100
AcDbEntity
  8
0
100
AcDbLine
 10
-2.124609127034741
 20
3.959890872965261
 30
0.0
 11
-2.290849402548993
 21
4.126021208529224
 31
0.0
  0
ARC
  5
3B1D
330
1E
100
AcDbEntity
  8
0
100
AcDbCircle
 10
-2.163500000000003
 20
3.920999999999999
 30
0.0
 40
0.055
100
AcDbArc
 50
0.0
 51
45.00000000000065
  0
ARC
  5
3B1E
330
1E
100
AcDbEntity
  8
0
100
AcDbCircle
 10
-2.172943652462553
 20
3.928969523491183
 30
0.0
 40
0.11
100
AcDbArc
 50
0.0
 51
45.00000000000065
  0
LINE
  5
3B1F
330
1E
100
AcDbEntity
  8
0
100
AcDbLine
 10
-2.290849402548993
 20
4.126021208529224
 30
0.0
 11
-2.251958529583725
 21
4.16491208149445
 31
0.0
  0
LINE
  5
3B20
330
1E
100
AcDbEntity
  8
0
100
AcDbLine
 10
-2.251958529583725
 20
4.16491208149445
 30
0.0
 11
-2.108548435524345
 21
4.021501987435059
 31
0.0
  0
ARC
  5
3B23
330
1E
100
AcDbEntity
  8
0
100
AcDbCircle
 10
-2.244161657963332
 20
11.51982219709278
 30
0.0
 40
0.0855
100
AcDbArc
 50
91.50000000000192
 51
268.4999999999989
  0
LINE
  5
3B24
330
1E
100
AcDbEntity
  8
0
100
AcDbLine
 10
-2.246399787043657
 20
11.43435149580735
 30
0.0
 11
-2.112069524697262
 21
11.43059822232346
 31
0.0
  0
LINE
  5
3B25
330
1E
100
AcDbEntity
  8
0
100
AcDbLine
 10
-2.246399787043657
 20
11.60529289837815
 30
0.0
 11
-2.112069524697262
 21
11.60904617186209
 31
0.0
  0
ARC
  5
3B26
330
1E
100
AcDbEntity
  8
0
100
AcDbCircle
 10
-2.205270784998049
 20
11.51982219709278
 30
0.0
 40
0.0855
100
AcDbArc
 50
91.49999999999946
 51
268.5000000000006
  0
LINE
  5
3B27
330
1E
100
AcDbEntity
  8
0
100
AcDbLine
 10
-2.207508914078375
 20
11.60529289837815
 30
0.0
 11
-2.112069524697262
 21
11.60904617186209
 31
0.0
  0
LINE
  5
3B28
330
1E
100
AcDbEntity
  8
0
100
AcDbLine
 10
-2.207508914078375
 20
11.43435149580735
 30
0.0
 11
-2.112069524697262
 21
11.43059822232346
 31
0.0
  0
LINE
  5
3B2E
330
1E
100
AcDbEntity
  8
0
100
AcDbLine
 10
2.624609127034741
 20
3.959890872965261
 30
0.0
 11
2.790849402548993
 21
4.126021208529224
 31
0.0
  0
ARC
  5
3B2F
330
1E
100
AcDbEntity
  8
0
100
AcDbCircle
 10
2.663500000000003
 20
3.920999999999999
 30
0.0
 40
0.055
100
AcDbArc
 50
134.9999999999994
 51
180.0
  0
ARC
  5
3B30
330
1E
100
AcDbEntity
  8
0
100
AcDbCircle
 10
2.672943652462553
 20
3.928969523491183
 30
0.0
 40
0.11
100
AcDbArc
 50
134.9999999999994
 51
180.0
  0
LINE
  5
3B31
330
1E
100
AcDbEntity
  8
0
100
AcDbLine
 10
2.790849402548993
 20
4.126021208529224
 30
0.0
 11
2.751958529583725
 21
4.16491208149445
 31
0.0
  0
LINE
  5
3B32
330
1E
100
AcDbEntity
  8
0
100
AcDbLine
 10
2.751958529583725
 20
4.16491208149445
 30
0.0
 11
2.608548435524345
 21
4.021501987435059
 31
0.0
  0
ARC
  5
3B33
330
1E
100
AcDbEntity
  8
0
100
AcDbCircle
 10
2.744161657963327
 20
11.51982219709277
 30
0.0
 40
0.0855
100
AcDbArc
 50
271.500000000001
 51
88.49999999999804
  0
LINE
  5
3B34
330
1E
100
AcDbEntity
  8
0
100
AcDbLine
 10
2.746399787043652
 20
11.43435149580734
 30
0.0
 11
2.612069524697258
 21
11.43059822232346
 31
0.0
  0
LINE
  5
3B35
330
1E
100
AcDbEntity
  8
0
100
AcDbLine
 10
2.746399787043652
 20
11.60529289837815
 30
0.0
 11
2.612069524697258
 21
11.60904617186208
 31
0.0
  0
ARC
  5
3B36
330
1E
100
AcDbEntity
  8
0
100
AcDbCircle
 10
2.705270784998044
 20
11.51982219709277
 30
0.0
 40
0.0855
100
AcDbArc
 50
271.4999999999994
 51
88.50000000000048
  0
LINE
  5
3B37
330
1E
100
AcDbEntity
  8
0
100
AcDbLine
 10
2.707508914078369
 20
11.60529289837815
 30
0.0
 11
2.612069524697258
 21
11.60904617186208
 31
0.0
  0
LINE
  5
3B38
330
1E
100
AcDbEntity
  8
0
100
AcDbLine
 10
2.707508914078369
 20
11.43435149580734
 30
0.0
 11
2.612069524697258
 21
11.43059822232346
 31
0.0
  0
ENDSEC
  0
SECTION
  2
OBJECTS
  0
DICTIONARY
  5
C
330
0
100
AcDbDictionary
281
     1
  3
ACAD_COLOR
350
E16
  3
ACAD_GROUP
350
D
  3
ACAD_LAYOUT
350
19
  3
ACAD_MATERIAL
350
E15
  3
ACAD_MLINESTYLE
350
16
  3
ACAD_PLOTSETTINGS
350
18
  3
ACAD_PLOTSTYLENAME
350
E
  3
ACAD_TABLESTYLE
350
E17
  3
AcadDim
350
3721
  3
ACDBHEADERROUNDTRIPXREC
350
3B75
  3
AcDbVariableDictionary
350
54F
  0
DICTIONARY
  5
E1E
330
2
100
AcDbDictionary
280
     1
281
     1
  3
ACAD_LAYERSTATES
360
E1F
  0
DICTIONARY
  5
57E
330
1E
100
AcDbDictionary
280
     1
281
     1
  3
ACAD_SORTENTS
360
1AEF
  0
DICTIONARY
  5
E16
102
{ACAD_REACTORS
330
C
102
}
330
C
100
AcDbDictionary
281
     1
  0
DICTIONARY
  5
D
102
{ACAD_REACTORS
330
C
102
}
330
C
100
AcDbDictionary
281
     1
  0
DICTIONARY
  5
19
102
{ACAD_REACTORS
330
C
102
}
330
C
100
AcDbDictionary
281
     1
  3
Layout1
350
1D
  3
Model
350
21
  0
DICTIONARY
  5
E15
102
{ACAD_REACTORS
330
C
102
}
330
C
100
AcDbDictionary
281
     1
  0
DICTIONARY
  5
16
102
{ACAD_REACTORS
330
C
102
}
330
C
100
AcDbDictionary
281
     1
  3
Standard
350
17
  0
DICTIONARY
  5
18
102
{ACAD_REACTORS
330
C
102
}
330
C
100
AcDbDictionary
281
     1
  0
ACDBDICTIONARYWDFLT
  5
E
102
{ACAD_REACTORS
330
C
102
}
330
C
100
AcDbDictionary
281
     1
  3
Normal
350
F
100
AcDbDictionaryWithDefault
340
F
  0
DICTIONARY
  5
E17
102
{ACAD_REACTORS
330
C
102
}
330
C
100
AcDbDictionary
281
     1
  3
Standard
350
E18
  0
XRECORD
  5
3721
102
{ACAD_REACTORS
330
C
102
}
330
C
100
AcDbXrecord
280
     1
 90
   990106
  3

 60
     0
 61
     0
 62
     1
 63
     3
 64
     0
 65
     0
 66
     0
 67
     3
 68
     1
 69
     0
 70
     0
 71
     0
 72
     0
 40
0.0
170
     0
340
3A7D
  0
DICTIONARY
  5
3B75
102
{ACAD_REACTORS
330
C
102
}
330
C
100
AcDbDictionary
281
     1
  3
COLORDICT
350
3B76
  3
MATERIALDICT
350
3B77
  0
DICTIONARY
  5
54F
102
{ACAD_REACTORS
330
C
102
}
330
C
100
AcDbDictionary
281
     1
  3
CTABLESTYLE
350
1AF3
  3
DIMASSOC
350
551
  3
HIDETEXT
350
550
  0
DICTIONARY
  5
E1F
102
{ACAD_REACTORS
330
E1E
102
}
330
E1E
100
AcDbDictionary
281
     1
  0
SORTENTSTABLE
  5
1AEF
102
{ACAD_REACTORS
330
57E
102
}
330
57E
100
AcDbSortentsTable
330
1E
331
0
  5
123D
331
4BC
  5
4BC
  0
LAYOUT
  5
1D
102
{ACAD_REACTORS
330
19
102
}
102
{ACAD_XDICTIONARY
360
3B78
102
}
330
19
100
AcDbPlotSettings
  1

  2
hp psc 2100 series
  4

  6

 40
0.0
 41
0.0
 42
0.0
 43
0.0
 44
0.0
 45
0.0
 46
0.0
 47
0.0
 48
0.0
 49
0.0
140
0.0
141
0.0
142
1.0
143
1.0
 70
   688
 72
     0
 73
     0
 74
     5
  7
monochrome.ctb
 75
    16
147
1.0
148
0.0
149
0.0
100
AcDbLayout
  1
Layout1
 70
     0
 71
     1
 10
0.0
 20
0.0
 11
12.0
 21
9.0
 12
0.0
 22
0.0
 32
0.0
 14
1.000000000000000E+20
 24
1.000000000000000E+20
 34
1.000000000000000E+20
 15
-1.000000000000000E+20
 25
-1.000000000000000E+20
 35
-1.000000000000000E+20
146
0.0
 13
0.0
 23
0.0
 33
0.0
 16
1.0
 26
0.0
 36
0.0
 17
0.0
 27
1.0
 37
0.0
 76
     0
330
1A
  0
LAYOUT
  5
21
102
{ACAD_REACTORS
330
19
102
}
102
{ACAD_XDICTIONARY
360
3B7A
102
}
330
19
100
AcDbPlotSettings
  1

  2
HP LaserJet 2100 Series PS
  4
Letter
  6

 40
5.365749835968018
 41
5.408073902130127
 42
5.132904052734375
 43
5.090576171875
 44
215.8999938964844
 45
279.3999938964844
 46
0.0
 47
0.0
 48
0.0
 49
0.0
140
0.0
141
0.0
142
1.0
143
2.975652560868252
 70
 28336
 72
     0
 73
     2
 74
     1
  7
monochrome.ctb
 75
     0
147
0.3360607394662415
148
-19.01806625729913
149
0.0447634053537541
100
AcDbLayout
  1
Model
 70
     1
 71
     0
 10
0.0
 20
0.0
 11
12.0
 21
9.0
 12
0.0
 22
0.0
 32
0.0
 14
0.0
 24
0.0
 34
0.0
 15
0.0
 25
0.0
 35
0.0
146
0.0
 13
0.0
 23
0.0
 33
0.0
 16
1.0
 26
0.0
 36
0.0
 17
0.0
 27
1.0
 37
0.0
 76
     0
330
1E
1001
ACAD_PSEXT
1000
HP LaserJet 2100 Series PS
1000
HP LaserJet 2100 Series PS
1000
LPT1:
1000

1070
     0
  0
MLINESTYLE
  5
17
102
{ACAD_REACTORS
330
16
102
}
330
16
100
AcDbMlineStyle
  2
STANDARD
 70
     0
  3

 62
   256
 51
90.0
 52
90.0
 71
     2
 49
0.5
 62
   256
  6
BYLAYER
 49
-0.5
 62
   256
  6
BYLAYER
  0
ACDBPLACEHOLDER
  5
F
102
{ACAD_REACTORS
330
E
102
}
330
E
  0
ACAD_PROXY_OBJECT
  5
E18
102
{ACAD_REACTORS
330
E17
102
}
330
E17
100
AcDbProxyObject
 90
      499
 91
      512
 95
   983063
 70
     0
 93
     1841
310
4214DD185B99185C9928B81E85EB51B8AE3F2E07A17AD46E2B8FC02B5E8DC0F42B1CFD028000000C1008070000C3001FDFF8000000C1003FBFF000000182007F7FE00000030400FEFFC00000060801FDFF8000000C1003FBFF00000018200000000000000681FA0B0000001820100E000186003FBFF000000182007F7FE000
310
00030400FEFFC00000060801FDFF8000000C1003FBFF000000182007F7FE000000304000AD7A3703D0AC73F4160000003040201C00030C007F7FE00000030400FEFFC00000060801FDFF8000000C1003FBFF000000182007F7FE00000030400FEFFC000000608000
340
11
340
11
340
11
 94
        0
  0
XRECORD
  5
3B76
102
{ACAD_REACTORS
330
3B75
102
}
330
3B75
100
AcDbXrecord
340
E16
  0
XRECORD
  5
3B77
102
{ACAD_REACTORS
330
3B75
102
}
330
3B75
100
AcDbXrecord
340
E15
  0
DICTIONARYVAR
  5
1AF3
102
{ACAD_REACTORS
330
54F
102
}
330
54F
100
DictionaryVariables
280
     0
  1
STANDARD
  0
DICTIONARYVAR
  5
551
102
{ACAD_REACTORS
330
54F
102
}
330
54F
100
DictionaryVariables
280
     0
  1
2
  0
DICTIONARYVAR
  5
550
102
{ACAD_REACTORS
330
54F
102
}
330
54F
100
DictionaryVariables
280
     0
  1
1
  0
DICTIONARY
  5
3B78
330
1D
100
AcDbDictionary
280
     1
281
     1
  3
ACAD_XREC_ROUNDTRIP
360
3B79
  0
DICTIONARY
  5
3B7A
330
21
100
AcDbDictionary
280
     1
281
     1
  3
ACAD_XREC_ROUNDTRIP
360
3B7B
  0
XRECORD
  5
3B79
102
{ACAD_REACTORS
330
3B78
102
}
330
3B78
100
AcDbXrecord
102
SHADEPLOT
 70
     0
102
SHADEPLOTRESLEVEL
 70
     2
102
SHADEPLOTCUSTOMDPI
 70
   300
  0
XRECORD
  5
3B7B
102
{ACAD_REACTORS
330
3B7A
102
}
330
3B7A
100
AcDbXrecord
102
SHADEPLOT
 70
     0
102
SHADEPLOTRESLEVEL
 70
     2
102
SHADEPLOTCUSTOMDPI
 70
   300
  0
ENDSEC
  0
EOF
