  0
SECTION
  2
HEADER
  9
$ACADVER
  1
AC1015
  9
$ACADMAINTVER
 70
     6
  9
$DWGCODEPAGE
  3
ANSI_1252
  9
$INSBASE
 10
0.0
 20
0.0
 30
0.0
  9
$EXTMIN
 10
-25.091545197386
 20
0.0
 30
0.0
  9
$EXTMAX
 10
28.59154519738601
 20
36.51480216633909
 30
0.0
  9
$LIMMIN
 10
0.0
 20
0.0
  9
$LIMMAX
 10
42.0
 20
32.0
  9
$ORTHOMODE
 70
     1
  9
$REGENMODE
 70
     1
  9
$FILLMODE
 70
     1
  9
$QTEXTMODE
 70
     0
  9
$MIRRTEXT
 70
     0
  9
$LTSCALE
 40
1.0
  9
$ATTMODE
 70
     1
  9
$TEXTSIZE
 40
0.36
  9
$TRACEWID
 40
0.025
  9
$TEXTSTYLE
  7
STANDARD
  9
$CLAYER
  8
0
  9
$CELTYPE
  6
BYLAYER
  9
$CECOLOR
 62
   256
  9
$CELTSCALE
 40
1.0
  9
$DISPSILH
 70
     0
  9
$DIMSCALE
 40
1.0
  9
$DIMASZ
 40
0.5
  9
$DIMEXO
 40
0.125
  9
$DIMDLI
 40
0.38
  9
$DIMRND
 40
0.0
  9
$DIMDLE
 40
0.0
  9
$DIMEXE
 40
0.32
  9
$DIMTP
 40
2.0
  9
$DIMTM
 40
0.0
  9
$DIMTXT
 40
0.36
  9
$DIMCEN
 40
0.1
  9
$DIMTSZ
 40
0.0
  9
$DIMTOL
 70
     0
  9
$DIMLIM
 70
     0
  9
$DIMTIH
 70
     1
  9
$DIMTOH
 70
     1
  9
$DIMSE1
 70
     0
  9
$DIMSE2
 70
     0
  9
$DIMTAD
 70
     0
  9
$DIMZIN
 70
     0
  9
$DIMBLK
  1

  9
$DIMASO
 70
     0
  9
$DIMSHO
 70
     0
  9
$DIMPOST
  1

  9
$DIMAPOST
  1

  9
$DIMALT
 70
     0
  9
$DIMALTD
 70
     2
  9
$DIMALTF
 40
25.4
  9
$DIMLFAC
 40
1.0
  9
$DIMTOFL
 70
     0
  9
$DIMTVP
 40
0.0
  9
$DIMTIX
 70
     0
  9
$DIMSOXD
 70
     0
  9
$DIMSAH
 70
     0
  9
$DIMBLK1
  1

  9
$DIMBLK2
  1

  9
$DIMSTYLE
  2
STANDARD
  9
$DIMCLRD
 70
     0
  9
$DIMCLRE
 70
     0
  9
$DIMCLRT
 70
     0
  9
$DIMTFAC
 40
1.0
  9
$DIMGAP
 40
0.09
  9
$DIMJUST
 70
     0
  9
$DIMSD1
 70
     0
  9
$DIMSD2
 70
     0
  9
$DIMTOLJ
 70
     1
  9
$DIMTZIN
 70
     0
  9
$DIMALTZ
 70
     0
  9
$DIMALTTZ
 70
     0
  9
$DIMUPT
 70
     0
  9
$DIMDEC
 70
     6
  9
$DIMTDEC
 70
     6
  9
$DIMALTU
 70
     2
  9
$DIMALTTD
 70
     2
  9
$DIMTXSTY
  7
STANDARD
  9
$DIMAUNIT
 70
     0
  9
$DIMADEC
 70
     0
  9
$DIMALTRND
 40
0.0
  9
$DIMAZIN
 70
     0
  9
$DIMDSEP
 70
    46
  9
$DIMATFIT
 70
     3
  9
$DIMFRAC
 70
     2
  9
$DIMLDRBLK
  1

  9
$DIMLUNIT
 70
     5
  9
$DIMLWD
 70
    -2
  9
$DIMLWE
 70
    -2
  9
$DIMTMOVE
 70
     2
  9
$LUNITS
 70
     2
  9
$LUPREC
 70
     3
  9
$SKETCHINC
 40
0.1
  9
$FILLETRAD
 40
0.0
  9
$AUNITS
 70
     0
  9
$AUPREC
 70
     0
  9
$MENU
  1
ACAD
  9
$ELEVATION
 40
0.0
  9
$PELEVATION
 40
0.0
  9
$THICKNESS
 40
0.0
  9
$LIMCHECK
 70
     0
  9
$CHAMFERA
 40
0.375
  9
$CHAMFERB
 40
0.375
  9
$CHAMFERC
 40
0.0
  9
$CHAMFERD
 40
0.0
  9
$SKPOLY
 70
     0
  9
$TDCREATE
 40
2450506.924626389
  9
$TDUCREATE
 40
2450507.257959722
  9
$TDUPDATE
 40
2454495.946022651
  9
$TDUUPDATE
 40
2454496.279355984
  9
$TDINDWG
 40
0.732393831
  9
$TDUSRTIMER
 40
0.732393831
  9
$USRTIMER
 70
     1
  9
$ANGBASE
 50
0.0
  9
$ANGDIR
 70
     0
  9
$PDMODE
 70
     0
  9
$PDSIZE
 40
0.0
  9
$PLINEWID
 40
0.0
  9
$SPLFRAME
 70
     0
  9
$SPLINETYPE
 70
     6
  9
$SPLINESEGS
 70
     8
  9
$HANDSEED
  5
20AB
  9
$SURFTAB1
 70
     6
  9
$SURFTAB2
 70
     6
  9
$SURFTYPE
 70
     6
  9
$SURFU
 70
     6
  9
$SURFV
 70
     6
  9
$UCSBASE
  2

  9
$UCSNAME
  2

  9
$UCSORG
 10
0.0
 20
0.0
 30
0.0
  9
$UCSXDIR
 10
1.0
 20
0.0
 30
0.0
  9
$UCSYDIR
 10
0.0
 20
1.0
 30
0.0
  9
$UCSORTHOREF
  2

  9
$UCSORTHOVIEW
 70
     0
  9
$UCSORGTOP
 10
0.0
 20
0.0
 30
0.0
  9
$UCSORGBOTTOM
 10
0.0
 20
0.0
 30
0.0
  9
$UCSORGLEFT
 10
0.0
 20
0.0
 30
0.0
  9
$UCSORGRIGHT
 10
0.0
 20
0.0
 30
0.0
  9
$UCSORGFRONT
 10
0.0
 20
0.0
 30
0.0
  9
$UCSORGBACK
 10
0.0
 20
0.0
 30
0.0
  9
$PUCSBASE
  2

  9
$PUCSNAME
  2

  9
$PUCSORG
 10
0.0
 20
0.0
 30
0.0
  9
$PUCSXDIR
 10
1.0
 20
0.0
 30
0.0
  9
$PUCSYDIR
 10
0.0
 20
1.0
 30
0.0
  9
$PUCSORTHOREF
  2

  9
$PUCSORTHOVIEW
 70
     0
  9
$PUCSORGTOP
 10
0.0
 20
0.0
 30
0.0
  9
$PUCSORGBOTTOM
 10
0.0
 20
0.0
 30
0.0
  9
$PUCSORGLEFT
 10
0.0
 20
0.0
 30
0.0
  9
$PUCSORGRIGHT
 10
0.0
 20
0.0
 30
0.0
  9
$PUCSORGFRONT
 10
0.0
 20
0.0
 30
0.0
  9
$PUCSORGBACK
 10
0.0
 20
0.0
 30
0.0
  9
$USERI1
 70
     0
  9
$USERI2
 70
     0
  9
$USERI3
 70
     0
  9
$USERI4
 70
     0
  9
$USERI5
 70
     0
  9
$USERR1
 40
0.0
  9
$USERR2
 40
0.0
  9
$USERR3
 40
0.0
  9
$USERR4
 40
0.0
  9
$USERR5
 40
0.0
  9
$WORLDVIEW
 70
     1
  9
$SHADEDGE
 70
     3
  9
$SHADEDIF
 70
    70
  9
$TILEMODE
 70
     1
  9
$MAXACTVP
 70
    16
  9
$PINSBASE
 10
0.0
 20
0.0
 30
0.0
  9
$PLIMCHECK
 70
     0
  9
$PEXTMIN
 10
1.000000000000000E+20
 20
1.000000000000000E+20
 30
1.000000000000000E+20
  9
$PEXTMAX
 10
-1.000000000000000E+20
 20
-1.000000000000000E+20
 30
-1.000000000000000E+20
  9
$PLIMMIN
 10
0.0
 20
0.0
  9
$PLIMMAX
 10
12.0
 20
9.0
  9
$UNITMODE
 70
     0
  9
$VISRETAIN
 70
     0
  9
$PLINEGEN
 70
     1
  9
$PSLTSCALE
 70
     0
  9
$TREEDEPTH
 70
  3020
  9
$CMLSTYLE
  2
STANDARD
  9
$CMLJUST
 70
     0
  9
$CMLSCALE
 40
1.0
  9
$PROXYGRAPHICS
 70
     1
  9
$MEASUREMENT
 70
     0
  9
$CELWEIGHT
370
    -1
  9
$ENDCAPS
280
     0
  9
$JOINSTYLE
280
     0
  9
$LWDISPLAY
290
     0
  9
$INSUNITS
 70
     0
  9
$HYPERLINKBASE
  1

  9
$STYLESHEET
  1
monochrome.ctb
  9
$XEDIT
290
     1
  9
$CEPSNTYPE
380
     0
  9
$PSTYLEMODE
290
     1
  9
$FINGERPRINTGUID
  2
{709B1F0A-389E-11D5-BE3F-00508B5FCD51}
  9
$VERSIONGUID
  2
{F79C6F41-E110-4D1D-99F1-CE8DCACF8E42}
  9
$EXTNAMES
290
     1
  9
$PSVPSCALE
 40
0.0
  9
$OLESTARTUP
290
     0
  0
ENDSEC
  0
SECTION
  2
CLASSES
  0
CLASS
  1
DICTIONARYVAR
  2
AcDbDictionaryVar
  3
AutoCAD 2000
 90
        0
280
     0
281
     0
  0
CLASS
  1
LWPOLYLINE
  2
AcDbPolyline
  3
AutoCAD 2000
 90
        0
280
     0
281
     1
  0
CLASS
  1
ACDBDICTIONARYWDFLT
  2
AcDbDictionaryWithDefault
  3
AutoCAD 2000
 90
        0
280
     0
281
     0
  0
CLASS
  1
ACDBPLACEHOLDER
  2
AcDbPlaceHolder
  3
ObjectDBX Classes
 90
        0
280
     0
281
     0
  0
CLASS
  1
LAYOUT
  2
AcDbLayout
  3
ObjectDBX Classes
 90
        0
280
     0
281
     0
  0
CLASS
  1
LONG_TRANSACTION
  2
AcDbLongTransaction
  3
ObjectDBX Classes
 90
   -65536
280
     1
281
     0
  0
CLASS
  1
LWPOLYLINE
  2
AcDbPolyline
  3
AutoCAD 2000
 90
        0
280
     0
281
     1
  0
CLASS
  1
HATCH
  2
AcDbHatch
  3
AutoCAD 2000
 90
        0
280
     0
281
     1
  0
CLASS
  1
XRECORD
  2
AcDbXrecord
  3
AutoCAD 2000
 90
        0
280
     0
281
     0
  0
CLASS
  1
LONG_TRANSACTION
  2
AcDbLongTransaction
  3
ObjectDBX Classes
 90
   -65536
280
     1
281
     0
  0
CLASS
  1
LWPOLYLINE
  2
AcDbPolyline
  3
AutoCAD 2000
 90
        0
280
     0
281
     1
  0
CLASS
  1
HATCH
  2
AcDbHatch
  3
AutoCAD 2000
 90
        0
280
     0
281
     1
  0
CLASS
  1
XRECORD
  2
AcDbXrecord
  3
AutoCAD 2000
 90
        0
280
     0
281
     0
  0
CLASS
  1
LONG_TRANSACTION
  2
AcDbLongTransaction
  3
ObjectDBX Classes
 90
   -65536
280
     1
281
     0
  0
CLASS
  1
LWPOLYLINE
  2
AcDbPolyline
  3
AutoCAD 2000
 90
        0
280
     0
281
     1
  0
CLASS
  1
HATCH
  2
AcDbHatch
  3
AutoCAD 2000
 90
        0
280
     0
281
     1
  0
CLASS
  1
XRECORD
  2
AcDbXrecord
  3
AutoCAD 2000
 90
        0
280
     0
281
     0
  0
CLASS
  1
LONG_TRANSACTION
  2
AcDbLongTransaction
  3
ObjectDBX Classes
 90
   -65536
280
     1
281
     0
  0
CLASS
  1
LWPOLYLINE
  2
AcDbPolyline
  3
AutoCAD 2000
 90
        0
280
     0
281
     1
  0
CLASS
  1
HATCH
  2
AcDbHatch
  3
AutoCAD 2000
 90
        0
280
     0
281
     1
  0
CLASS
  1
XRECORD
  2
AcDbXrecord
  3
AutoCAD 2000
 90
        0
280
     0
281
     0
  0
CLASS
  1
LONG_TRANSACTION
  2
AcDbLongTransaction
  3
ObjectDBX Classes
 90
   -65536
280
     1
281
     0
  0
CLASS
  1
LWPOLYLINE
  2
AcDbPolyline
  3
AutoCAD 2000
 90
        0
280
     0
281
     1
  0
CLASS
  1
HATCH
  2
AcDbHatch
  3
AutoCAD 2000
 90
        0
280
     0
281
     1
  0
CLASS
  1
XRECORD
  2
AcDbXrecord
  3
AutoCAD 2000
 90
        0
280
     0
281
     0
  0
CLASS
  1
TABLESTYLE
  2
AcDbTableStyle
  3
ObjectDBX Classes
 90
     2047
280
     1
281
     0
  0
CLASS
  1
SORTENTSTABLE
  2
AcDbSortentsTable
  3
AutoCAD 2000
 90
        0
280
     0
281
     0
  0
ENDSEC
  0
SECTION
  2
TABLES
  0
TABLE
  2
VPORT
  5
8
330
0
100
AcDbSymbolTable
 70
     3
  0
VPORT
  5
209D
330
8
100
AcDbSymbolTableRecord
100
AcDbViewportTableRecord
  2
*Active
 70
     0
 10
0.0
 20
0.0
 11
1.0
 21
1.0
 12
8.551844788290488
 22
15.71863159553401
 13
0.0
 23
0.0
 14
0.0625
 24
0.0625
 15
0.25
 25
0.25
 16
0.0
 26
0.0
 36
1.0
 17
0.0
 27
0.0
 37
0.0
 40
47.41986239137655
 41
1.692748091603054
 42
50.0
 43
0.0
 44
0.0
 50
0.0
 51
0.0
 71
     0
 72
   100
 73
     1
 74
     0
 75
     0
 76
     0
 77
     0
 78
     1
281
     0
 65
     1
110
0.0
120
0.0
130
0.0
111
1.0
121
0.0
131
0.0
112
0.0
122
1.0
132
0.0
 79
     0
146
0.0
  0
ENDTAB
  0
TABLE
  2
LTYPE
  5
5
330
0
100
AcDbSymbolTable
 70
     2
  0
LTYPE
  5
11
330
5
100
AcDbSymbolTableRecord
100
AcDbLinetypeTableRecord
  2
BYBLOCK
 70
     0
  3

 72
    65
 73
     0
 40
0.0
  0
LTYPE
  5
12
330
5
100
AcDbSymbolTableRecord
100
AcDbLinetypeTableRecord
  2
BYLAYER
 70
     0
  3

 72
    65
 73
     0
 40
0.0
  0
LTYPE
  5
13
330
5
100
AcDbSymbolTableRecord
100
AcDbLinetypeTableRecord
  2
CONTINUOUS
 70
     0
  3
Solid line
 72
    65
 73
     0
 40
0.0
  0
LTYPE
  5
29
330
5
100
AcDbSymbolTableRecord
100
AcDbLinetypeTableRecord
  2
HIDDEN
 70
     0
  3
_ _ _ _ _ _ _ _ _ _ _ _ _ _ _ _ _ _ _ _ _ _ _
 72
    65
 73
     2
 40
0.375
 49
0.25
 74
     0
 49
-0.125
 74
     0
  0
ENDTAB
  0
TABLE
  2
LAYER
  5
2
102
{ACAD_XDICTIONARY
360
E47
102
}
330
0
100
AcDbSymbolTable
 70
     2
  0
LAYER
  5
E
330
2
100
AcDbSymbolTableRecord
100
AcDbLayerTableRecord
  2
0
 70
     0
 62
     7
  6
CONTINUOUS
370
    -3
390
B48
  0
LAYER
  5
31
330
2
100
AcDbSymbolTableRecord
100
AcDbLayerTableRecord
  2
DIM
 70
     0
 62
     5
  6
CONTINUOUS
370
    -3
390
B48
  0
ENDTAB
  0
TABLE
  2
STYLE
  5
3
330
0
100
AcDbSymbolTable
 70
     1
  0
STYLE
  5
F
330
3
100
AcDbSymbolTableRecord
100
AcDbTextStyleTableRecord
  2
STANDARD
 70
     0
 40
0.0
 41
1.0
 50
0.0
 71
     0
 42
0.36
  3
TXT
  4

  0
ENDTAB
  0
TABLE
  2
VIEW
  5
6
330
0
100
AcDbSymbolTable
 70
     1
  0
VIEW
  5
2E
330
6
100
AcDbSymbolTableRecord
100
AcDbViewTableRecord
  2
A
 70
     0
 40
27.67202109575717
 10
21.625
 20
21.83601054787858
 41
1.0
 11
0.0
 21
0.0
 31
1.0
 12
0.0
 22
0.0
 32
0.0
 42
50.0
 43
0.0
 44
0.0
 50
0.0
 71
     0
281
     0
 72
     0
  0
ENDTAB
  0
TABLE
  2
UCS
  5
7
330
0
100
AcDbSymbolTable
 70
     0
  0
ENDTAB
  0
TABLE
  2
APPID
  5
9
330
0
100
AcDbSymbolTable
 70
     3
  0
APPID
  5
10
330
9
100
AcDbSymbolTableRecord
100
AcDbRegAppTableRecord
  2
ACAD
 70
     0
  0
APPID
  5
E46
330
9
100
AcDbSymbolTableRecord
100
AcDbRegAppTableRecord
  2
ACAD_PSEXT
 70
     0
  0
APPID
  5
111E
330
9
100
AcDbSymbolTableRecord
100
AcDbRegAppTableRecord
  2
ACAD_DSTYLE_DIMTEXT_FILL
 70
     0
  0
ENDTAB
  0
TABLE
  2
DIMSTYLE
  5
A
330
0
100
AcDbSymbolTable
 70
     1
100
AcDbDimStyleTable
  0
DIMSTYLE
105
240
330
A
100
AcDbSymbolTableRecord
100
AcDbDimStyleTableRecord
  2
STANDARD
 70
     0
  3

  4

340
F
  0
ENDTAB
  0
TABLE
  2
BLOCK_RECORD
  5
1
330
0
100
AcDbSymbolTable
 70
     0
  0
BLOCK_RECORD
  5
17
102
{ACAD_XDICTIONARY
360
BD6
102
}
330
1
100
AcDbSymbolTableRecord
100
AcDbBlockTableRecord
  2
*MODEL_SPACE
340
B4B
  0
BLOCK_RECORD
  5
14
330
1
100
AcDbSymbolTableRecord
100
AcDbBlockTableRecord
  2
*PAPER_SPACE
340
B4C
  0
ENDTAB
  0
ENDSEC
  0
SECTION
  2
BLOCKS
  0
BLOCK
  5
44
330
17
100
AcDbEntity
  8
0
100
AcDbBlockBegin
  2
*MODEL_SPACE
 70
     0
 10
0.0
 20
0.0
 30
0.0
  3
*MODEL_SPACE
  1

  4

  0
ENDBLK
  5
45
330
17
100
AcDbEntity
  8
0
100
AcDbBlockEnd
  0
BLOCK
  5
42
330
14
100
AcDbEntity
 67
     1
  8
0
100
AcDbBlockBegin
  2
*PAPER_SPACE
 70
     0
 10
0.0
 20
0.0
 30
0.0
  3
*PAPER_SPACE
  1

  4

  0
ENDBLK
  5
43
330
14
100
AcDbEntity
 67
     1
  8
0
100
AcDbBlockEnd
  0
ENDSEC
  0
SECTION
  2
ENTITIES
  0
TEXT
  5
1E4
330
17
100
AcDbEntity
  8
DIM
100
AcDbText
 10
5.118618491553427
 20
16.47777542670481
 30
0.0
 40
0.36
  1
   
 72
     2
 11
6.198618491553427
 21
16.65777542670481
 31
0.0
100
AcDbText
 73
     2
  0
TEXT
  5
1F8
330
17
100
AcDbEntity
  8
DIM
100
AcDbText
 10
3.421822549748632
 20
20.65621286506622
 30
0.0
 40
0.36
  1
   
 72
     2
 11
4.501822549748632
 21
20.83621286506622
 31
0.0
100
AcDbText
 73
     2
  0
TEXT
  5
1FC
330
17
100
AcDbEntity
  8
DIM
100
AcDbText
 10
14.98864835119193
 20
28.50288859730027
 30
0.0
 40
0.36
  1
   
 11
14.98864835119193
 21
28.68288859730027
 31
0.0
100
AcDbText
 73
     2
  0
LINE
  5
201A
330
17
100
AcDbEntity
  8
0
100
AcDbLine
 10
1.969730748427747
 20
8.951613102871097
 30
0.0
 11
1.969730748427747
 21
16.28000199442874
 31
0.0
  0
LINE
  5
201B
330
17
100
AcDbEntity
  8
0
100
AcDbLine
 10
1.78310574842774
 20
8.967238102871097
 30
0.0
 11
1.78310574842774
 21
16.28000199442874
 31
0.0
  0
LINE
  5
201C
330
17
100
AcDbEntity
  8
0
100
AcDbLine
 10
-1.81064425157226
 20
8.967238102871097
 30
0.0
 11
-1.810644251572253
 21
16.28000199442873
 31
0.0
  0
LINE
  5
201D
330
17
100
AcDbEntity
  8
0
100
AcDbLine
 10
-1.997269251572252
 20
8.951613102871097
 30
0.0
 11
-1.997269251572252
 21
16.28000199442873
 31
0.0
  0
ARC
  5
201E
330
17
100
AcDbEntity
  8
0
100
AcDbCircle
 10
-1.57626925157226
 20
8.951613102871097
 30
0.0
 40
0.421
100
AcDbArc
 50
180.0
 51
270.0
  0
ARC
  5
201F
330
17
100
AcDbEntity
  8
0
100
AcDbCircle
 10
1.54873074842774
 20
8.951613102871097
 30
0.0
 40
0.421
100
AcDbArc
 50
270.0
 51
0.000000000000007
  0
LINE
  5
2020
330
17
100
AcDbEntity
  8
0
100
AcDbLine
 10
1.53310574842774
 20
8.717238102871097
 30
0.0
 11
-1.56064425157226
 21
8.717238102871097
 31
0.0
  0
LINE
  5
2021
330
17
100
AcDbEntity
  8
0
100
AcDbLine
 10
1.54873074842774
 20
8.530613102871097
 30
0.0
 11
-1.57626925157226
 21
8.530613102871097
 31
0.0
  0
ARC
  5
2022
330
17
100
AcDbEntity
  8
0
100
AcDbCircle
 10
1.53310574842774
 20
8.967238102871097
 30
0.0
 40
0.25
100
AcDbArc
 50
270.0
 51
0.000000000000007
  0
ARC
  5
2023
330
17
100
AcDbEntity
  8
0
100
AcDbCircle
 10
-1.56064425157226
 20
8.967238102871097
 30
0.0
 40
0.25
100
AcDbArc
 50
180.0
 51
270.0
  0
LINE
  5
2024
330
17
100
AcDbEntity
  8
0
100
AcDbLine
 10
5.96973074842775
 20
16.28000199442873
 30
0.0
 11
1.78310574842774
 21
16.28000199442874
 31
0.0
  0
LINE
  5
2025
330
17
100
AcDbEntity
  8
0
100
AcDbLine
 10
5.96973074842775
 20
8.951613102871093
 30
0.0
 11
1.969730748427747
 21
8.951613102871097
 31
0.0
  0
LINE
  5
2026
330
17
100
AcDbEntity
  8
0
  6
HIDDEN
100
AcDbLine
 10
1.969730748427754
 20
9.191227419745967
 30
0.0
 11
5.969730748427747
 21
9.191227419745964
 31
0.0
  0
CIRCLE
  5
2035
330
17
100
AcDbEntity
  8
0
100
AcDbCircle
 10
4.219730748427743
 20
14.9351131028711
 30
0.0
 40
0.1405
  0
CIRCLE
  5
2036
330
17
100
AcDbEntity
  8
0
100
AcDbCircle
 10
5.21973074842774
 20
13.4351131028711
 30
0.0
 40
0.1405
  0
CIRCLE
  5
2037
330
17
100
AcDbEntity
  8
0
100
AcDbCircle
 10
4.219730748427743
 20
11.9351131028711
 30
0.0
 40
0.1405
  0
CIRCLE
  5
2038
330
17
100
AcDbEntity
  8
0
100
AcDbCircle
 10
5.21973074842774
 20
10.4351131028711
 30
0.0
 40
0.1405
  0
LINE
  5
2039
330
17
100
AcDbEntity
  8
0
100
AcDbLine
 10
4.717873836548879
 20
14.26302098999984
 30
0.0
 11
4.889965949420162
 21
14.4351131028711
 31
0.0
  0
LINE
  5
203A
330
17
100
AcDbEntity
  8
0
100
AcDbLine
 10
4.717873836548879
 20
14.26302098999984
 30
0.0
 11
4.545781723677614
 21
14.4351131028711
 31
0.0
  0
LINE
  5
203C
330
17
100
AcDbEntity
  8
0
100
AcDbLine
 10
4.889965949420162
 20
14.4351131028711
 30
0.0
 11
4.717873836548879
 21
14.60720521574237
 31
0.0
  0
LINE
  5
203D
330
17
100
AcDbEntity
  8
0
100
AcDbLine
 10
4.717873836548879
 20
14.60720521574237
 30
0.0
 11
4.545781723677614
 21
14.4351131028711
 31
0.0
  0
LINE
  5
2049
330
17
100
AcDbEntity
  8
0
100
AcDbLine
 10
5.969730748427747
 20
8.951613102871097
 30
0.0
 11
5.969730748427747
 21
16.28000199442874
 31
0.0
  0
LINE
  5
204A
330
17
100
AcDbEntity
  8
0
100
AcDbLine
 10
-5.997269251572266
 20
16.28000199442873
 30
0.0
 11
-1.82626925157226
 21
16.28000199442874
 31
0.0
  0
LINE
  5
204B
330
17
100
AcDbEntity
  8
0
100
AcDbLine
 10
-5.997269251572266
 20
8.951613102871093
 30
0.0
 11
-1.997269251572266
 21
8.951613102871097
 31
0.0
  0
LINE
  5
204C
330
17
100
AcDbEntity
  8
0
  6
HIDDEN
100
AcDbLine
 10
-1.997269251572273
 20
9.191227419745967
 30
0.0
 11
-5.997269251572266
 21
9.191227419745964
 31
0.0
  0
CIRCLE
  5
204D
330
17
100
AcDbEntity
  8
0
100
AcDbCircle
 10
-4.247269251572266
 20
14.9351131028711
 30
0.0
 40
0.1405
  0
CIRCLE
  5
204E
330
17
100
AcDbEntity
  8
0
100
AcDbCircle
 10
-5.247269251572259
 20
13.4351131028711
 30
0.0
 40
0.1405
  0
CIRCLE
  5
204F
330
17
100
AcDbEntity
  8
0
100
AcDbCircle
 10
-4.247269251572266
 20
11.9351131028711
 30
0.0
 40
0.1405
  0
CIRCLE
  5
2050
330
17
100
AcDbEntity
  8
0
100
AcDbCircle
 10
-5.247269251572259
 20
10.4351131028711
 30
0.0
 40
0.1405
  0
LINE
  5
2051
330
17
100
AcDbEntity
  8
0
100
AcDbLine
 10
-4.745658332748359
 20
14.26302098999984
 30
0.0
 11
-4.917750445619642
 21
14.4351131028711
 31
0.0
  0
LINE
  5
2052
330
17
100
AcDbEntity
  8
0
100
AcDbLine
 10
-4.745658332748359
 20
14.26302098999984
 30
0.0
 11
-4.573566219877097
 21
14.4351131028711
 31
0.0
  0
LINE
  5
2054
330
17
100
AcDbEntity
  8
0
100
AcDbLine
 10
-4.917750445619642
 20
14.4351131028711
 30
0.0
 11
-4.745658332748359
 21
14.60720521574237
 31
0.0
  0
LINE
  5
2055
330
17
100
AcDbEntity
  8
0
100
AcDbLine
 10
-4.745658332748359
 20
14.60720521574237
 30
0.0
 11
-4.573566219877097
 21
14.4351131028711
 31
0.0
  0
LINE
  5
2061
330
17
100
AcDbEntity
  8
0
100
AcDbLine
 10
-5.997269251572266
 20
8.951613102871097
 30
0.0
 11
-5.997269251572266
 21
16.28000199442874
 31
0.0
  0
LINE
  5
2062
330
17
100
AcDbEntity
  8
0
100
AcDbLine
 10
-1.249999999999993
 20
8.530613102871094
 30
0.0
 11
-1.25
 21
0.375
 31
0.0
  0
LINE
  5
2063
330
17
100
AcDbEntity
  8
0
100
AcDbLine
 10
-0.875
 20
0.0
 30
0.0
 11
0.875
 21
0.0
 31
0.0
  0
LINE
  5
2064
330
17
100
AcDbEntity
  8
0
100
AcDbLine
 10
1.25
 20
0.375
 30
0.0
 11
1.25
 21
8.530613102871097
 31
0.0
  0
LINE
  5
2065
330
17
100
AcDbEntity
  8
0
100
AcDbLine
 10
-1.25
 20
0.375
 30
0.0
 11
-0.875
 21
0.0
 31
0.0
  0
LINE
  5
2066
330
17
100
AcDbEntity
  8
0
100
AcDbLine
 10
1.25
 20
0.375
 30
0.0
 11
0.875
 21
0.0
 31
0.0
  0
CIRCLE
  5
2067
330
17
100
AcDbEntity
  8
0
100
AcDbCircle
 10
-0.6874999999999929
 20
2.405613102871094
 30
0.0
 40
0.1328
  0
CIRCLE
  5
2068
330
17
100
AcDbEntity
  8
0
100
AcDbCircle
 10
-0.4374999999999929
 20
0.4056131028710936
 30
0.0
 40
0.1328
  0
CIRCLE
  5
2069
330
17
100
AcDbEntity
  8
0
100
AcDbCircle
 10
0.7500000000000071
 20
1.405613102871094
 30
0.0
 40
0.1328
  0
CIRCLE
  5
206A
330
17
100
AcDbEntity
  8
0
100
AcDbCircle
 10
-0.4374999999999929
 20
4.405613102871094
 30
0.0
 40
0.1328
  0
CIRCLE
  5
206B
330
17
100
AcDbEntity
  8
0
100
AcDbCircle
 10
-0.6874999999999929
 20
6.397813102871094
 30
0.0
 40
0.1328
  0
CIRCLE
  5
206C
330
17
100
AcDbEntity
  8
0
100
AcDbCircle
 10
0.5000000000000071
 20
3.405613102871094
 30
0.0
 40
0.1328
  0
CIRCLE
  5
206D
330
17
100
AcDbEntity
  8
0
100
AcDbCircle
 10
0.7500000000000071
 20
5.405613102871094
 30
0.0
 40
0.1328
  0
LINE
  5
206F
330
17
100
AcDbEntity
  8
0
100
AcDbLine
 10
-1.25
 20
0.375
 30
0.0
 11
-0.875
 21
0.0
 31
0.0
  0
LWPOLYLINE
  5
2082
330
17
100
AcDbEntity
  8
0
100
AcDbPolyline
 90
        4
 70
     1
 43
0.0
 10
-0.3743555476747105
 20
3.179768439527634
 10
-0.5235108843312482
 20
3.030613102871097
 10
-0.3743555476747105
 20
2.88145776621456
 10
-0.2252002110181728
 20
3.030613102871097
  0
ENDSEC
  0
SECTION
  2
OBJECTS
  0
DICTIONARY
  5
C
330
0
100
AcDbDictionary
281
     1
  3
ACAD_COLOR
350
E0F
  3
ACAD_GROUP
350
D
  3
ACAD_LAYOUT
350
B49
  3
ACAD_MATERIAL
350
E0E
  3
ACAD_MLINESTYLE
350
1A
  3
ACAD_PLOTSETTINGS
350
B4A
  3
ACAD_PLOTSTYLENAME
350
B47
  3
ACAD_TABLESTYLE
350
E10
  3
ACDBHEADERROUNDTRIPXREC
350
20A4
  3
ACDBVARIABLEDICTIONARY
350
46
  0
DICTIONARY
  5
E47
330
2
100
AcDbDictionary
280
     1
281
     1
  3
ACAD_LAYERFILTERS
360
2007
  3
ACAD_LAYERSTATES
360
E48
  3
ACLYDICTIONARY
360
2006
  0
DICTIONARY
  5
BD6
330
17
100
AcDbDictionary
280
     1
281
     1
  3
ACAD_SORTENTS
360
1333
  0
DICTIONARY
  5
E0F
102
{ACAD_REACTORS
330
C
102
}
330
C
100
AcDbDictionary
281
     1
  0
DICTIONARY
  5
D
102
{ACAD_REACTORS
330
C
102
}
330
C
100
AcDbDictionary
281
     1
  0
DICTIONARY
  5
B49
102
{ACAD_REACTORS
330
C
102
}
330
C
100
AcDbDictionary
281
     1
  3
Layout1
350
B4C
  3
Model
350
B4B
  0
DICTIONARY
  5
E0E
102
{ACAD_REACTORS
330
C
102
}
330
C
100
AcDbDictionary
281
     1
  0
DICTIONARY
  5
1A
102
{ACAD_REACTORS
330
C
102
}
330
C
100
AcDbDictionary
281
     1
  3
STANDARD
350
1B
  0
DICTIONARY
  5
B4A
102
{ACAD_REACTORS
330
C
102
}
330
C
100
AcDbDictionary
281
     1
  0
ACDBDICTIONARYWDFLT
  5
B47
102
{ACAD_REACTORS
330
C
102
}
330
C
100
AcDbDictionary
281
     1
  3
Normal
350
B48
100
AcDbDictionaryWithDefault
340
B48
  0
DICTIONARY
  5
E10
102
{ACAD_REACTORS
330
C
102
}
330
C
100
AcDbDictionary
281
     1
  3
Standard
350
E11
  0
DICTIONARY
  5
20A4
102
{ACAD_REACTORS
330
C
102
}
330
C
100
AcDbDictionary
281
     1
  3
COLORDICT
350
20A5
  3
MATERIALDICT
350
20A6
  0
DICTIONARY
  5
46
102
{ACAD_REACTORS
330
C
102
}
330
C
100
AcDbDictionary
281
     1
  3
CTABLESTYLE
350
E32
  3
DIMADEC
350
47
  0
DICTIONARY
  5
2007
102
{ACAD_REACTORS
330
E47
102
}
330
E47
100
AcDbDictionary
281
     1
  0
DICTIONARY
  5
E48
102
{ACAD_REACTORS
330
E47
102
}
330
E47
100
AcDbDictionary
281
     1
  0
DICTIONARY
  5
2006
102
{ACAD_REACTORS
330
E47
102
}
330
E47
100
AcDbDictionary
281
     1
1001
ACAD
1000
<All
  0
SORTENTSTABLE
  5
1333
102
{ACAD_REACTORS
330
BD6
102
}
330
BD6
100
AcDbSortentsTable
330
17
331
0
  5
162
331
206B
  5
206C
331
2082
  5
2083
331
203C
  5
203D
331
1F8
  5
1F8
331
2051
  5
2052
331
1FC
  5
1FC
331
2069
  5
206A
331
2024
  5
2025
331
203D
  5
2049
331
2068
  5
2069
331
2049
  5
204A
331
204B
  5
204C
331
201A
  5
201B
331
201B
  5
201C
331
2020
  5
2021
331
2062
  5
2063
331
2038
  5
2039
331
2039
  5
203A
331
1E4
  5
1E4
331
201E
  5
201F
331
203A
  5
203C
331
206C
  5
206D
331
2036
  5
2037
331
2023
  5
2024
331
204D
  5
204E
331
2055
  5
2061
331
2026
  5
2035
331
201F
  5
2020
331
204F
  5
2050
331
2064
  5
2065
331
206F
  5
2082
331
2052
  5
2054
331
2066
  5
2067
331
2037
  5
2038
331
201D
  5
201E
331
204E
  5
204F
331
201C
  5
201D
331
2021
  5
2022
331
206A
  5
206B
331
204A
  5
204B
331
2065
  5
2066
331
2022
  5
2023
331
2061
  5
2062
331
2025
  5
2026
331
2054
  5
2055
331
2063
  5
2064
331
206D
  5
206F
331
204C
  5
204D
331
2050
  5
2051
331
2035
  5
2036
331
2067
  5
2068
  0
LAYOUT
  5
B4C
102
{ACAD_REACTORS
330
B49
102
}
102
{ACAD_XDICTIONARY
360
20A7
102
}
330
B49
100
AcDbPlotSettings
  1

  2
HP LaserJet 2100 Series PS
  4

  6

 40
0.0
 41
0.0
 42
0.0
 43
0.0
 44
0.0
 45
0.0
 46
0.0
 47
0.0
 48
0.0
 49
0.0
140
0.0
141
0.0
142
1.0
143
1.0
 70
   688
 72
     0
 73
     0
 74
     5
  7
monochrome.ctb
 75
    16
147
1.0
148
0.0
149
0.0
100
AcDbLayout
  1
Layout1
 70
     0
 71
     1
 10
0.0
 20
0.0
 11
12.0
 21
9.0
 12
0.0
 22
0.0
 32
0.0
 14
1.000000000000000E+20
 24
1.000000000000000E+20
 34
1.000000000000000E+20
 15
-1.000000000000000E+20
 25
-1.000000000000000E+20
 35
-1.000000000000000E+20
146
0.0
 13
0.0
 23
0.0
 33
0.0
 16
1.0
 26
0.0
 36
0.0
 17
0.0
 27
1.0
 37
0.0
 76
     0
330
14
  0
LAYOUT
  5
B4B
102
{ACAD_REACTORS
330
B49
102
}
102
{ACAD_XDICTIONARY
360
20A9
102
}
330
B49
100
AcDbPlotSettings
  1

  2
HP LaserJet 2100 Series PS
  4
Letter
  6
A
 40
5.365749835968018
 41
5.408073902130127
 42
5.132904052734375
 43
5.090576171875
 44
215.8999938964844
 45
279.3999938964844
 46
0.0
 47
0.0
 48
0.0
 49
0.0
140
0.0
141
0.0
142
1.0
143
4.959575152728328
 70
 11952
 72
     0
 73
     0
 74
     1
  7
monochrome.ctb
 75
     0
147
0.2016301737962145
148
1.58566044039859
149
-0.0610530673910404
100
AcDbLayout
  1
Model
 70
     1
 71
     0
 10
0.0
 20
0.0
 11
12.0
 21
9.0
 12
0.0
 22
0.0
 32
0.0
 14
0.0
 24
0.0
 34
0.0
 15
0.0
 25
0.0
 35
0.0
146
0.0
 13
0.0
 23
0.0
 33
0.0
 16
1.0
 26
0.0
 36
0.0
 17
0.0
 27
1.0
 37
0.0
 76
     0
330
17
1001
ACAD_PSEXT
1000
HP LaserJet 2100 Series PS
1000
HP LaserJet 2100 Series PS
1000
LPT1:
1000

1070
     0
  0
MLINESTYLE
  5
1B
102
{ACAD_REACTORS
330
1A
102
}
330
1A
100
AcDbMlineStyle
  2
STANDARD
 70
     0
  3

 62
   256
 51
90.0
 52
90.0
 71
     2
 49
0.5
 62
   256
  6
BYLAYER
 49
-0.5
 62
   256
  6
BYLAYER
  0
ACDBPLACEHOLDER
  5
B48
102
{ACAD_REACTORS
330
B47
102
}
330
B47
  0
ACAD_PROXY_OBJECT
  5
E11
102
{ACAD_REACTORS
330
E10
102
}
330
E10
100
AcDbProxyObject
 90
      499
 91
      525
 95
   983063
 70
     0
 93
     1841
310
4214DD185B99185C9928B81E85EB51B8AE3F2E07A17AD46E2B8FC02B5E8DC0F42B1CFD028000000C1008070000C3001FDFF8000000C1003FBFF000000182007F7FE00000030400FEFFC00000060801FDFF8000000C1003FBFF00000018200000000000000681FA0B0000001820100E000186003FBFF000000182007F7FE000
310
00030400FEFFC00000060801FDFF8000000C1003FBFF000000182007F7FE000000304000AD7A3703D0AC73F4160000003040201C00030C007F7FE00000030400FEFFC00000060801FDFF8000000C1003FBFF000000182007F7FE00000030400FEFFC000000608000
340
F
340
F
340
F
 94
        0
  0
XRECORD
  5
20A5
102
{ACAD_REACTORS
330
20A4
102
}
330
20A4
100
AcDbXrecord
340
E0F
  0
XRECORD
  5
20A6
102
{ACAD_REACTORS
330
20A4
102
}
330
20A4
100
AcDbXrecord
340
E0E
  0
DICTIONARYVAR
  5
E32
102
{ACAD_REACTORS
330
46
102
}
330
46
100
DictionaryVariables
280
     0
  1
STANDARD
  0
DICTIONARYVAR
  5
47
102
{ACAD_REACTORS
330
46
102
}
330
46
100
DictionaryVariables
280
     0
  1
0
  0
DICTIONARY
  5
20A7
330
B4C
100
AcDbDictionary
280
     1
281
     1
  3
ACAD_XREC_ROUNDTRIP
360
20A8
  0
DICTIONARY
  5
20A9
330
B4B
100
AcDbDictionary
280
     1
281
     1
  3
ACAD_XREC_ROUNDTRIP
360
20AA
  0
XRECORD
  5
20A8
102
{ACAD_REACTORS
330
20A7
102
}
330
20A7
100
AcDbXrecord
102
SHADEPLOT
 70
     0
102
SHADEPLOTRESLEVEL
 70
     2
102
SHADEPLOTCUSTOMDPI
 70
   300
  0
XRECORD
  5
20AA
102
{ACAD_REACTORS
330
20A9
102
}
330
20A9
100
AcDbXrecord
102
SHADEPLOT
 70
     0
102
SHADEPLOTRESLEVEL
 70
     2
102
SHADEPLOTCUSTOMDPI
 70
   300
  0
ENDSEC
  0
EOF
