  0
SECTION
  2
HEADER
  9
$ACADVER
  1
AC1015
  9
$ACADMAINTVER
 70
     6
  9
$DWGCODEPAGE
  3
ANSI_1252
  9
$INSBASE
 10
0.0
 20
0.0
 30
0.0
  9
$EXTMIN
 10
-25.091545197386
 20
0.0
 30
0.0
  9
$EXTMAX
 10
39.315
 20
52.505
 30
0.0
  9
$LIMMIN
 10
0.0
 20
0.0
  9
$LIMMAX
 10
42.0
 20
32.0
  9
$ORTHOMODE
 70
     1
  9
$REGENMODE
 70
     1
  9
$FILLMODE
 70
     1
  9
$QTEXTMODE
 70
     0
  9
$MIRRTEXT
 70
     0
  9
$LTSCALE
 40
1.0
  9
$ATTMODE
 70
     1
  9
$TEXTSIZE
 40
0.36
  9
$TRACEWID
 40
0.025
  9
$TEXTSTYLE
  7
STANDARD
  9
$CLAYER
  8
0
  9
$CELTYPE
  6
BYLAYER
  9
$CECOLOR
 62
   256
  9
$CELTSCALE
 40
1.0
  9
$DISPSILH
 70
     0
  9
$DIMSCALE
 40
1.0
  9
$DIMASZ
 40
0.5
  9
$DIMEXO
 40
0.125
  9
$DIMDLI
 40
0.38
  9
$DIMRND
 40
0.0
  9
$DIMDLE
 40
0.0
  9
$DIMEXE
 40
0.32
  9
$DIMTP
 40
2.0
  9
$DIMTM
 40
0.0
  9
$DIMTXT
 40
0.36
  9
$DIMCEN
 40
0.1
  9
$DIMTSZ
 40
0.0
  9
$DIMTOL
 70
     0
  9
$DIMLIM
 70
     0
  9
$DIMTIH
 70
     1
  9
$DIMTOH
 70
     1
  9
$DIMSE1
 70
     0
  9
$DIMSE2
 70
     0
  9
$DIMTAD
 70
     0
  9
$DIMZIN
 70
     0
  9
$DIMBLK
  1

  9
$DIMASO
 70
     0
  9
$DIMSHO
 70
     0
  9
$DIMPOST
  1

  9
$DIMAPOST
  1

  9
$DIMALT
 70
     0
  9
$DIMALTD
 70
     2
  9
$DIMALTF
 40
25.4
  9
$DIMLFAC
 40
1.0
  9
$DIMTOFL
 70
     0
  9
$DIMTVP
 40
0.0
  9
$DIMTIX
 70
     0
  9
$DIMSOXD
 70
     0
  9
$DIMSAH
 70
     0
  9
$DIMBLK1
  1

  9
$DIMBLK2
  1

  9
$DIMSTYLE
  2
STANDARD
  9
$DIMCLRD
 70
     0
  9
$DIMCLRE
 70
     0
  9
$DIMCLRT
 70
     0
  9
$DIMTFAC
 40
1.0
  9
$DIMGAP
 40
0.09
  9
$DIMJUST
 70
     0
  9
$DIMSD1
 70
     0
  9
$DIMSD2
 70
     0
  9
$DIMTOLJ
 70
     1
  9
$DIMTZIN
 70
     0
  9
$DIMALTZ
 70
     0
  9
$DIMALTTZ
 70
     0
  9
$DIMUPT
 70
     0
  9
$DIMDEC
 70
     6
  9
$DIMTDEC
 70
     6
  9
$DIMALTU
 70
     2
  9
$DIMALTTD
 70
     2
  9
$DIMTXSTY
  7
STANDARD
  9
$DIMAUNIT
 70
     0
  9
$DIMADEC
 70
     0
  9
$DIMALTRND
 40
0.0
  9
$DIMAZIN
 70
     0
  9
$DIMDSEP
 70
    46
  9
$DIMATFIT
 70
     3
  9
$DIMFRAC
 70
     2
  9
$DIMLDRBLK
  1

  9
$DIMLUNIT
 70
     5
  9
$DIMLWD
 70
    -2
  9
$DIMLWE
 70
    -2
  9
$DIMTMOVE
 70
     2
  9
$LUNITS
 70
     2
  9
$LUPREC
 70
     3
  9
$SKETCHINC
 40
0.1
  9
$FILLETRAD
 40
0.0
  9
$AUNITS
 70
     0
  9
$AUPREC
 70
     0
  9
$MENU
  1
ACAD
  9
$ELEVATION
 40
0.0
  9
$PELEVATION
 40
0.0
  9
$THICKNESS
 40
0.0
  9
$LIMCHECK
 70
     0
  9
$CHAMFERA
 40
0.375
  9
$CHAMFERB
 40
0.375
  9
$CHAMFERC
 40
0.0
  9
$CHAMFERD
 40
0.0
  9
$SKPOLY
 70
     0
  9
$TDCREATE
 40
2450506.924626389
  9
$TDUCREATE
 40
2450507.257959722
  9
$TDUPDATE
 40
2454495.944424514
  9
$TDUUPDATE
 40
2454496.277757847
  9
$TDINDWG
 40
0.7321397454
  9
$TDUSRTIMER
 40
0.7321397454
  9
$USRTIMER
 70
     1
  9
$ANGBASE
 50
0.0
  9
$ANGDIR
 70
     0
  9
$PDMODE
 70
     0
  9
$PDSIZE
 40
0.0
  9
$PLINEWID
 40
0.0
  9
$SPLFRAME
 70
     0
  9
$SPLINETYPE
 70
     6
  9
$SPLINESEGS
 70
     8
  9
$HANDSEED
  5
209C
  9
$SURFTAB1
 70
     6
  9
$SURFTAB2
 70
     6
  9
$SURFTYPE
 70
     6
  9
$SURFU
 70
     6
  9
$SURFV
 70
     6
  9
$UCSBASE
  2

  9
$UCSNAME
  2

  9
$UCSORG
 10
0.0
 20
0.0
 30
0.0
  9
$UCSXDIR
 10
1.0
 20
0.0
 30
0.0
  9
$UCSYDIR
 10
0.0
 20
1.0
 30
0.0
  9
$UCSORTHOREF
  2

  9
$UCSORTHOVIEW
 70
     0
  9
$UCSORGTOP
 10
0.0
 20
0.0
 30
0.0
  9
$UCSORGBOTTOM
 10
0.0
 20
0.0
 30
0.0
  9
$UCSORGLEFT
 10
0.0
 20
0.0
 30
0.0
  9
$UCSORGRIGHT
 10
0.0
 20
0.0
 30
0.0
  9
$UCSORGFRONT
 10
0.0
 20
0.0
 30
0.0
  9
$UCSORGBACK
 10
0.0
 20
0.0
 30
0.0
  9
$PUCSBASE
  2

  9
$PUCSNAME
  2

  9
$PUCSORG
 10
0.0
 20
0.0
 30
0.0
  9
$PUCSXDIR
 10
1.0
 20
0.0
 30
0.0
  9
$PUCSYDIR
 10
0.0
 20
1.0
 30
0.0
  9
$PUCSORTHOREF
  2

  9
$PUCSORTHOVIEW
 70
     0
  9
$PUCSORGTOP
 10
0.0
 20
0.0
 30
0.0
  9
$PUCSORGBOTTOM
 10
0.0
 20
0.0
 30
0.0
  9
$PUCSORGLEFT
 10
0.0
 20
0.0
 30
0.0
  9
$PUCSORGRIGHT
 10
0.0
 20
0.0
 30
0.0
  9
$PUCSORGFRONT
 10
0.0
 20
0.0
 30
0.0
  9
$PUCSORGBACK
 10
0.0
 20
0.0
 30
0.0
  9
$USERI1
 70
     0
  9
$USERI2
 70
     0
  9
$USERI3
 70
     0
  9
$USERI4
 70
     0
  9
$USERI5
 70
     0
  9
$USERR1
 40
0.0
  9
$USERR2
 40
0.0
  9
$USERR3
 40
0.0
  9
$USERR4
 40
0.0
  9
$USERR5
 40
0.0
  9
$WORLDVIEW
 70
     1
  9
$SHADEDGE
 70
     3
  9
$SHADEDIF
 70
    70
  9
$TILEMODE
 70
     1
  9
$MAXACTVP
 70
    16
  9
$PINSBASE
 10
0.0
 20
0.0
 30
0.0
  9
$PLIMCHECK
 70
     0
  9
$PEXTMIN
 10
1.000000000000000E+20
 20
1.000000000000000E+20
 30
1.000000000000000E+20
  9
$PEXTMAX
 10
-1.000000000000000E+20
 20
-1.000000000000000E+20
 30
-1.000000000000000E+20
  9
$PLIMMIN
 10
0.0
 20
0.0
  9
$PLIMMAX
 10
12.0
 20
9.0
  9
$UNITMODE
 70
     0
  9
$VISRETAIN
 70
     0
  9
$PLINEGEN
 70
     1
  9
$PSLTSCALE
 70
     0
  9
$TREEDEPTH
 70
  3020
  9
$CMLSTYLE
  2
STANDARD
  9
$CMLJUST
 70
     0
  9
$CMLSCALE
 40
1.0
  9
$PROXYGRAPHICS
 70
     1
  9
$MEASUREMENT
 70
     0
  9
$CELWEIGHT
370
    -1
  9
$ENDCAPS
280
     0
  9
$JOINSTYLE
280
     0
  9
$LWDISPLAY
290
     0
  9
$INSUNITS
 70
     0
  9
$HYPERLINKBASE
  1

  9
$STYLESHEET
  1
monochrome.ctb
  9
$XEDIT
290
     1
  9
$CEPSNTYPE
380
     0
  9
$PSTYLEMODE
290
     1
  9
$FINGERPRINTGUID
  2
{709B1F0A-389E-11D5-BE3F-00508B5FCD51}
  9
$VERSIONGUID
  2
{0587BBD3-4411-4072-937E-AA4DFAFAE4F4}
  9
$EXTNAMES
290
     1
  9
$PSVPSCALE
 40
0.0
  9
$OLESTARTUP
290
     0
  0
ENDSEC
  0
SECTION
  2
CLASSES
  0
CLASS
  1
DICTIONARYVAR
  2
AcDbDictionaryVar
  3
AutoCAD 2000
 90
        0
280
     0
281
     0
  0
CLASS
  1
LWPOLYLINE
  2
AcDbPolyline
  3
AutoCAD 2000
 90
        0
280
     0
281
     1
  0
CLASS
  1
ACDBDICTIONARYWDFLT
  2
AcDbDictionaryWithDefault
  3
AutoCAD 2000
 90
        0
280
     0
281
     0
  0
CLASS
  1
ACDBPLACEHOLDER
  2
AcDbPlaceHolder
  3
ObjectDBX Classes
 90
        0
280
     0
281
     0
  0
CLASS
  1
LAYOUT
  2
AcDbLayout
  3
ObjectDBX Classes
 90
        0
280
     0
281
     0
  0
CLASS
  1
LONG_TRANSACTION
  2
AcDbLongTransaction
  3
ObjectDBX Classes
 90
   -65536
280
     1
281
     0
  0
CLASS
  1
LWPOLYLINE
  2
AcDbPolyline
  3
AutoCAD 2000
 90
        0
280
     0
281
     1
  0
CLASS
  1
HATCH
  2
AcDbHatch
  3
AutoCAD 2000
 90
        0
280
     0
281
     1
  0
CLASS
  1
XRECORD
  2
AcDbXrecord
  3
AutoCAD 2000
 90
        0
280
     0
281
     0
  0
CLASS
  1
LONG_TRANSACTION
  2
AcDbLongTransaction
  3
ObjectDBX Classes
 90
   -65536
280
     1
281
     0
  0
CLASS
  1
LWPOLYLINE
  2
AcDbPolyline
  3
AutoCAD 2000
 90
        0
280
     0
281
     1
  0
CLASS
  1
HATCH
  2
AcDbHatch
  3
AutoCAD 2000
 90
        0
280
     0
281
     1
  0
CLASS
  1
XRECORD
  2
AcDbXrecord
  3
AutoCAD 2000
 90
        0
280
     0
281
     0
  0
CLASS
  1
LONG_TRANSACTION
  2
AcDbLongTransaction
  3
ObjectDBX Classes
 90
   -65536
280
     1
281
     0
  0
CLASS
  1
LWPOLYLINE
  2
AcDbPolyline
  3
AutoCAD 2000
 90
        0
280
     0
281
     1
  0
CLASS
  1
HATCH
  2
AcDbHatch
  3
AutoCAD 2000
 90
        0
280
     0
281
     1
  0
CLASS
  1
XRECORD
  2
AcDbXrecord
  3
AutoCAD 2000
 90
        0
280
     0
281
     0
  0
CLASS
  1
LONG_TRANSACTION
  2
AcDbLongTransaction
  3
ObjectDBX Classes
 90
   -65536
280
     1
281
     0
  0
CLASS
  1
LWPOLYLINE
  2
AcDbPolyline
  3
AutoCAD 2000
 90
        0
280
     0
281
     1
  0
CLASS
  1
HATCH
  2
AcDbHatch
  3
AutoCAD 2000
 90
        0
280
     0
281
     1
  0
CLASS
  1
XRECORD
  2
AcDbXrecord
  3
AutoCAD 2000
 90
        0
280
     0
281
     0
  0
CLASS
  1
LONG_TRANSACTION
  2
AcDbLongTransaction
  3
ObjectDBX Classes
 90
   -65536
280
     1
281
     0
  0
CLASS
  1
LWPOLYLINE
  2
AcDbPolyline
  3
AutoCAD 2000
 90
        0
280
     0
281
     1
  0
CLASS
  1
HATCH
  2
AcDbHatch
  3
AutoCAD 2000
 90
        0
280
     0
281
     1
  0
CLASS
  1
XRECORD
  2
AcDbXrecord
  3
AutoCAD 2000
 90
        0
280
     0
281
     0
  0
CLASS
  1
TABLESTYLE
  2
AcDbTableStyle
  3
ObjectDBX Classes
 90
     2047
280
     1
281
     0
  0
CLASS
  1
SORTENTSTABLE
  2
AcDbSortentsTable
  3
AutoCAD 2000
 90
        0
280
     0
281
     0
  0
ENDSEC
  0
SECTION
  2
TABLES
  0
TABLE
  2
VPORT
  5
8
330
0
100
AcDbSymbolTable
 70
     6
  0
VPORT
  5
208C
330
8
100
AcDbSymbolTableRecord
100
AcDbViewportTableRecord
  2
*Active
 70
     0
 10
0.0
 20
0.0
 11
1.0
 21
1.0
 12
8.551844788290488
 22
15.71863159553401
 13
0.0
 23
0.0
 14
0.0625
 24
0.0625
 15
0.25
 25
0.25
 16
0.0
 26
0.0
 36
1.0
 17
0.0
 27
0.0
 37
0.0
 40
47.41986239137655
 41
1.692748091603054
 42
50.0
 43
0.0
 44
0.0
 50
0.0
 51
0.0
 71
     0
 72
   100
 73
     1
 74
     0
 75
     0
 76
     0
 77
     0
 78
     1
281
     0
 65
     1
110
0.0
120
0.0
130
0.0
111
1.0
121
0.0
131
0.0
112
0.0
122
1.0
132
0.0
 79
     0
146
0.0
  0
ENDTAB
  0
TABLE
  2
LTYPE
  5
5
330
0
100
AcDbSymbolTable
 70
     4
  0
LTYPE
  5
11
330
5
100
AcDbSymbolTableRecord
100
AcDbLinetypeTableRecord
  2
BYBLOCK
 70
     0
  3

 72
    65
 73
     0
 40
0.0
  0
LTYPE
  5
12
330
5
100
AcDbSymbolTableRecord
100
AcDbLinetypeTableRecord
  2
BYLAYER
 70
     0
  3

 72
    65
 73
     0
 40
0.0
  0
LTYPE
  5
13
330
5
100
AcDbSymbolTableRecord
100
AcDbLinetypeTableRecord
  2
CONTINUOUS
 70
     0
  3
Solid line
 72
    65
 73
     0
 40
0.0
  0
LTYPE
  5
29
330
5
100
AcDbSymbolTableRecord
100
AcDbLinetypeTableRecord
  2
HIDDEN
 70
     0
  3
_ _ _ _ _ _ _ _ _ _ _ _ _ _ _ _ _ _ _ _ _ _ _
 72
    65
 73
     2
 40
0.375
 49
0.25
 74
     0
 49
-0.125
 74
     0
  0
ENDTAB
  0
TABLE
  2
LAYER
  5
2
102
{ACAD_XDICTIONARY
360
E47
102
}
330
0
100
AcDbSymbolTable
 70
    14
  0
LAYER
  5
E
330
2
100
AcDbSymbolTableRecord
100
AcDbLayerTableRecord
  2
0
 70
     0
 62
     7
  6
CONTINUOUS
370
    -3
390
B48
  0
LAYER
  5
31
330
2
100
AcDbSymbolTableRecord
100
AcDbLayerTableRecord
  2
DIM
 70
     0
 62
     5
  6
CONTINUOUS
370
    -3
390
B48
  0
ENDTAB
  0
TABLE
  2
STYLE
  5
3
330
0
100
AcDbSymbolTable
 70
     4
  0
STYLE
  5
F
330
3
100
AcDbSymbolTableRecord
100
AcDbTextStyleTableRecord
  2
STANDARD
 70
     0
 40
0.0
 41
1.0
 50
0.0
 71
     0
 42
0.36
  3
TXT
  4

  0
ENDTAB
  0
TABLE
  2
VIEW
  5
6
330
0
100
AcDbSymbolTable
 70
     1
  0
VIEW
  5
2E
330
6
100
AcDbSymbolTableRecord
100
AcDbViewTableRecord
  2
A
 70
     0
 40
27.67202109575717
 10
21.625
 20
21.83601054787858
 41
1.0
 11
0.0
 21
0.0
 31
1.0
 12
0.0
 22
0.0
 32
0.0
 42
50.0
 43
0.0
 44
0.0
 50
0.0
 71
     0
281
     0
 72
     0
  0
ENDTAB
  0
TABLE
  2
UCS
  5
7
330
0
100
AcDbSymbolTable
 70
     0
  0
ENDTAB
  0
TABLE
  2
APPID
  5
9
330
0
100
AcDbSymbolTable
 70
     3
  0
APPID
  5
10
330
9
100
AcDbSymbolTableRecord
100
AcDbRegAppTableRecord
  2
ACAD
 70
     0
  0
APPID
  5
E46
330
9
100
AcDbSymbolTableRecord
100
AcDbRegAppTableRecord
  2
ACAD_PSEXT
 70
     0
  0
APPID
  5
111E
330
9
100
AcDbSymbolTableRecord
100
AcDbRegAppTableRecord
  2
ACAD_DSTYLE_DIMTEXT_FILL
 70
     0
  0
ENDTAB
  0
TABLE
  2
DIMSTYLE
  5
A
330
0
100
AcDbSymbolTable
 70
     1
100
AcDbDimStyleTable
  0
DIMSTYLE
105
240
330
A
100
AcDbSymbolTableRecord
100
AcDbDimStyleTableRecord
  2
STANDARD
 70
     0
  3

  4

340
F
  0
ENDTAB
  0
TABLE
  2
BLOCK_RECORD
  5
1
330
0
100
AcDbSymbolTable
 70
     7
  0
BLOCK_RECORD
  5
17
102
{ACAD_XDICTIONARY
360
BD6
102
}
330
1
100
AcDbSymbolTableRecord
100
AcDbBlockTableRecord
  2
*MODEL_SPACE
340
B4B
  0
BLOCK_RECORD
  5
14
330
1
100
AcDbSymbolTableRecord
100
AcDbBlockTableRecord
  2
*PAPER_SPACE
340
B4C
  0
ENDTAB
  0
ENDSEC
  0
SECTION
  2
BLOCKS
  0
BLOCK
  5
44
330
17
100
AcDbEntity
  8
0
100
AcDbBlockBegin
  2
*MODEL_SPACE
 70
     0
 10
0.0
 20
0.0
 30
0.0
  3
*MODEL_SPACE
  1

  4

  0
ENDBLK
  5
45
330
17
100
AcDbEntity
  8
0
100
AcDbBlockEnd
  0
BLOCK
  5
42
330
14
100
AcDbEntity
 67
     1
  8
0
100
AcDbBlockBegin
  2
*PAPER_SPACE
 70
     0
 10
0.0
 20
0.0
 30
0.0
  3
*PAPER_SPACE
  1

  4

  0
ENDBLK
  5
43
330
14
100
AcDbEntity
 67
     1
  8
0
100
AcDbBlockEnd
  0
ENDSEC
  0
SECTION
  2
ENTITIES
  0
LINE
  5
160
330
17
100
AcDbEntity
  8
0
100
AcDbLine
 10
21.37181444895827
 20
8.530783545887932
 30
0.0
 11
21.37181444895826
 21
0.3751704430168381
 31
0.0
  0
LINE
  5
161
330
17
100
AcDbEntity
  8
0
100
AcDbLine
 10
21.74681444895826
 20
0.0001704430168381
 30
0.0
 11
23.49681444895826
 21
0.0001704430168381
 31
0.0
  0
LINE
  5
162
330
17
100
AcDbEntity
  8
0
100
AcDbLine
 10
23.87181444895826
 20
0.3751704430168381
 30
0.0
 11
23.87181444895826
 21
8.530783545887935
 31
0.0
  0
LINE
  5
1C2
330
17
100
AcDbEntity
  8
0
100
AcDbLine
 10
21.37181444895826
 20
0.3751704430168381
 30
0.0
 11
21.74681444895826
 21
0.0001704430168381
 31
0.0
  0
LINE
  5
1C3
330
17
100
AcDbEntity
  8
0
100
AcDbLine
 10
23.87181444895826
 20
0.3751704430168381
 30
0.0
 11
23.49681444895826
 21
0.0001704430168381
 31
0.0
  0
TEXT
  5
1E4
330
17
100
AcDbEntity
  8
DIM
100
AcDbText
 10
5.118618491553427
 20
16.47777542670481
 30
0.0
 40
0.36
  1
   
 72
     2
 11
6.198618491553427
 21
16.65777542670481
 31
0.0
100
AcDbText
 73
     2
  0
TEXT
  5
1F8
330
17
100
AcDbEntity
  8
DIM
100
AcDbText
 10
3.421822549748632
 20
20.65621286506622
 30
0.0
 40
0.36
  1
   
 72
     2
 11
4.501822549748632
 21
20.83621286506622
 31
0.0
100
AcDbText
 73
     2
  0
TEXT
  5
1FC
330
17
100
AcDbEntity
  8
DIM
100
AcDbText
 10
14.98864835119193
 20
28.50288859730027
 30
0.0
 40
0.36
  1
   
 11
14.98864835119193
 21
28.68288859730027
 31
0.0
100
AcDbText
 73
     2
  0
CIRCLE
  5
4CD
330
17
100
AcDbEntity
  8
0
100
AcDbCircle
 10
21.93431444895827
 20
2.405783545887932
 30
0.0
 40
0.1328
  0
CIRCLE
  5
4D2
330
17
100
AcDbEntity
  8
0
100
AcDbCircle
 10
22.18431444895827
 20
0.4057835458879318
 30
0.0
 40
0.1328
  0
CIRCLE
  5
4D4
330
17
100
AcDbEntity
  8
0
100
AcDbCircle
 10
23.37181444895827
 20
1.405783545887932
 30
0.0
 40
0.1328
  0
CIRCLE
  5
4D7
330
17
100
AcDbEntity
  8
0
100
AcDbCircle
 10
22.18431444895827
 20
4.405783545887932
 30
0.0
 40
0.1328
  0
CIRCLE
  5
4D8
330
17
100
AcDbEntity
  8
0
100
AcDbCircle
 10
21.93431444895827
 20
6.397983545887932
 30
0.0
 40
0.1328
  0
CIRCLE
  5
4DA
330
17
100
AcDbEntity
  8
0
100
AcDbCircle
 10
23.12181444895827
 20
3.405783545887932
 30
0.0
 40
0.1328
  0
CIRCLE
  5
4DB
330
17
100
AcDbEntity
  8
0
100
AcDbCircle
 10
23.37181444895827
 20
5.405783545887932
 30
0.0
 40
0.1328
  0
LINE
  5
885
330
17
100
AcDbEntity
  8
0
100
AcDbLine
 10
21.37181444895826
 20
0.3751704430168381
 30
0.0
 11
21.74681444895826
 21
0.0001704430168381
 31
0.0
  0
LINE
  5
979
330
17
100
AcDbEntity
  8
0
100
AcDbLine
 10
-3.75
 20
16.28017243744557
 30
0.0
 11
-3.749999999999993
 21
8.530783545887932
 31
0.0
  0
LINE
  5
97A
330
17
100
AcDbEntity
  8
0
100
AcDbLine
 10
7.250000000000014
 20
8.530783545887932
 30
0.0
 11
7.250000000000011
 21
16.28017243744557
 31
0.0
  0
LINE
  5
97B
330
17
100
AcDbEntity
  8
0
  6
HIDDEN
100
AcDbLine
 10
-3.749999999999993
 20
8.717408545887931
 30
0.0
 11
7.250000000000014
 21
8.717408545887931
 31
0.0
  0
LINE
  5
97C
330
17
100
AcDbEntity
  8
0
100
AcDbLine
 10
-3.749999999999993
 20
8.530783545887932
 30
0.0
 11
7.250000000000014
 21
8.530783545887932
 31
0.0
  0
LINE
  5
989
330
17
100
AcDbEntity
  8
0
100
AcDbLine
 10
7.250000000000011
 20
16.28017243744557
 30
0.0
 11
-3.75
 21
16.28017243744557
 31
0.0
  0
LINE
  5
9AA
330
17
100
AcDbEntity
  8
0
100
AcDbLine
 10
20.624545197386
 20
8.951783545887931
 30
0.0
 11
20.624545197386
 21
16.28017243744557
 31
0.0
  0
LINE
  5
9AB
330
17
100
AcDbEntity
  8
0
100
AcDbLine
 10
20.81117019738601
 20
8.967408545887931
 30
0.0
 11
20.81117019738601
 21
16.28017243744557
 31
0.0
  0
LINE
  5
9AC
330
17
100
AcDbEntity
  8
0
100
AcDbLine
 10
24.40492019738601
 20
8.967408545887931
 30
0.0
 11
24.404920197386
 21
16.28017243744557
 31
0.0
  0
LINE
  5
9AD
330
17
100
AcDbEntity
  8
0
100
AcDbLine
 10
24.591545197386
 20
8.951783545887931
 30
0.0
 11
24.591545197386
 21
16.28017243744557
 31
0.0
  0
ARC
  5
9AE
330
17
100
AcDbEntity
  8
0
100
AcDbCircle
 10
24.17054519738601
 20
8.951783545887931
 30
0.0
 40
0.421
100
AcDbArc
 50
270.0
 51
0.0
  0
ARC
  5
9AF
330
17
100
AcDbEntity
  8
0
100
AcDbCircle
 10
21.04554519738601
 20
8.951783545887931
 30
0.0
 40
0.421
100
AcDbArc
 50
180.0
 51
270.0
  0
LINE
  5
9B0
330
17
100
AcDbEntity
  8
0
100
AcDbLine
 10
21.06117019738601
 20
8.717408545887931
 30
0.0
 11
24.15492019738601
 21
8.717408545887931
 31
0.0
  0
LINE
  5
9B1
330
17
100
AcDbEntity
  8
0
100
AcDbLine
 10
21.04554519738601
 20
8.530783545887932
 30
0.0
 11
24.17054519738601
 21
8.530783545887932
 31
0.0
  0
ARC
  5
9B2
330
17
100
AcDbEntity
  8
0
100
AcDbCircle
 10
21.06117019738601
 20
8.967408545887931
 30
0.0
 40
0.25
100
AcDbArc
 50
180.0
 51
270.0
  0
ARC
  5
9B3
330
17
100
AcDbEntity
  8
0
100
AcDbCircle
 10
24.15492019738601
 20
8.967408545887931
 30
0.0
 40
0.25
100
AcDbArc
 50
270.0
 51
0.0
  0
LINE
  5
9B6
330
17
100
AcDbEntity
  8
0
100
AcDbLine
 10
16.624545197386
 20
16.28017243744557
 30
0.0
 11
20.81117019738601
 21
16.28017243744557
 31
0.0
  0
LINE
  5
10FE
330
17
100
AcDbEntity
  8
0
100
AcDbLine
 10
0.6250000000000071
 20
8.951783545887928
 30
0.0
 11
2.875000000000007
 21
8.951783545887928
 31
0.0
  0
LINE
  5
10FF
330
17
100
AcDbEntity
  8
0
100
AcDbLine
 10
0.1250000000000142
 20
16.28017243744557
 30
0.0
 11
0.1250000000000018
 21
9.451783545887928
 31
0.0
  0
ARC
  5
1101
330
17
100
AcDbEntity
  8
0
100
AcDbCircle
 10
0.567080363963413
 20
9.393863909851337
 30
0.0
 40
0.4458584219689399
100
AcDbArc
 50
172.5358457858161
 51
277.4641542141835
  0
ARC
  5
1102
330
17
100
AcDbEntity
  8
0
100
AcDbCircle
 10
0.5468750000000071
 20
9.378897862762802
 30
0.0
 40
0.25
100
AcDbArc
 50
180.0
 51
269.9999999999998
  0
LINE
  5
1104
330
17
100
AcDbEntity
  8
0
100
AcDbLine
 10
3.375000000000014
 20
9.451783545887754
 30
0.0
 11
3.375000000000007
 21
16.28017243744557
 31
0.0
  0
LINE
  5
110D
330
17
100
AcDbEntity
  8
0
100
AcDbLine
 10
2.953124999999993
 20
9.128897862762802
 30
0.0
 11
0.546875
 21
9.128897862762802
 31
0.0
  0
LINE
  5
1110
330
17
100
AcDbEntity
  8
0
100
AcDbLine
 10
16.624545197386
 20
8.951783545887928
 30
0.0
 11
20.624545197386
 21
8.951783545887931
 31
0.0
  0
LINE
  5
1112
330
17
100
AcDbEntity
  8
0
  6
HIDDEN
100
AcDbLine
 10
20.62454519738599
 20
9.191397862762802
 30
0.0
 11
16.624545197386
 21
9.191397862762798
 31
0.0
  0
CIRCLE
  5
11BE
330
17
100
AcDbEntity
  8
0
100
AcDbCircle
 10
6.500000000000011
 20
14.94139708493472
 30
0.0
 40
0.1405
  0
CIRCLE
  5
11BF
330
17
100
AcDbEntity
  8
0
100
AcDbCircle
 10
5.500000000000011
 20
13.44139708493472
 30
0.0
 40
0.1405
  0
CIRCLE
  5
11C0
330
17
100
AcDbEntity
  8
0
100
AcDbCircle
 10
6.500000000000014
 20
11.94139708493472
 30
0.0
 40
0.1405
  0
CIRCLE
  5
11C1
330
17
100
AcDbEntity
  8
0
100
AcDbCircle
 10
5.500000000000014
 20
10.44139708493472
 30
0.0
 40
0.1405
  0
LINE
  5
11C3
330
17
100
AcDbEntity
  8
0
100
AcDbLine
 10
6.500000000000011
 20
13.76930497206346
 30
0.0
 11
6.672092112871294
 21
13.94139708493472
 31
0.0
  0
LINE
  5
11C4
330
17
100
AcDbEntity
  8
0
100
AcDbLine
 10
6.500000000000011
 20
13.76930497206346
 30
0.0
 11
6.327907887128745
 21
13.94139708493472
 31
0.0
  0
LINE
  5
11C5
330
17
100
AcDbEntity
  8
0
100
AcDbLine
 10
6.032942836432291
 20
13.80309612370584
 30
0.0
 11
6.136544587042742
 21
13.90816476907465
 31
0.0
  0
LINE
  5
11C6
330
17
100
AcDbEntity
  8
0
100
AcDbLine
 10
6.672092112871294
 20
13.94139708493472
 30
0.0
 11
6.500000000000011
 21
14.11348919780599
 31
0.0
  0
LINE
  5
11C7
330
17
100
AcDbEntity
  8
0
100
AcDbLine
 10
6.500000000000011
 20
14.11348919780599
 30
0.0
 11
6.327907887128745
 21
13.94139708493472
 31
0.0
  0
LINE
  5
11C8
330
17
100
AcDbEntity
  8
0
100
AcDbLine
 10
6.144314175172195
 20
13.9681075873416
 30
0.0
 11
6.040712424561743
 21
14.07317623271041
 31
0.0
  0
LINE
  5
11C9
330
17
100
AcDbEntity
  8
0
100
AcDbLine
 10
5.964452474171466
 20
13.80309612370584
 30
0.0
 11
5.860850723561015
 21
13.90816476907465
 31
0.0
  0
LINE
  5
11CA
330
17
100
AcDbEntity
  8
0
100
AcDbLine
 10
5.853081135431562
 20
13.9681075873416
 30
0.0
 11
5.956682886042014
 21
14.07317623271041
 31
0.0
  0
LINE
  5
11D9
330
17
100
AcDbEntity
  8
0
100
AcDbLine
 10
5.400000000000009
 20
14.44139708493472
 30
0.0
 11
5.600000000000012
 21
14.44139708493472
 31
0.0
  0
LINE
  5
11DA
330
17
100
AcDbEntity
  8
0
100
AcDbLine
 10
5.500000000000011
 20
14.34139708493472
 30
0.0
 11
5.500000000000011
 21
14.54139708493473
 31
0.0
  0
LINE
  5
11DB
330
17
100
AcDbEntity
  8
0
100
AcDbLine
 10
6.400000000000009
 20
12.94139708493472
 30
0.0
 11
6.600000000000012
 21
12.94139708493472
 31
0.0
  0
LINE
  5
11DC
330
17
100
AcDbEntity
  8
0
100
AcDbLine
 10
6.500000000000011
 20
12.84139708493472
 30
0.0
 11
6.500000000000011
 21
13.04139708493473
 31
0.0
  0
LINE
  5
11DD
330
17
100
AcDbEntity
  8
0
100
AcDbLine
 10
5.400000000000009
 20
11.44139708493472
 30
0.0
 11
5.600000000000012
 21
11.44139708493472
 31
0.0
  0
LINE
  5
11DE
330
17
100
AcDbEntity
  8
0
100
AcDbLine
 10
5.500000000000011
 20
11.34139708493472
 30
0.0
 11
5.500000000000011
 21
11.54139708493473
 31
0.0
  0
LINE
  5
11DF
330
17
100
AcDbEntity
  8
0
100
AcDbLine
 10
6.400000000000009
 20
9.941397084934724
 30
0.0
 11
6.600000000000012
 21
9.941397084934724
 31
0.0
  0
LINE
  5
11E0
330
17
100
AcDbEntity
  8
0
100
AcDbLine
 10
6.500000000000011
 20
9.841397084934723
 30
0.0
 11
6.500000000000011
 21
10.04139708493473
 31
0.0
  0
CIRCLE
  5
11E2
330
17
100
AcDbEntity
  8
0
100
AcDbCircle
 10
-2.999999999999986
 20
14.94139708493472
 30
0.0
 40
0.1405
  0
CIRCLE
  5
11E3
330
17
100
AcDbEntity
  8
0
100
AcDbCircle
 10
-1.999999999999986
 20
13.44139708493472
 30
0.0
 40
0.1405
  0
CIRCLE
  5
11E4
330
17
100
AcDbEntity
  8
0
100
AcDbCircle
 10
-2.999999999999993
 20
11.94139708493472
 30
0.0
 40
0.1405
  0
CIRCLE
  5
11E5
330
17
100
AcDbEntity
  8
0
100
AcDbCircle
 10
-1.999999999999993
 20
10.44139708493472
 30
0.0
 40
0.1405
  0
LINE
  5
11E6
330
17
100
AcDbEntity
  8
0
100
AcDbLine
 10
-2.999999999999986
 20
13.76930497206346
 30
0.0
 11
-3.172092112871269
 21
13.94139708493472
 31
0.0
  0
LINE
  5
11E7
330
17
100
AcDbEntity
  8
0
100
AcDbLine
 10
-2.999999999999986
 20
13.76930497206346
 30
0.0
 11
-2.827907887128724
 21
13.94139708493472
 31
0.0
  0
LINE
  5
11E8
330
17
100
AcDbEntity
  8
0
100
AcDbLine
 10
-2.53294283643227
 20
13.80309612370584
 30
0.0
 11
-2.636544587042721
 21
13.90816476907465
 31
0.0
  0
LINE
  5
11E9
330
17
100
AcDbEntity
  8
0
100
AcDbLine
 10
-3.172092112871269
 20
13.94139708493472
 30
0.0
 11
-2.999999999999986
 21
14.11348919780599
 31
0.0
  0
LINE
  5
11EA
330
17
100
AcDbEntity
  8
0
100
AcDbLine
 10
-2.999999999999986
 20
14.11348919780599
 30
0.0
 11
-2.827907887128724
 21
13.94139708493472
 31
0.0
  0
LINE
  5
11EB
330
17
100
AcDbEntity
  8
0
100
AcDbLine
 10
-2.64431417517217
 20
13.9681075873416
 30
0.0
 11
-2.540712424561718
 21
14.07317623271041
 31
0.0
  0
LINE
  5
11EC
330
17
100
AcDbEntity
  8
0
100
AcDbLine
 10
-2.464452474171445
 20
13.80309612370584
 30
0.0
 11
-2.360850723560994
 21
13.90816476907465
 31
0.0
  0
LINE
  5
11ED
330
17
100
AcDbEntity
  8
0
100
AcDbLine
 10
-2.353081135431538
 20
13.9681075873416
 30
0.0
 11
-2.456682886041989
 21
14.07317623271041
 31
0.0
  0
LINE
  5
11EE
330
17
100
AcDbEntity
  8
0
100
AcDbLine
 10
-1.899999999999992
 20
14.44139708493472
 30
0.0
 11
-2.099999999999994
 21
14.44139708493472
 31
0.0
  0
LINE
  5
11EF
330
17
100
AcDbEntity
  8
0
100
AcDbLine
 10
-1.999999999999986
 20
14.34139708493472
 30
0.0
 11
-1.999999999999986
 21
14.54139708493473
 31
0.0
  0
LINE
  5
11F0
330
17
100
AcDbEntity
  8
0
100
AcDbLine
 10
-2.899999999999992
 20
12.94139708493472
 30
0.0
 11
-3.099999999999994
 21
12.94139708493472
 31
0.0
  0
LINE
  5
11F1
330
17
100
AcDbEntity
  8
0
100
AcDbLine
 10
-2.999999999999986
 20
12.84139708493472
 30
0.0
 11
-2.999999999999986
 21
13.04139708493473
 31
0.0
  0
LINE
  5
11F2
330
17
100
AcDbEntity
  8
0
100
AcDbLine
 10
-1.899999999999992
 20
11.44139708493472
 30
0.0
 11
-2.099999999999994
 21
11.44139708493472
 31
0.0
  0
LINE
  5
11F3
330
17
100
AcDbEntity
  8
0
100
AcDbLine
 10
-1.999999999999986
 20
11.34139708493472
 30
0.0
 11
-1.999999999999986
 21
11.54139708493473
 31
0.0
  0
LINE
  5
11F4
330
17
100
AcDbEntity
  8
0
100
AcDbLine
 10
-2.899999999999992
 20
9.941397084934724
 30
0.0
 11
-3.099999999999994
 21
9.941397084934724
 31
0.0
  0
LINE
  5
11F5
330
17
100
AcDbEntity
  8
0
100
AcDbLine
 10
-2.999999999999986
 20
9.841397084934723
 30
0.0
 11
-2.999999999999986
 21
10.04139708493473
 31
0.0
  0
CIRCLE
  5
11F6
330
17
100
AcDbEntity
  8
0
100
AcDbCircle
 10
17.37454519738601
 20
15.43528354588794
 30
0.0
 40
0.1405
  0
CIRCLE
  5
11F7
330
17
100
AcDbEntity
  8
0
100
AcDbCircle
 10
18.374545197386
 20
13.93528354588794
 30
0.0
 40
0.1405
  0
CIRCLE
  5
11F8
330
17
100
AcDbEntity
  8
0
100
AcDbCircle
 10
17.374545197386
 20
12.43528354588794
 30
0.0
 40
0.1405
  0
CIRCLE
  5
11F9
330
17
100
AcDbEntity
  8
0
100
AcDbCircle
 10
18.374545197386
 20
10.93528354588794
 30
0.0
 40
0.1405
  0
LINE
  5
11FA
330
17
100
AcDbEntity
  8
0
100
AcDbLine
 10
17.37454519738601
 20
14.26319143301667
 30
0.0
 11
17.20245308451472
 21
14.43528354588794
 31
0.0
  0
LINE
  5
11FB
330
17
100
AcDbEntity
  8
0
100
AcDbLine
 10
17.37454519738601
 20
14.26319143301667
 30
0.0
 11
17.54663731025727
 21
14.43528354588794
 31
0.0
  0
LINE
  5
11FD
330
17
100
AcDbEntity
  8
0
100
AcDbLine
 10
17.20245308451472
 20
14.43528354588794
 30
0.0
 11
17.37454519738601
 21
14.6073756587592
 31
0.0
  0
LINE
  5
11FE
330
17
100
AcDbEntity
  8
0
100
AcDbLine
 10
17.37454519738601
 20
14.6073756587592
 30
0.0
 11
17.54663731025727
 21
14.43528354588794
 31
0.0
  0
LINE
  5
1244
330
17
100
AcDbEntity
  8
0
100
AcDbLine
 10
7.250000000000011
 20
28.54780216633908
 30
0.0
 11
-3.75
 21
28.54780216633908
 31
0.0
  0
LINE
  5
1245
330
17
100
AcDbEntity
  8
0
100
AcDbLine
 10
16.624545197386
 20
8.951783545887931
 30
0.0
 11
16.624545197386
 21
16.28017243744557
 31
0.0
  0
LINE
  5
1247
330
17
100
AcDbEntity
  8
0
100
AcDbLine
 10
28.59154519738601
 20
16.28017243744557
 30
0.0
 11
24.42054519738601
 21
16.28017243744557
 31
0.0
  0
LINE
  5
1248
330
17
100
AcDbEntity
  8
0
100
AcDbLine
 10
28.59154519738601
 20
8.951783545887928
 30
0.0
 11
24.59154519738601
 21
8.951783545887931
 31
0.0
  0
LINE
  5
1249
330
17
100
AcDbEntity
  8
0
  6
HIDDEN
100
AcDbLine
 10
24.59154519738602
 20
9.191397862762802
 30
0.0
 11
28.59154519738601
 21
9.191397862762798
 31
0.0
  0
CIRCLE
  5
124A
330
17
100
AcDbEntity
  8
0
100
AcDbCircle
 10
27.841545197386
 20
15.43528354588794
 30
0.0
 40
0.1405
  0
CIRCLE
  5
124B
330
17
100
AcDbEntity
  8
0
100
AcDbCircle
 10
26.84154519738601
 20
13.93528354588794
 30
0.0
 40
0.1405
  0
CIRCLE
  5
124C
330
17
100
AcDbEntity
  8
0
100
AcDbCircle
 10
27.84154519738601
 20
12.43528354588794
 30
0.0
 40
0.1405
  0
CIRCLE
  5
124D
330
17
100
AcDbEntity
  8
0
100
AcDbCircle
 10
26.84154519738601
 20
10.93528354588794
 30
0.0
 40
0.1405
  0
LINE
  5
124E
330
17
100
AcDbEntity
  8
0
100
AcDbLine
 10
27.841545197386
 20
14.26319143301667
 30
0.0
 11
28.01363731025729
 21
14.43528354588794
 31
0.0
  0
LINE
  5
124F
330
17
100
AcDbEntity
  8
0
100
AcDbLine
 10
27.841545197386
 20
14.26319143301667
 30
0.0
 11
27.66945308451474
 21
14.43528354588794
 31
0.0
  0
LINE
  5
1251
330
17
100
AcDbEntity
  8
0
100
AcDbLine
 10
28.01363731025729
 20
14.43528354588794
 30
0.0
 11
27.841545197386
 21
14.6073756587592
 31
0.0
  0
LINE
  5
1252
330
17
100
AcDbEntity
  8
0
100
AcDbLine
 10
27.841545197386
 20
14.6073756587592
 30
0.0
 11
27.66945308451474
 21
14.43528354588794
 31
0.0
  0
LINE
  5
125E
330
17
100
AcDbEntity
  8
0
100
AcDbLine
 10
28.59154519738601
 20
8.951783545887931
 30
0.0
 11
28.59154519738601
 21
16.28017243744557
 31
0.0
  0
LINE
  5
125F
330
17
100
AcDbEntity
  8
0
100
AcDbLine
 10
3.375
 20
24.54780216633907
 30
0.0
 11
0.1250000000000142
 21
24.54780216633908
 31
0.0
  0
LINE
  5
12C7
330
17
100
AcDbEntity
  8
0
100
AcDbLine
 10
7.250000000000011
 20
28.71880216633908
 30
0.0
 11
-3.75
 21
28.71880216633908
 31
0.0
  0
LINE
  5
12C8
330
17
100
AcDbEntity
  8
0
100
AcDbLine
 10
0.2968750000000142
 20
24.54780216633908
 30
0.0
 11
0.2968750000000142
 21
28.54780216633908
 31
0.0
  0
LINE
  5
12C9
330
17
100
AcDbEntity
  8
0
100
AcDbLine
 10
0.1250000000000071
 20
24.54780216633907
 30
0.0
 11
0.1250000000000071
 21
28.54780216633908
 31
0.0
  0
LINE
  5
12CA
330
17
100
AcDbEntity
  8
0
100
AcDbLine
 10
3.203125000000004
 20
24.54780216633907
 30
0.0
 11
3.203125000000004
 21
28.54780216633908
 31
0.0
  0
LINE
  5
12CB
330
17
100
AcDbEntity
  8
0
100
AcDbLine
 10
3.375
 20
24.54780216633907
 30
0.0
 11
3.375
 21
28.54780216633908
 31
0.0
  0
LINE
  5
12CC
330
17
100
AcDbEntity
  8
0
100
AcDbLine
 10
7.250000000000011
 20
32.51480216633909
 30
0.0
 11
-3.75
 21
32.51480216633909
 31
0.0
  0
LINE
  5
12CD
330
17
100
AcDbEntity
  8
0
100
AcDbLine
 10
3.375
 20
36.51480216633909
 30
0.0
 11
0.1250000000000142
 21
36.51480216633909
 31
0.0
  0
LINE
  5
12CE
330
17
100
AcDbEntity
  8
0
100
AcDbLine
 10
7.250000000000011
 20
32.34380216633908
 30
0.0
 11
-3.75
 21
32.34380216633908
 31
0.0
  0
LINE
  5
12CF
330
17
100
AcDbEntity
  8
0
100
AcDbLine
 10
0.2968750000000142
 20
36.51480216633909
 30
0.0
 11
0.2968750000000142
 21
32.51480216633909
 31
0.0
  0
LINE
  5
12D0
330
17
100
AcDbEntity
  8
0
100
AcDbLine
 10
0.1250000000000071
 20
36.51480216633909
 30
0.0
 11
0.1250000000000071
 21
32.51480216633909
 31
0.0
  0
LINE
  5
12D1
330
17
100
AcDbEntity
  8
0
100
AcDbLine
 10
3.203125000000004
 20
36.51480216633909
 30
0.0
 11
3.203125000000004
 21
32.51480216633909
 31
0.0
  0
LINE
  5
12D2
330
17
100
AcDbEntity
  8
0
100
AcDbLine
 10
3.375
 20
36.51480216633909
 30
0.0
 11
3.375
 21
32.51480216633909
 31
0.0
  0
LINE
  5
12D3
330
17
100
AcDbEntity
  8
0
100
AcDbLine
 10
-3.75
 20
32.51480216633909
 30
0.0
 11
-3.75
 21
28.54780216633908
 31
0.0
  0
LINE
  5
12D4
330
17
100
AcDbEntity
  8
0
100
AcDbLine
 10
7.250000000000011
 20
32.51480216633909
 30
0.0
 11
7.250000000000011
 21
28.54780216633908
 31
0.0
  0
LINE
  5
12DA
330
17
100
AcDbEntity
  8
0
100
AcDbLine
 10
0.2968750000000142
 20
16.28017243744557
 30
0.0
 11
0.2968750000000124
 21
9.378897862762802
 31
0.0
  0
ARC
  5
1329
330
17
100
AcDbEntity
  8
0
100
AcDbCircle
 10
2.93291963603658
 20
9.393863909851337
 30
0.0
 40
0.4458584219689399
100
AcDbArc
 50
262.5358457858166
 51
7.46415421418394
  0
ARC
  5
132A
330
17
100
AcDbEntity
  8
0
100
AcDbCircle
 10
2.953124999999993
 20
9.378897862762802
 30
0.0
 40
0.25
100
AcDbArc
 50
270.0000000000002
 51
0.000000000000007
  0
LINE
  5
132B
330
17
100
AcDbEntity
  8
0
100
AcDbLine
 10
3.203125
 20
16.28017243744557
 30
0.0
 11
3.203124999999998
 21
9.378897862762802
 31
0.0
  0
LINE
  5
1CE2
330
17
100
AcDbEntity
  8
0
100
AcDbLine
 10
-0.2542456975763656
 20
0.0
 30
0.0
 11
-0.2542456975763656
 21
8.530783545887935
 31
0.0
  0
LINE
  5
1CE3
330
17
100
AcDbEntity
  8
0
100
AcDbLine
 10
0.0
 20
0.0
 30
0.0
 11
0.0
 21
8.530783545887939
 31
0.0
  0
LINE
  5
1CE4
330
17
100
AcDbEntity
  8
0
100
AcDbLine
 10
0.0
 20
0.0
 30
0.0
 11
-0.2561205759799492
 21
0.0
 31
0.0
  0
LINE
  5
1CFB
330
17
100
AcDbEntity
  8
0
100
AcDbLine
 10
0.0
 20
0.375
 30
0.0
 11
-0.2561205759799492
 21
0.375
 31
0.0
  0
LINE
  5
1DAF
330
17
100
AcDbEntity
  8
0
100
AcDbLine
 10
3.754245697576366
 20
0.0
 30
0.0
 11
3.754245697576366
 21
8.530783545887935
 31
0.0
  0
LINE
  5
1DB0
330
17
100
AcDbEntity
  8
0
100
AcDbLine
 10
3.5
 20
0.0
 30
0.0
 11
3.5
 21
8.530783545887939
 31
0.0
  0
LINE
  5
1DB1
330
17
100
AcDbEntity
  8
0
100
AcDbLine
 10
3.5
 20
0.0
 30
0.0
 11
3.756120575979949
 21
0.0
 31
0.0
  0
LINE
  5
1DB2
330
17
100
AcDbEntity
  8
0
100
AcDbLine
 10
3.5
 20
0.375
 30
0.0
 11
3.756120575979949
 21
0.375
 31
0.0
  0
LINE
  5
1DC0
330
17
100
AcDbEntity
  8
0
  6
HIDDEN
100
AcDbLine
 10
-0.2542456975763585
 20
29.28130216633909
 30
0.0
 11
-0.2542456975763585
 21
31.78130216633909
 31
0.0
  0
LINE
  5
1DC1
330
17
100
AcDbEntity
  8
0
  6
HIDDEN
100
AcDbLine
 10
0.0000000000000071
 20
29.28130216633907
 30
0.0
 11
0.0000000000000071
 21
31.78130216633909
 31
0.0
  0
LINE
  5
1DC2
330
17
100
AcDbEntity
  8
0
  6
HIDDEN
100
AcDbLine
 10
3.500000000000007
 20
29.28130216633908
 30
0.0
 11
3.500000000000007
 21
31.78130216633908
 31
0.0
  0
LINE
  5
1DC3
330
17
100
AcDbEntity
  8
0
  6
HIDDEN
100
AcDbLine
 10
3.754245697576366
 20
29.28130216633908
 30
0.0
 11
3.754245697576366
 21
31.78130216633908
 31
0.0
  0
LINE
  5
1DC8
330
17
100
AcDbEntity
  8
0
  6
HIDDEN
100
AcDbLine
 10
3.754245697576366
 20
31.78130216633908
 30
0.0
 11
3.5
 21
31.78130216633908
 31
0.0
  0
LINE
  5
1DC9
330
17
100
AcDbEntity
  8
0
  6
HIDDEN
100
AcDbLine
 10
0.0000000000000071
 20
31.78130216633909
 30
0.0
 11
-0.2542456975763585
 21
31.78130216633909
 31
0.0
  0
LINE
  5
1DCA
330
17
100
AcDbEntity
  8
0
  6
HIDDEN
100
AcDbLine
 10
3.754245697576366
 20
29.28130216633907
 30
0.0
 11
3.500000000000007
 21
29.28130216633907
 31
0.0
  0
LINE
  5
1DCB
330
17
100
AcDbEntity
  8
0
  6
HIDDEN
100
AcDbLine
 10
0.0000000000000071
 20
29.28130216633909
 30
0.0
 11
-0.2542456975763585
 21
29.28130216633907
 31
0.0
  0
LINE
  5
201A
330
17
100
AcDbEntity
  8
0
100
AcDbLine
 10
-17.12454519738599
 20
8.951783545887931
 30
0.0
 11
-17.12454519738599
 21
16.28017243744557
 31
0.0
  0
LINE
  5
201B
330
17
100
AcDbEntity
  8
0
100
AcDbLine
 10
-17.31117019738599
 20
8.967408545887931
 30
0.0
 11
-17.31117019738599
 21
16.28017243744557
 31
0.0
  0
LINE
  5
201C
330
17
100
AcDbEntity
  8
0
100
AcDbLine
 10
-20.90492019738599
 20
8.967408545887931
 30
0.0
 11
-20.90492019738599
 21
16.28017243744557
 31
0.0
  0
LINE
  5
201D
330
17
100
AcDbEntity
  8
0
100
AcDbLine
 10
-21.09154519738599
 20
8.951783545887931
 30
0.0
 11
-21.09154519738599
 21
16.28017243744557
 31
0.0
  0
ARC
  5
201E
330
17
100
AcDbEntity
  8
0
100
AcDbCircle
 10
-20.67054519738599
 20
8.951783545887931
 30
0.0
 40
0.421
100
AcDbArc
 50
180.0
 51
270.0
  0
ARC
  5
201F
330
17
100
AcDbEntity
  8
0
100
AcDbCircle
 10
-17.54554519738599
 20
8.951783545887931
 30
0.0
 40
0.421
100
AcDbArc
 50
270.0
 51
0.000000000000007
  0
LINE
  5
2020
330
17
100
AcDbEntity
  8
0
100
AcDbLine
 10
-17.56117019738599
 20
8.717408545887931
 30
0.0
 11
-20.65492019738599
 21
8.717408545887931
 31
0.0
  0
LINE
  5
2021
330
17
100
AcDbEntity
  8
0
100
AcDbLine
 10
-17.54554519738599
 20
8.530783545887932
 30
0.0
 11
-20.67054519738599
 21
8.530783545887932
 31
0.0
  0
ARC
  5
2022
330
17
100
AcDbEntity
  8
0
100
AcDbCircle
 10
-17.56117019738599
 20
8.967408545887931
 30
0.0
 40
0.25
100
AcDbArc
 50
270.0
 51
0.000000000000007
  0
ARC
  5
2023
330
17
100
AcDbEntity
  8
0
100
AcDbCircle
 10
-20.65492019738599
 20
8.967408545887931
 30
0.0
 40
0.25
100
AcDbArc
 50
180.0
 51
270.0
  0
LINE
  5
2024
330
17
100
AcDbEntity
  8
0
100
AcDbLine
 10
-13.12454519738598
 20
16.28017243744557
 30
0.0
 11
-17.31117019738599
 21
16.28017243744557
 31
0.0
  0
LINE
  5
2025
330
17
100
AcDbEntity
  8
0
100
AcDbLine
 10
-13.12454519738598
 20
8.951783545887928
 30
0.0
 11
-17.12454519738599
 21
8.951783545887931
 31
0.0
  0
LINE
  5
2026
330
17
100
AcDbEntity
  8
0
  6
HIDDEN
100
AcDbLine
 10
-17.12454519738598
 20
9.191397862762802
 30
0.0
 11
-13.12454519738599
 21
9.191397862762798
 31
0.0
  0
CIRCLE
  5
2035
330
17
100
AcDbEntity
  8
0
100
AcDbCircle
 10
-14.87454519738599
 20
14.93528354588794
 30
0.0
 40
0.1405
  0
CIRCLE
  5
2036
330
17
100
AcDbEntity
  8
0
100
AcDbCircle
 10
-13.874545197386
 20
13.43528354588794
 30
0.0
 40
0.1405
  0
CIRCLE
  5
2037
330
17
100
AcDbEntity
  8
0
100
AcDbCircle
 10
-14.87454519738599
 20
11.93528354588794
 30
0.0
 40
0.1405
  0
CIRCLE
  5
2038
330
17
100
AcDbEntity
  8
0
100
AcDbCircle
 10
-13.874545197386
 20
10.43528354588794
 30
0.0
 40
0.1405
  0
LINE
  5
2039
330
17
100
AcDbEntity
  8
0
100
AcDbLine
 10
-14.37640210926486
 20
14.26319143301667
 30
0.0
 11
-14.20430999639357
 21
14.43528354588794
 31
0.0
  0
LINE
  5
203A
330
17
100
AcDbEntity
  8
0
100
AcDbLine
 10
-14.37640210926486
 20
14.26319143301667
 30
0.0
 11
-14.54849422213612
 21
14.43528354588794
 31
0.0
  0
LINE
  5
203C
330
17
100
AcDbEntity
  8
0
100
AcDbLine
 10
-14.20430999639357
 20
14.43528354588794
 30
0.0
 11
-14.37640210926486
 21
14.6073756587592
 31
0.0
  0
LINE
  5
203D
330
17
100
AcDbEntity
  8
0
100
AcDbLine
 10
-14.37640210926486
 20
14.6073756587592
 30
0.0
 11
-14.54849422213612
 21
14.43528354588794
 31
0.0
  0
LINE
  5
2049
330
17
100
AcDbEntity
  8
0
100
AcDbLine
 10
-13.12454519738599
 20
8.951783545887931
 30
0.0
 11
-13.12454519738599
 21
16.28017243744557
 31
0.0
  0
LINE
  5
204A
330
17
100
AcDbEntity
  8
0
100
AcDbLine
 10
-25.091545197386
 20
16.28017243744557
 30
0.0
 11
-20.92054519738599
 21
16.28017243744557
 31
0.0
  0
LINE
  5
204B
330
17
100
AcDbEntity
  8
0
100
AcDbLine
 10
-25.091545197386
 20
8.951783545887928
 30
0.0
 11
-21.091545197386
 21
8.951783545887931
 31
0.0
  0
LINE
  5
204C
330
17
100
AcDbEntity
  8
0
  6
HIDDEN
100
AcDbLine
 10
-21.09154519738601
 20
9.191397862762802
 30
0.0
 11
-25.091545197386
 21
9.191397862762798
 31
0.0
  0
CIRCLE
  5
204D
330
17
100
AcDbEntity
  8
0
100
AcDbCircle
 10
-23.341545197386
 20
14.93528354588794
 30
0.0
 40
0.1405
  0
CIRCLE
  5
204E
330
17
100
AcDbEntity
  8
0
100
AcDbCircle
 10
-24.34154519738599
 20
13.43528354588794
 30
0.0
 40
0.1405
  0
CIRCLE
  5
204F
330
17
100
AcDbEntity
  8
0
100
AcDbCircle
 10
-23.341545197386
 20
11.93528354588794
 30
0.0
 40
0.1405
  0
CIRCLE
  5
2050
330
17
100
AcDbEntity
  8
0
100
AcDbCircle
 10
-24.34154519738599
 20
10.43528354588794
 30
0.0
 40
0.1405
  0
LINE
  5
2051
330
17
100
AcDbEntity
  8
0
100
AcDbLine
 10
-23.83993427856209
 20
14.26319143301667
 30
0.0
 11
-24.01202639143338
 21
14.43528354588794
 31
0.0
  0
LINE
  5
2052
330
17
100
AcDbEntity
  8
0
100
AcDbLine
 10
-23.83993427856209
 20
14.26319143301667
 30
0.0
 11
-23.66784216569083
 21
14.43528354588794
 31
0.0
  0
LINE
  5
2054
330
17
100
AcDbEntity
  8
0
100
AcDbLine
 10
-24.01202639143338
 20
14.43528354588794
 30
0.0
 11
-23.83993427856209
 21
14.6073756587592
 31
0.0
  0
LINE
  5
2055
330
17
100
AcDbEntity
  8
0
100
AcDbLine
 10
-23.83993427856209
 20
14.6073756587592
 30
0.0
 11
-23.66784216569083
 21
14.43528354588794
 31
0.0
  0
LINE
  5
2061
330
17
100
AcDbEntity
  8
0
100
AcDbLine
 10
-25.091545197386
 20
8.951783545887931
 30
0.0
 11
-25.091545197386
 21
16.28017243744557
 31
0.0
  0
LINE
  5
2062
330
17
100
AcDbEntity
  8
0
100
AcDbLine
 10
-20.34427594581373
 20
8.530783545887928
 30
0.0
 11
-20.34427594581374
 21
0.3751704430168346
 31
0.0
  0
LINE
  5
2063
330
17
100
AcDbEntity
  8
0
100
AcDbLine
 10
-19.96927594581374
 20
0.0001704430168346
 30
0.0
 11
-18.21927594581374
 21
0.0001704430168346
 31
0.0
  0
LINE
  5
2064
330
17
100
AcDbEntity
  8
0
100
AcDbLine
 10
-17.84427594581374
 20
0.3751704430168346
 30
0.0
 11
-17.84427594581374
 21
8.530783545887932
 31
0.0
  0
LINE
  5
2065
330
17
100
AcDbEntity
  8
0
100
AcDbLine
 10
-20.34427594581374
 20
0.3751704430168346
 30
0.0
 11
-19.96927594581374
 21
0.0001704430168346
 31
0.0
  0
LINE
  5
2066
330
17
100
AcDbEntity
  8
0
100
AcDbLine
 10
-17.84427594581374
 20
0.3751704430168346
 30
0.0
 11
-18.21927594581374
 21
0.0001704430168346
 31
0.0
  0
CIRCLE
  5
2067
330
17
100
AcDbEntity
  8
0
100
AcDbCircle
 10
-19.78177594581373
 20
2.405783545887928
 30
0.0
 40
0.1328
  0
CIRCLE
  5
2068
330
17
100
AcDbEntity
  8
0
100
AcDbCircle
 10
-19.53177594581373
 20
0.4057835458879282
 30
0.0
 40
0.1328
  0
CIRCLE
  5
2069
330
17
100
AcDbEntity
  8
0
100
AcDbCircle
 10
-18.34427594581373
 20
1.405783545887928
 30
0.0
 40
0.1328
  0
CIRCLE
  5
206A
330
17
100
AcDbEntity
  8
0
100
AcDbCircle
 10
-19.53177594581373
 20
4.405783545887928
 30
0.0
 40
0.1328
  0
CIRCLE
  5
206B
330
17
100
AcDbEntity
  8
0
100
AcDbCircle
 10
-19.78177594581373
 20
6.397983545887929
 30
0.0
 40
0.1328
  0
CIRCLE
  5
206C
330
17
100
AcDbEntity
  8
0
100
AcDbCircle
 10
-18.59427594581373
 20
3.405783545887928
 30
0.0
 40
0.1328
  0
CIRCLE
  5
206D
330
17
100
AcDbEntity
  8
0
100
AcDbCircle
 10
-18.34427594581373
 20
5.405783545887928
 30
0.0
 40
0.1328
  0
LINE
  5
206F
330
17
100
AcDbEntity
  8
0
100
AcDbLine
 10
-20.34427594581374
 20
0.3751704430168346
 30
0.0
 11
-19.96927594581374
 21
0.0001704430168346
 31
0.0
  0
LWPOLYLINE
  5
2082
330
17
100
AcDbEntity
  8
0
100
AcDbPolyline
 90
        4
 70
     1
 43
0.0
 10
-19.46863149348845
 20
3.179938882544469
 10
-19.61778683014498
 20
3.030783545887932
 10
-19.46863149348845
 20
2.881628209231395
 10
-19.31947615683191
 20
3.030783545887932
  0
LWPOLYLINE
  5
2083
330
17
100
AcDbEntity
  8
0
100
AcDbPolyline
 90
        4
 70
     1
 43
0.0
 10
22.24745890128355
 20
3.179938882544473
 10
22.09830356462701
 20
3.030783545887935
 10
22.24745890128355
 20
2.881628209231398
 10
22.39661423794009
 20
3.030783545887935
  0
ENDSEC
  0
SECTION
  2
OBJECTS
  0
DICTIONARY
  5
C
330
0
100
AcDbDictionary
281
     1
  3
ACAD_COLOR
350
E0F
  3
ACAD_GROUP
350
D
  3
ACAD_LAYOUT
350
B49
  3
ACAD_MATERIAL
350
E0E
  3
ACAD_MLINESTYLE
350
1A
  3
ACAD_PLOTSETTINGS
350
B4A
  3
ACAD_PLOTSTYLENAME
350
B47
  3
ACAD_TABLESTYLE
350
E10
  3
ACDBHEADERROUNDTRIPXREC
350
2095
  3
ACDBVARIABLEDICTIONARY
350
46
  0
DICTIONARY
  5
E47
330
2
100
AcDbDictionary
280
     1
281
     1
  3
ACAD_LAYERFILTERS
360
2007
  3
ACAD_LAYERSTATES
360
E48
  3
ACLYDICTIONARY
360
2006
  0
DICTIONARY
  5
BD6
330
17
100
AcDbDictionary
280
     1
281
     1
  3
ACAD_SORTENTS
360
1333
  0
DICTIONARY
  5
E0F
102
{ACAD_REACTORS
330
C
102
}
330
C
100
AcDbDictionary
281
     1
  0
DICTIONARY
  5
D
102
{ACAD_REACTORS
330
C
102
}
330
C
100
AcDbDictionary
281
     1
  0
DICTIONARY
  5
B49
102
{ACAD_REACTORS
330
C
102
}
330
C
100
AcDbDictionary
281
     1
  3
Layout1
350
B4C
  3
Model
350
B4B
  0
DICTIONARY
  5
E0E
102
{ACAD_REACTORS
330
C
102
}
330
C
100
AcDbDictionary
281
     1
  0
DICTIONARY
  5
1A
102
{ACAD_REACTORS
330
C
102
}
330
C
100
AcDbDictionary
281
     1
  3
STANDARD
350
1B
  0
DICTIONARY
  5
B4A
102
{ACAD_REACTORS
330
C
102
}
330
C
100
AcDbDictionary
281
     1
  0
ACDBDICTIONARYWDFLT
  5
B47
102
{ACAD_REACTORS
330
C
102
}
330
C
100
AcDbDictionary
281
     1
  3
Normal
350
B48
100
AcDbDictionaryWithDefault
340
B48
  0
DICTIONARY
  5
E10
102
{ACAD_REACTORS
330
C
102
}
330
C
100
AcDbDictionary
281
     1
  3
Standard
350
E11
  0
DICTIONARY
  5
2095
102
{ACAD_REACTORS
330
C
102
}
330
C
100
AcDbDictionary
281
     1
  3
COLORDICT
350
2096
  3
MATERIALDICT
350
2097
  0
DICTIONARY
  5
46
102
{ACAD_REACTORS
330
C
102
}
330
C
100
AcDbDictionary
281
     1
  3
CTABLESTYLE
350
E32
  3
DIMADEC
350
47
  0
DICTIONARY
  5
2007
102
{ACAD_REACTORS
330
E47
102
}
330
E47
100
AcDbDictionary
281
     1
  0
DICTIONARY
  5
E48
102
{ACAD_REACTORS
330
E47
102
}
330
E47
100
AcDbDictionary
281
     1
  0
DICTIONARY
  5
2006
102
{ACAD_REACTORS
330
E47
102
}
330
E47
100
AcDbDictionary
281
     1
1001
ACAD
1000
<All
  0
SORTENTSTABLE
  5
1333
102
{ACAD_REACTORS
330
BD6
102
}
330
BD6
100
AcDbSortentsTable
330
17
331
9AC
  5
9AD
331
12C8
  5
12C9
331
132B
  5
1CE2
331
11EC
  5
11ED
331
11ED
  5
11EE
331
11BF
  5
11C0
331
2051
  5
2052
331
161
  5
161
331
2065
  5
2066
331
4D8
  5
4D8
331
9B2
  5
9B3
331
1FC
  5
1FC
331
1DB0
  5
1DB1
331
11CA
  5
11D9
331
204E
  5
204F
331
9AA
  5
9AB
331
4DA
  5
4DA
331
162
  5
162
331
1252
  5
125E
331
1DAF
  5
1DB0
331
1DCB
  5
201A
331
206B
  5
206C
331
10FF
  5
1101
331
204F
  5
2050
331
1E4
  5
1E4
331
12D1
  5
12D2
331
2026
  5
2035
331
1CE3
  5
1CE4
331
124F
  5
1251
331
2064
  5
2065
331
11C0
  5
11C1
331
12CD
  5
12CE
331
2025
  5
2026
331
2035
  5
2036
331
12CE
  5
12CF
331
97A
  5
97B
331
2050
  5
2051
331
12D2
  5
12D3
331
2036
  5
2037
331
9AF
  5
9B0
331
11E6
  5
11E7
331
2083
  5
885
331
11C1
  5
11C3
331
1CE4
  5
1CFB
331
11F7
  5
11F8
331
4D2
  5
4D2
331
11C4
  5
11C5
331
201B
  5
201C
331
201A
  5
201B
331
2024
  5
2025
331
124C
  5
124D
331
885
  5
979
331
1DB2
  5
1DC0
331
2038
  5
2039
331
11E0
  5
11E2
331
1112
  5
11BE
331
1251
  5
1252
331
11FD
  5
11FE
331
4D7
  5
4D7
331
1C3
  5
1C3
331
9B1
  5
9B2
331
97C
  5
989
331
11EE
  5
11EF
331
11F8
  5
11F9
331
2068
  5
2069
331
203D
  5
2049
331
125F
  5
12C7
331
1DC2
  5
1DC3
331
12D3
  5
12D4
331
12C9
  5
12CA
331
160
  5
160
331
201C
  5
201D
331
201D
  5
201E
331
206A
  5
206B
331
97B
  5
97C
331
11BE
  5
11BF
331
206C
  5
206D
331
11E7
  5
11E8
331
11E8
  5
11E9
331
11EB
  5
11EC
331
11F4
  5
11F5
331
110D
  5
1110
331
2066
  5
2067
331
1DC8
  5
1DC9
331
2037
  5
2038
331
206F
  5
2082
331
10FE
  5
10FF
331
11DF
  5
11E0
331
11C6
  5
11C7
331
11DB
  5
11DC
331
9B3
  5
9B6
331
1F8
  5
1F8
331
1102
  5
1104
331
11DD
  5
11DE
331
1DB1
  5
1DB2
331
12C7
  5
12C8
331
1249
  5
124A
331
11C8
  5
11C9
331
11E2
  5
11E3
331
11EA
  5
11EB
331
1DC3
  5
1DC8
331
11D9
  5
11DA
331
11F2
  5
11F3
331
4D4
  5
4D4
331
11EF
  5
11F0
331
1DC0
  5
1DC1
331
11E4
  5
11E5
331
204D
  5
204E
331
2067
  5
2068
331
12DA
  5
1329
331
204B
  5
204C
331
1DCA
  5
1DCB
331
11F6
  5
11F7
331
1110
  5
1112
331
2021
  5
2022
331
11DE
  5
11DF
331
11C7
  5
11C8
331
1C2
  5
1C2
331
12CC
  5
12CD
331
2061
  5
2062
331
2054
  5
2055
331
125E
  5
125F
331
1244
  5
1245
331
11F0
  5
11F1
331
1CE2
  5
1CE3
331
9B0
  5
9B1
331
12CB
  5
12CC
331
11F1
  5
11F2
331
9AB
  5
9AC
331
124E
  5
124F
331
1DC1
  5
1DC2
331
1CFB
  5
1DAF
331
1245
  5
1247
331
11F3
  5
11F4
331
201E
  5
201F
331
11C3
  5
11C4
331
2020
  5
2021
331
2062
  5
2063
331
11E9
  5
11EA
331
11E3
  5
11E4
331
1247
  5
1248
331
124B
  5
124C
331
9B6
  5
10FE
331
2082
  5
2083
331
11FB
  5
11FD
331
2022
  5
2023
331
2055
  5
2061
331
2023
  5
2024
331
124A
  5
124B
331
206D
  5
206F
331
11DC
  5
11DD
331
2069
  5
206A
331
204C
  5
204D
331
979
  5
97A
331
1101
  5
1102
331
11DA
  5
11DB
331
4CD
  5
4CD
331
9AD
  5
9AE
331
12CF
  5
12D0
331
2049
  5
204A
331
4DB
  5
4DB
331
11F5
  5
11F6
331
9AE
  5
9AF
331
2063
  5
2064
331
11FE
  5
1244
331
124D
  5
124E
331
12CA
  5
12CB
331
203A
  5
203C
331
989
  5
9AA
331
201F
  5
2020
331
12D0
  5
12D1
331
11C5
  5
11C6
331
11C9
  5
11CA
331
132A
  5
132B
331
1DC9
  5
1DCA
331
203C
  5
203D
331
1104
  5
110D
331
11E5
  5
11E6
331
204A
  5
204B
331
2052
  5
2054
331
11FA
  5
11FB
331
12D4
  5
12DA
331
11F9
  5
11FA
331
1329
  5
132A
331
2039
  5
203A
331
1248
  5
1249
  0
LAYOUT
  5
B4C
102
{ACAD_REACTORS
330
B49
102
}
102
{ACAD_XDICTIONARY
360
2098
102
}
330
B49
100
AcDbPlotSettings
  1

  2
HP LaserJet 2100 Series PS
  4

  6

 40
0.0
 41
0.0
 42
0.0
 43
0.0
 44
0.0
 45
0.0
 46
0.0
 47
0.0
 48
0.0
 49
0.0
140
0.0
141
0.0
142
1.0
143
1.0
 70
   688
 72
     0
 73
     0
 74
     5
  7
monochrome.ctb
 75
    16
147
1.0
148
0.0
149
0.0
100
AcDbLayout
  1
Layout1
 70
     0
 71
     1
 10
0.0
 20
0.0
 11
12.0
 21
9.0
 12
0.0
 22
0.0
 32
0.0
 14
1.000000000000000E+20
 24
1.000000000000000E+20
 34
1.000000000000000E+20
 15
-1.000000000000000E+20
 25
-1.000000000000000E+20
 35
-1.000000000000000E+20
146
0.0
 13
0.0
 23
0.0
 33
0.0
 16
1.0
 26
0.0
 36
0.0
 17
0.0
 27
1.0
 37
0.0
 76
     0
330
14
  0
LAYOUT
  5
B4B
102
{ACAD_REACTORS
330
B49
102
}
102
{ACAD_XDICTIONARY
360
209A
102
}
330
B49
100
AcDbPlotSettings
  1

  2
HP LaserJet 2100 Series PS
  4
Letter
  6
A
 40
5.365749835968018
 41
5.408073902130127
 42
5.132904052734375
 43
5.090576171875
 44
215.8999938964844
 45
279.3999938964844
 46
0.0
 47
0.0
 48
0.0
 49
0.0
140
0.0
141
0.0
142
1.0
143
4.959575152728328
 70
 11952
 72
     0
 73
     0
 74
     1
  7
monochrome.ctb
 75
     0
147
0.2016301737962145
148
1.58566044039859
149
-0.0610530673910404
100
AcDbLayout
  1
Model
 70
     1
 71
     0
 10
0.0
 20
0.0
 11
12.0
 21
9.0
 12
0.0
 22
0.0
 32
0.0
 14
0.0
 24
0.0
 34
0.0
 15
0.0
 25
0.0
 35
0.0
146
0.0
 13
0.0
 23
0.0
 33
0.0
 16
1.0
 26
0.0
 36
0.0
 17
0.0
 27
1.0
 37
0.0
 76
     0
330
17
1001
ACAD_PSEXT
1000
HP LaserJet 2100 Series PS
1000
HP LaserJet 2100 Series PS
1000
LPT1:
1000

1070
     0
  0
MLINESTYLE
  5
1B
102
{ACAD_REACTORS
330
1A
102
}
330
1A
100
AcDbMlineStyle
  2
STANDARD
 70
     0
  3

 62
   256
 51
90.0
 52
90.0
 71
     2
 49
0.5
 62
   256
  6
BYLAYER
 49
-0.5
 62
   256
  6
BYLAYER
  0
ACDBPLACEHOLDER
  5
B48
102
{ACAD_REACTORS
330
B47
102
}
330
B47
  0
ACAD_PROXY_OBJECT
  5
E11
102
{ACAD_REACTORS
330
E10
102
}
330
E10
100
AcDbProxyObject
 90
      499
 91
      525
 95
   983063
 70
     0
 93
     1841
310
4214DD185B99185C9928B81E85EB51B8AE3F2E07A17AD46E2B8FC02B5E8DC0F42B1CFD028000000C1008070000C3001FDFF8000000C1003FBFF000000182007F7FE00000030400FEFFC00000060801FDFF8000000C1003FBFF00000018200000000000000681FA0B0000001820100E000186003FBFF000000182007F7FE000
310
00030400FEFFC00000060801FDFF8000000C1003FBFF000000182007F7FE000000304000AD7A3703D0AC73F4160000003040201C00030C007F7FE00000030400FEFFC00000060801FDFF8000000C1003FBFF000000182007F7FE00000030400FEFFC000000608000
340
F
340
F
340
F
 94
        0
  0
XRECORD
  5
2096
102
{ACAD_REACTORS
330
2095
102
}
330
2095
100
AcDbXrecord
340
E0F
  0
XRECORD
  5
2097
102
{ACAD_REACTORS
330
2095
102
}
330
2095
100
AcDbXrecord
340
E0E
  0
DICTIONARYVAR
  5
E32
102
{ACAD_REACTORS
330
46
102
}
330
46
100
DictionaryVariables
280
     0
  1
STANDARD
  0
DICTIONARYVAR
  5
47
102
{ACAD_REACTORS
330
46
102
}
330
46
100
DictionaryVariables
280
     0
  1
0
  0
DICTIONARY
  5
2098
330
B4C
100
AcDbDictionary
280
     1
281
     1
  3
ACAD_XREC_ROUNDTRIP
360
2099
  0
DICTIONARY
  5
209A
330
B4B
100
AcDbDictionary
280
     1
281
     1
  3
ACAD_XREC_ROUNDTRIP
360
209B
  0
XRECORD
  5
2099
102
{ACAD_REACTORS
330
2098
102
}
330
2098
100
AcDbXrecord
102
SHADEPLOT
 70
     0
102
SHADEPLOTRESLEVEL
 70
     2
102
SHADEPLOTCUSTOMDPI
 70
   300
  0
XRECORD
  5
209B
102
{ACAD_REACTORS
330
209A
102
}
330
209A
100
AcDbXrecord
102
SHADEPLOT
 70
     0
102
SHADEPLOTRESLEVEL
 70
     2
102
SHADEPLOTCUSTOMDPI
 70
   300
  0
ENDSEC
  0
EOF
