  0
SECTION
  2
HEADER
  9
$ACADVER
  1
AC1015
  9
$ACADMAINTVER
 70
     6
  9
$DWGCODEPAGE
  3
ANSI_1252
  9
$INSBASE
 10
0.0
 20
0.0
 30
0.0
  9
$EXTMIN
 10
-25.02034116587917
 20
0.005
 30
0.0
  9
$EXTMAX
 10
39.315
 20
52.505
 30
0.0
  9
$LIMMIN
 10
0.0
 20
0.0
  9
$LIMMAX
 10
42.0
 20
32.0
  9
$ORTHOMODE
 70
     1
  9
$REGENMODE
 70
     1
  9
$FILLMODE
 70
     1
  9
$QTEXTMODE
 70
     0
  9
$MIRRTEXT
 70
     0
  9
$LTSCALE
 40
1.0
  9
$ATTMODE
 70
     1
  9
$TEXTSIZE
 40
0.36
  9
$TRACEWID
 40
0.025
  9
$TEXTSTYLE
  7
STANDARD
  9
$CLAYER
  8
0
  9
$CELTYPE
  6
BYLAYER
  9
$CECOLOR
 62
   256
  9
$CELTSCALE
 40
1.0
  9
$DISPSILH
 70
     0
  9
$DIMSCALE
 40
1.0
  9
$DIMASZ
 40
0.5
  9
$DIMEXO
 40
0.125
  9
$DIMDLI
 40
0.38
  9
$DIMRND
 40
0.0
  9
$DIMDLE
 40
0.0
  9
$DIMEXE
 40
0.32
  9
$DIMTP
 40
2.0
  9
$DIMTM
 40
0.0
  9
$DIMTXT
 40
0.36
  9
$DIMCEN
 40
0.1
  9
$DIMTSZ
 40
0.0
  9
$DIMTOL
 70
     0
  9
$DIMLIM
 70
     0
  9
$DIMTIH
 70
     1
  9
$DIMTOH
 70
     1
  9
$DIMSE1
 70
     0
  9
$DIMSE2
 70
     0
  9
$DIMTAD
 70
     0
  9
$DIMZIN
 70
     0
  9
$DIMBLK
  1

  9
$DIMASO
 70
     0
  9
$DIMSHO
 70
     0
  9
$DIMPOST
  1

  9
$DIMAPOST
  1

  9
$DIMALT
 70
     0
  9
$DIMALTD
 70
     2
  9
$DIMALTF
 40
25.4
  9
$DIMLFAC
 40
1.0
  9
$DIMTOFL
 70
     0
  9
$DIMTVP
 40
0.0
  9
$DIMTIX
 70
     0
  9
$DIMSOXD
 70
     0
  9
$DIMSAH
 70
     0
  9
$DIMBLK1
  1

  9
$DIMBLK2
  1

  9
$DIMSTYLE
  2
STANDARD
  9
$DIMCLRD
 70
     0
  9
$DIMCLRE
 70
     0
  9
$DIMCLRT
 70
     0
  9
$DIMTFAC
 40
1.0
  9
$DIMGAP
 40
0.09
  9
$DIMJUST
 70
     0
  9
$DIMSD1
 70
     0
  9
$DIMSD2
 70
     0
  9
$DIMTOLJ
 70
     1
  9
$DIMTZIN
 70
     0
  9
$DIMALTZ
 70
     0
  9
$DIMALTTZ
 70
     0
  9
$DIMUPT
 70
     0
  9
$DIMDEC
 70
     6
  9
$DIMTDEC
 70
     6
  9
$DIMALTU
 70
     2
  9
$DIMALTTD
 70
     2
  9
$DIMTXSTY
  7
STANDARD
  9
$DIMAUNIT
 70
     0
  9
$DIMADEC
 70
     0
  9
$DIMALTRND
 40
0.0
  9
$DIMAZIN
 70
     0
  9
$DIMDSEP
 70
    46
  9
$DIMATFIT
 70
     3
  9
$DIMFRAC
 70
     2
  9
$DIMLDRBLK
  1

  9
$DIMLUNIT
 70
     5
  9
$DIMLWD
 70
    -2
  9
$DIMLWE
 70
    -2
  9
$DIMTMOVE
 70
     2
  9
$LUNITS
 70
     2
  9
$LUPREC
 70
     3
  9
$SKETCHINC
 40
0.1
  9
$FILLETRAD
 40
0.0
  9
$AUNITS
 70
     0
  9
$AUPREC
 70
     0
  9
$MENU
  1
ACAD
  9
$ELEVATION
 40
0.0
  9
$PELEVATION
 40
0.0
  9
$THICKNESS
 40
0.0
  9
$LIMCHECK
 70
     0
  9
$CHAMFERA
 40
0.375
  9
$CHAMFERB
 40
0.375
  9
$CHAMFERC
 40
0.0
  9
$CHAMFERD
 40
0.0
  9
$SKPOLY
 70
     0
  9
$TDCREATE
 40
2450506.924626389
  9
$TDUCREATE
 40
2450507.257959722
  9
$TDUPDATE
 40
2454495.960710255
  9
$TDUUPDATE
 40
2454496.294043588
  9
$TDINDWG
 40
0.7613332755
  9
$TDUSRTIMER
 40
0.7613332755
  9
$USRTIMER
 70
     1
  9
$ANGBASE
 50
0.0
  9
$ANGDIR
 70
     0
  9
$PDMODE
 70
     0
  9
$PDSIZE
 40
0.0
  9
$PLINEWID
 40
0.0
  9
$SPLFRAME
 70
     0
  9
$SPLINETYPE
 70
     6
  9
$SPLINESEGS
 70
     8
  9
$HANDSEED
  5
1BB4
  9
$SURFTAB1
 70
     6
  9
$SURFTAB2
 70
     6
  9
$SURFTYPE
 70
     6
  9
$SURFU
 70
     6
  9
$SURFV
 70
     6
  9
$UCSBASE
  2

  9
$UCSNAME
  2

  9
$UCSORG
 10
0.0
 20
0.0
 30
0.0
  9
$UCSXDIR
 10
1.0
 20
0.0
 30
0.0
  9
$UCSYDIR
 10
0.0
 20
1.0
 30
0.0
  9
$UCSORTHOREF
  2

  9
$UCSORTHOVIEW
 70
     0
  9
$UCSORGTOP
 10
0.0
 20
0.0
 30
0.0
  9
$UCSORGBOTTOM
 10
0.0
 20
0.0
 30
0.0
  9
$UCSORGLEFT
 10
0.0
 20
0.0
 30
0.0
  9
$UCSORGRIGHT
 10
0.0
 20
0.0
 30
0.0
  9
$UCSORGFRONT
 10
0.0
 20
0.0
 30
0.0
  9
$UCSORGBACK
 10
0.0
 20
0.0
 30
0.0
  9
$PUCSBASE
  2

  9
$PUCSNAME
  2

  9
$PUCSORG
 10
0.0
 20
0.0
 30
0.0
  9
$PUCSXDIR
 10
1.0
 20
0.0
 30
0.0
  9
$PUCSYDIR
 10
0.0
 20
1.0
 30
0.0
  9
$PUCSORTHOREF
  2

  9
$PUCSORTHOVIEW
 70
     0
  9
$PUCSORGTOP
 10
0.0
 20
0.0
 30
0.0
  9
$PUCSORGBOTTOM
 10
0.0
 20
0.0
 30
0.0
  9
$PUCSORGLEFT
 10
0.0
 20
0.0
 30
0.0
  9
$PUCSORGRIGHT
 10
0.0
 20
0.0
 30
0.0
  9
$PUCSORGFRONT
 10
0.0
 20
0.0
 30
0.0
  9
$PUCSORGBACK
 10
0.0
 20
0.0
 30
0.0
  9
$USERI1
 70
     0
  9
$USERI2
 70
     0
  9
$USERI3
 70
     0
  9
$USERI4
 70
     0
  9
$USERI5
 70
     0
  9
$USERR1
 40
0.0
  9
$USERR2
 40
0.0
  9
$USERR3
 40
0.0
  9
$USERR4
 40
0.0
  9
$USERR5
 40
0.0
  9
$WORLDVIEW
 70
     1
  9
$SHADEDGE
 70
     3
  9
$SHADEDIF
 70
    70
  9
$TILEMODE
 70
     1
  9
$MAXACTVP
 70
    16
  9
$PINSBASE
 10
0.0
 20
0.0
 30
0.0
  9
$PLIMCHECK
 70
     0
  9
$PEXTMIN
 10
1.000000000000000E+20
 20
1.000000000000000E+20
 30
1.000000000000000E+20
  9
$PEXTMAX
 10
-1.000000000000000E+20
 20
-1.000000000000000E+20
 30
-1.000000000000000E+20
  9
$PLIMMIN
 10
0.0
 20
0.0
  9
$PLIMMAX
 10
12.0
 20
9.0
  9
$UNITMODE
 70
     0
  9
$VISRETAIN
 70
     0
  9
$PLINEGEN
 70
     1
  9
$PSLTSCALE
 70
     0
  9
$TREEDEPTH
 70
  3020
  9
$CMLSTYLE
  2
STANDARD
  9
$CMLJUST
 70
     0
  9
$CMLSCALE
 40
1.0
  9
$PROXYGRAPHICS
 70
     1
  9
$MEASUREMENT
 70
     0
  9
$CELWEIGHT
370
    -1
  9
$ENDCAPS
280
     0
  9
$JOINSTYLE
280
     0
  9
$LWDISPLAY
290
     0
  9
$INSUNITS
 70
     0
  9
$HYPERLINKBASE
  1

  9
$STYLESHEET
  1
monochrome.ctb
  9
$XEDIT
290
     1
  9
$CEPSNTYPE
380
     0
  9
$PSTYLEMODE
290
     1
  9
$FINGERPRINTGUID
  2
{709B1F0A-389E-11D5-BE3F-00508B5FCD51}
  9
$VERSIONGUID
  2
{48451B34-E6F6-4B2A-8007-557188F898CF}
  9
$EXTNAMES
290
     1
  9
$PSVPSCALE
 40
0.0
  9
$OLESTARTUP
290
     0
  0
ENDSEC
  0
SECTION
  2
CLASSES
  0
CLASS
  1
DICTIONARYVAR
  2
AcDbDictionaryVar
  3
AutoCAD 2000
 90
        0
280
     0
281
     0
  0
CLASS
  1
LWPOLYLINE
  2
AcDbPolyline
  3
AutoCAD 2000
 90
        0
280
     0
281
     1
  0
CLASS
  1
ACDBDICTIONARYWDFLT
  2
AcDbDictionaryWithDefault
  3
AutoCAD 2000
 90
        0
280
     0
281
     0
  0
CLASS
  1
ACDBPLACEHOLDER
  2
AcDbPlaceHolder
  3
ObjectDBX Classes
 90
        0
280
     0
281
     0
  0
CLASS
  1
LAYOUT
  2
AcDbLayout
  3
ObjectDBX Classes
 90
        0
280
     0
281
     0
  0
CLASS
  1
LONG_TRANSACTION
  2
AcDbLongTransaction
  3
ObjectDBX Classes
 90
   -65536
280
     1
281
     0
  0
CLASS
  1
LWPOLYLINE
  2
AcDbPolyline
  3
AutoCAD 2000
 90
        0
280
     0
281
     1
  0
CLASS
  1
HATCH
  2
AcDbHatch
  3
AutoCAD 2000
 90
        0
280
     0
281
     1
  0
CLASS
  1
XRECORD
  2
AcDbXrecord
  3
AutoCAD 2000
 90
        0
280
     0
281
     0
  0
CLASS
  1
LONG_TRANSACTION
  2
AcDbLongTransaction
  3
ObjectDBX Classes
 90
   -65536
280
     1
281
     0
  0
CLASS
  1
LWPOLYLINE
  2
AcDbPolyline
  3
AutoCAD 2000
 90
        0
280
     0
281
     1
  0
CLASS
  1
HATCH
  2
AcDbHatch
  3
AutoCAD 2000
 90
        0
280
     0
281
     1
  0
CLASS
  1
XRECORD
  2
AcDbXrecord
  3
AutoCAD 2000
 90
        0
280
     0
281
     0
  0
CLASS
  1
LONG_TRANSACTION
  2
AcDbLongTransaction
  3
ObjectDBX Classes
 90
   -65536
280
     1
281
     0
  0
CLASS
  1
LWPOLYLINE
  2
AcDbPolyline
  3
AutoCAD 2000
 90
        0
280
     0
281
     1
  0
CLASS
  1
HATCH
  2
AcDbHatch
  3
AutoCAD 2000
 90
        0
280
     0
281
     1
  0
CLASS
  1
XRECORD
  2
AcDbXrecord
  3
AutoCAD 2000
 90
        0
280
     0
281
     0
  0
CLASS
  1
LONG_TRANSACTION
  2
AcDbLongTransaction
  3
ObjectDBX Classes
 90
   -65536
280
     1
281
     0
  0
CLASS
  1
LWPOLYLINE
  2
AcDbPolyline
  3
AutoCAD 2000
 90
        0
280
     0
281
     1
  0
CLASS
  1
HATCH
  2
AcDbHatch
  3
AutoCAD 2000
 90
        0
280
     0
281
     1
  0
CLASS
  1
XRECORD
  2
AcDbXrecord
  3
AutoCAD 2000
 90
        0
280
     0
281
     0
  0
CLASS
  1
LONG_TRANSACTION
  2
AcDbLongTransaction
  3
ObjectDBX Classes
 90
   -65536
280
     1
281
     0
  0
CLASS
  1
LWPOLYLINE
  2
AcDbPolyline
  3
AutoCAD 2000
 90
        0
280
     0
281
     1
  0
CLASS
  1
HATCH
  2
AcDbHatch
  3
AutoCAD 2000
 90
        0
280
     0
281
     1
  0
CLASS
  1
XRECORD
  2
AcDbXrecord
  3
AutoCAD 2000
 90
        0
280
     0
281
     0
  0
CLASS
  1
TABLESTYLE
  2
AcDbTableStyle
  3
ObjectDBX Classes
 90
     2047
280
     1
281
     0
  0
CLASS
  1
SORTENTSTABLE
  2
AcDbSortentsTable
  3
AutoCAD 2000
 90
        0
280
     0
281
     0
  0
ENDSEC
  0
SECTION
  2
TABLES
  0
TABLE
  2
VPORT
  5
8
330
0
100
AcDbSymbolTable
 70
     4
  0
VPORT
  5
1BA4
330
8
100
AcDbSymbolTableRecord
100
AcDbViewportTableRecord
  2
*Active
 70
     0
 10
0.0
 20
0.0
 11
1.0
 21
1.0
 12
7.448522800923648
 22
18.11954181333223
 13
0.0
 23
0.0
 14
0.0625
 24
0.0625
 15
0.25
 25
0.25
 16
0.0
 26
0.0
 36
1.0
 17
0.0
 27
0.0
 37
0.0
 40
54.58678090805749
 41
1.692748091603054
 42
50.0
 43
0.0
 44
0.0
 50
0.0
 51
0.0
 71
     0
 72
   100
 73
     1
 74
     0
 75
     0
 76
     0
 77
     0
 78
     1
281
     0
 65
     1
110
0.0
120
0.0
130
0.0
111
1.0
121
0.0
131
0.0
112
0.0
122
1.0
132
0.0
 79
     0
146
0.0
  0
ENDTAB
  0
TABLE
  2
LTYPE
  5
5
330
0
100
AcDbSymbolTable
 70
     4
  0
LTYPE
  5
11
330
5
100
AcDbSymbolTableRecord
100
AcDbLinetypeTableRecord
  2
BYBLOCK
 70
     0
  3

 72
    65
 73
     0
 40
0.0
  0
LTYPE
  5
12
330
5
100
AcDbSymbolTableRecord
100
AcDbLinetypeTableRecord
  2
BYLAYER
 70
     0
  3

 72
    65
 73
     0
 40
0.0
  0
LTYPE
  5
13
330
5
100
AcDbSymbolTableRecord
100
AcDbLinetypeTableRecord
  2
CONTINUOUS
 70
     0
  3
Solid line
 72
    65
 73
     0
 40
0.0
  0
LTYPE
  5
29
330
5
100
AcDbSymbolTableRecord
100
AcDbLinetypeTableRecord
  2
HIDDEN
 70
     0
  3
_ _ _ _ _ _ _ _ _ _ _ _ _ _ _ _ _ _ _ _ _ _ _
 72
    65
 73
     2
 40
0.375
 49
0.25
 74
     0
 49
-0.125
 74
     0
  0
ENDTAB
  0
TABLE
  2
LAYER
  5
2
102
{ACAD_XDICTIONARY
360
E47
102
}
330
0
100
AcDbSymbolTable
 70
    14
  0
LAYER
  5
E
330
2
100
AcDbSymbolTableRecord
100
AcDbLayerTableRecord
  2
0
 70
     0
 62
     7
  6
CONTINUOUS
370
    -3
390
B48
  0
LAYER
  5
31
330
2
100
AcDbSymbolTableRecord
100
AcDbLayerTableRecord
  2
DIM
 70
     0
 62
     5
  6
CONTINUOUS
370
    -3
390
B48
  0
ENDTAB
  0
TABLE
  2
STYLE
  5
3
330
0
100
AcDbSymbolTable
 70
     4
  0
STYLE
  5
F
330
3
100
AcDbSymbolTableRecord
100
AcDbTextStyleTableRecord
  2
STANDARD
 70
     0
 40
0.0
 41
1.0
 50
0.0
 71
     0
 42
0.36
  3
TXT
  4

  0
ENDTAB
  0
TABLE
  2
VIEW
  5
6
330
0
100
AcDbSymbolTable
 70
     1
  0
VIEW
  5
2E
330
6
100
AcDbSymbolTableRecord
100
AcDbViewTableRecord
  2
A
 70
     0
 40
27.67202109575717
 10
21.625
 20
21.83601054787858
 41
1.0
 11
0.0
 21
0.0
 31
1.0
 12
0.0
 22
0.0
 32
0.0
 42
50.0
 43
0.0
 44
0.0
 50
0.0
 71
     0
281
     0
 72
     0
  0
ENDTAB
  0
TABLE
  2
UCS
  5
7
330
0
100
AcDbSymbolTable
 70
     0
  0
ENDTAB
  0
TABLE
  2
APPID
  5
9
330
0
100
AcDbSymbolTable
 70
     3
  0
APPID
  5
10
330
9
100
AcDbSymbolTableRecord
100
AcDbRegAppTableRecord
  2
ACAD
 70
     0
  0
APPID
  5
E46
330
9
100
AcDbSymbolTableRecord
100
AcDbRegAppTableRecord
  2
ACAD_PSEXT
 70
     0
  0
APPID
  5
111E
330
9
100
AcDbSymbolTableRecord
100
AcDbRegAppTableRecord
  2
ACAD_DSTYLE_DIMTEXT_FILL
 70
     0
  0
ENDTAB
  0
TABLE
  2
DIMSTYLE
  5
A
330
0
100
AcDbSymbolTable
 70
     2
100
AcDbDimStyleTable
  0
DIMSTYLE
105
240
330
A
100
AcDbSymbolTableRecord
100
AcDbDimStyleTableRecord
  2
STANDARD
 70
     0
  3

  4

340
F
  0
ENDTAB
  0
TABLE
  2
BLOCK_RECORD
  5
1
330
0
100
AcDbSymbolTable
 70
     7
  0
BLOCK_RECORD
  5
17
102
{ACAD_XDICTIONARY
360
BD6
102
}
330
1
100
AcDbSymbolTableRecord
100
AcDbBlockTableRecord
  2
*MODEL_SPACE
340
B4B
  0
BLOCK_RECORD
  5
14
330
1
100
AcDbSymbolTableRecord
100
AcDbBlockTableRecord
  2
*PAPER_SPACE
340
B4C
  0
ENDTAB
  0
ENDSEC
  0
SECTION
  2
BLOCKS
  0
BLOCK
  5
44
330
17
100
AcDbEntity
  8
0
100
AcDbBlockBegin
  2
*MODEL_SPACE
 70
     0
 10
0.0
 20
0.0
 30
0.0
  3
*MODEL_SPACE
  1

  4

  0
ENDBLK
  5
45
330
17
100
AcDbEntity
  8
0
100
AcDbBlockEnd
  0
BLOCK
  5
42
330
14
100
AcDbEntity
 67
     1
  8
0
100
AcDbBlockBegin
  2
*PAPER_SPACE
 70
     0
 10
0.0
 20
0.0
 30
0.0
  3
*PAPER_SPACE
  1

  4

  0
ENDBLK
  5
43
330
14
100
AcDbEntity
 67
     1
  8
0
100
AcDbBlockEnd
  0
ENDSEC
  0
SECTION
  2
ENTITIES
  0
LINE
  5
18C
330
17
100
AcDbEntity
  8
0
100
AcDbLine
 10
-2.056943190242272
 20
0.1506374695115724
 30
0.0
 11
-2.056943190242272
 21
8.681421015399508
 31
0.0
  0
LINE
  5
18D
330
17
100
AcDbEntity
  8
0
100
AcDbLine
 10
-1.802697492665907
 20
0.1506374695115724
 30
0.0
 11
-1.802697492665907
 21
8.681421015399511
 31
0.0
  0
LINE
  5
18E
330
17
100
AcDbEntity
  8
0
100
AcDbLine
 10
-1.802697492665907
 20
0.1506374695115724
 30
0.0
 11
-2.058818068645856
 21
0.1506374695115724
 31
0.0
  0
LINE
  5
1DD
330
17
100
AcDbEntity
  8
0
100
AcDbLine
 10
-1.802697492665907
 20
0.5256374695115724
 30
0.0
 11
-2.058818068645856
 21
0.5256374695115724
 31
0.0
  0
TEXT
  5
1E4
330
17
100
AcDbEntity
  8
DIM
100
AcDbText
 10
5.118618491553427
 20
16.47777542670481
 30
0.0
 40
0.36
  1
   
 72
     2
 11
6.198618491553427
 21
16.65777542670481
 31
0.0
100
AcDbText
 73
     2
  0
TEXT
  5
1F8
330
17
100
AcDbEntity
  8
DIM
100
AcDbText
 10
3.421822549748632
 20
20.65621286506622
 30
0.0
 40
0.36
  1
   
 72
     2
 11
4.501822549748632
 21
20.83621286506622
 31
0.0
100
AcDbText
 73
     2
  0
TEXT
  5
1FC
330
17
100
AcDbEntity
  8
DIM
100
AcDbText
 10
14.98864835119193
 20
28.50288859730027
 30
0.0
 40
0.36
  1
   
 11
14.98864835119193
 21
28.68288859730027
 31
0.0
100
AcDbText
 73
     2
  0
LINE
  5
979
330
17
100
AcDbEntity
  8
0
100
AcDbLine
 10
-5.552697492665914
 20
16.43080990695714
 30
0.0
 11
-5.552697492665907
 21
8.681421015399504
 31
0.0
  0
LINE
  5
97A
330
17
100
AcDbEntity
  8
0
100
AcDbLine
 10
5.447302507334101
 20
8.681421015399504
 30
0.0
 11
5.447302507334097
 21
16.43080990695714
 31
0.0
  0
LINE
  5
97B
330
17
100
AcDbEntity
  8
0
  6
HIDDEN
100
AcDbLine
 10
-5.552697492665907
 20
8.868046015399504
 30
0.0
 11
5.447302507334101
 21
8.868046015399504
 31
0.0
  0
LINE
  5
97C
330
17
100
AcDbEntity
  8
0
100
AcDbLine
 10
-5.552697492665907
 20
8.681421015399504
 30
0.0
 11
5.447302507334101
 21
8.681421015399504
 31
0.0
  0
LINE
  5
989
330
17
100
AcDbEntity
  8
0
100
AcDbLine
 10
5.447302507334097
 20
16.43080990695714
 30
0.0
 11
-5.552697492665914
 21
16.43080990695714
 31
0.0
  0
LINE
  5
10FE
330
17
100
AcDbEntity
  8
0
100
AcDbLine
 10
-1.177697492665907
 20
9.1024210153995
 30
0.0
 11
1.072302507334094
 21
9.1024210153995
 31
0.0
  0
LINE
  5
10FF
330
17
100
AcDbEntity
  8
0
100
AcDbLine
 10
-1.677697492665899
 20
16.43080990695714
 30
0.0
 11
-1.677697492665912
 21
9.6024210153995
 31
0.0
  0
ARC
  5
1101
330
17
100
AcDbEntity
  8
0
100
AcDbCircle
 10
-1.235617128702501
 20
9.544501379362909
 30
0.0
 40
0.4458584219689399
100
AcDbArc
 50
172.5358457858161
 51
277.4641542141835
  0
ARC
  5
1102
330
17
100
AcDbEntity
  8
0
100
AcDbCircle
 10
-1.255822492665907
 20
9.529535332274374
 30
0.0
 40
0.25
100
AcDbArc
 50
180.0
 51
269.9999999999998
  0
LINE
  5
1104
330
17
100
AcDbEntity
  8
0
100
AcDbLine
 10
1.572302507334101
 20
9.602421015399326
 30
0.0
 11
1.572302507334094
 21
16.43080990695714
 31
0.0
  0
LINE
  5
110D
330
17
100
AcDbEntity
  8
0
100
AcDbLine
 10
1.150427507334079
 20
9.279535332274374
 30
0.0
 11
-1.255822492665914
 21
9.279535332274374
 31
0.0
  0
CIRCLE
  5
11BE
330
17
100
AcDbEntity
  8
0
100
AcDbCircle
 10
4.697302507334097
 20
15.0920345544463
 30
0.0
 40
0.1405
  0
CIRCLE
  5
11BF
330
17
100
AcDbEntity
  8
0
100
AcDbCircle
 10
3.697302507334097
 20
13.5920345544463
 30
0.0
 40
0.1405
  0
CIRCLE
  5
11C0
330
17
100
AcDbEntity
  8
0
100
AcDbCircle
 10
4.697302507334101
 20
12.0920345544463
 30
0.0
 40
0.1405
  0
CIRCLE
  5
11C1
330
17
100
AcDbEntity
  8
0
100
AcDbCircle
 10
3.697302507334101
 20
10.5920345544463
 30
0.0
 40
0.1405
  0
LINE
  5
11C3
330
17
100
AcDbEntity
  8
0
100
AcDbLine
 10
4.697302507334097
 20
13.91994244157503
 30
0.0
 11
4.86939462020538
 21
14.0920345544463
 31
0.0
  0
LINE
  5
11C4
330
17
100
AcDbEntity
  8
0
100
AcDbLine
 10
4.697302507334097
 20
13.91994244157503
 30
0.0
 11
4.525210394462832
 21
14.0920345544463
 31
0.0
  0
LINE
  5
11C5
330
17
100
AcDbEntity
  8
0
100
AcDbLine
 10
4.230245343766377
 20
13.95373359321741
 30
0.0
 11
4.333847094376829
 21
14.05880223858622
 31
0.0
  0
LINE
  5
11C6
330
17
100
AcDbEntity
  8
0
100
AcDbLine
 10
4.86939462020538
 20
14.0920345544463
 30
0.0
 11
4.697302507334097
 21
14.26412666731756
 31
0.0
  0
LINE
  5
11C7
330
17
100
AcDbEntity
  8
0
100
AcDbLine
 10
4.697302507334097
 20
14.26412666731756
 30
0.0
 11
4.525210394462832
 21
14.0920345544463
 31
0.0
  0
LINE
  5
11C8
330
17
100
AcDbEntity
  8
0
100
AcDbLine
 10
4.341616682506281
 20
14.11874505685317
 30
0.0
 11
4.23801493189583
 21
14.22381370222198
 31
0.0
  0
LINE
  5
11C9
330
17
100
AcDbEntity
  8
0
100
AcDbLine
 10
4.161754981505553
 20
13.95373359321741
 30
0.0
 11
4.058153230895101
 21
14.05880223858622
 31
0.0
  0
LINE
  5
11CA
330
17
100
AcDbEntity
  8
0
100
AcDbLine
 10
4.050383642765649
 20
14.11874505685317
 30
0.0
 11
4.1539853933761
 21
14.22381370222198
 31
0.0
  0
LINE
  5
11D9
330
17
100
AcDbEntity
  8
0
100
AcDbLine
 10
3.597302507334096
 20
14.5920345544463
 30
0.0
 11
3.797302507334099
 21
14.5920345544463
 31
0.0
  0
LINE
  5
11DA
330
17
100
AcDbEntity
  8
0
100
AcDbLine
 10
3.697302507334097
 20
14.4920345544463
 30
0.0
 11
3.697302507334097
 21
14.6920345544463
 31
0.0
  0
LINE
  5
11DB
330
17
100
AcDbEntity
  8
0
100
AcDbLine
 10
4.597302507334096
 20
13.0920345544463
 30
0.0
 11
4.797302507334099
 21
13.0920345544463
 31
0.0
  0
LINE
  5
11DC
330
17
100
AcDbEntity
  8
0
100
AcDbLine
 10
4.697302507334097
 20
12.9920345544463
 30
0.0
 11
4.697302507334097
 21
13.1920345544463
 31
0.0
  0
LINE
  5
11DD
330
17
100
AcDbEntity
  8
0
100
AcDbLine
 10
3.597302507334096
 20
11.5920345544463
 30
0.0
 11
3.797302507334099
 21
11.5920345544463
 31
0.0
  0
LINE
  5
11DE
330
17
100
AcDbEntity
  8
0
100
AcDbLine
 10
3.697302507334097
 20
11.4920345544463
 30
0.0
 11
3.697302507334097
 21
11.6920345544463
 31
0.0
  0
LINE
  5
11DF
330
17
100
AcDbEntity
  8
0
100
AcDbLine
 10
4.597302507334096
 20
10.0920345544463
 30
0.0
 11
4.797302507334099
 21
10.0920345544463
 31
0.0
  0
LINE
  5
11E0
330
17
100
AcDbEntity
  8
0
100
AcDbLine
 10
4.697302507334097
 20
9.992034554446295
 30
0.0
 11
4.697302507334097
 21
10.1920345544463
 31
0.0
  0
CIRCLE
  5
11E2
330
17
100
AcDbEntity
  8
0
100
AcDbCircle
 10
-4.802697492665899
 20
15.0920345544463
 30
0.0
 40
0.1405
  0
CIRCLE
  5
11E3
330
17
100
AcDbEntity
  8
0
100
AcDbCircle
 10
-3.802697492665899
 20
13.5920345544463
 30
0.0
 40
0.1405
  0
CIRCLE
  5
11E4
330
17
100
AcDbEntity
  8
0
100
AcDbCircle
 10
-4.802697492665907
 20
12.0920345544463
 30
0.0
 40
0.1405
  0
CIRCLE
  5
11E5
330
17
100
AcDbEntity
  8
0
100
AcDbCircle
 10
-3.802697492665907
 20
10.5920345544463
 30
0.0
 40
0.1405
  0
LINE
  5
11E6
330
17
100
AcDbEntity
  8
0
100
AcDbLine
 10
-4.802697492665899
 20
13.91994244157503
 30
0.0
 11
-4.974789605537183
 21
14.0920345544463
 31
0.0
  0
LINE
  5
11E7
330
17
100
AcDbEntity
  8
0
100
AcDbLine
 10
-4.802697492665899
 20
13.91994244157503
 30
0.0
 11
-4.630605379794638
 21
14.0920345544463
 31
0.0
  0
LINE
  5
11E8
330
17
100
AcDbEntity
  8
0
100
AcDbLine
 10
-4.335640329098183
 20
13.95373359321741
 30
0.0
 11
-4.439242079708635
 21
14.05880223858622
 31
0.0
  0
LINE
  5
11E9
330
17
100
AcDbEntity
  8
0
100
AcDbLine
 10
-4.974789605537183
 20
14.0920345544463
 30
0.0
 11
-4.802697492665899
 21
14.26412666731756
 31
0.0
  0
LINE
  5
11EA
330
17
100
AcDbEntity
  8
0
100
AcDbLine
 10
-4.802697492665899
 20
14.26412666731756
 30
0.0
 11
-4.630605379794638
 21
14.0920345544463
 31
0.0
  0
LINE
  5
11EB
330
17
100
AcDbEntity
  8
0
100
AcDbLine
 10
-4.447011667838083
 20
14.11874505685317
 30
0.0
 11
-4.343409917227632
 21
14.22381370222198
 31
0.0
  0
LINE
  5
11EC
330
17
100
AcDbEntity
  8
0
100
AcDbLine
 10
-4.267149966837359
 20
13.95373359321741
 30
0.0
 11
-4.163548216226907
 21
14.05880223858622
 31
0.0
  0
LINE
  5
11ED
330
17
100
AcDbEntity
  8
0
100
AcDbLine
 10
-4.155778628097451
 20
14.11874505685317
 30
0.0
 11
-4.259380378707903
 21
14.22381370222198
 31
0.0
  0
LINE
  5
11EE
330
17
100
AcDbEntity
  8
0
100
AcDbLine
 10
-3.702697492665905
 20
14.5920345544463
 30
0.0
 11
-3.902697492665908
 21
14.5920345544463
 31
0.0
  0
LINE
  5
11EF
330
17
100
AcDbEntity
  8
0
100
AcDbLine
 10
-3.802697492665899
 20
14.4920345544463
 30
0.0
 11
-3.802697492665899
 21
14.6920345544463
 31
0.0
  0
LINE
  5
11F0
330
17
100
AcDbEntity
  8
0
100
AcDbLine
 10
-4.702697492665905
 20
13.0920345544463
 30
0.0
 11
-4.902697492665908
 21
13.0920345544463
 31
0.0
  0
LINE
  5
11F1
330
17
100
AcDbEntity
  8
0
100
AcDbLine
 10
-4.802697492665899
 20
12.9920345544463
 30
0.0
 11
-4.802697492665899
 21
13.1920345544463
 31
0.0
  0
LINE
  5
11F2
330
17
100
AcDbEntity
  8
0
100
AcDbLine
 10
-3.702697492665905
 20
11.5920345544463
 30
0.0
 11
-3.902697492665908
 21
11.5920345544463
 31
0.0
  0
LINE
  5
11F3
330
17
100
AcDbEntity
  8
0
100
AcDbLine
 10
-3.802697492665899
 20
11.4920345544463
 30
0.0
 11
-3.802697492665899
 21
11.6920345544463
 31
0.0
  0
LINE
  5
11F4
330
17
100
AcDbEntity
  8
0
100
AcDbLine
 10
-4.702697492665905
 20
10.0920345544463
 30
0.0
 11
-4.902697492665908
 21
10.0920345544463
 31
0.0
  0
LINE
  5
11F5
330
17
100
AcDbEntity
  8
0
100
AcDbLine
 10
-4.802697492665899
 20
9.992034554446295
 30
0.0
 11
-4.802697492665899
 21
10.1920345544463
 31
0.0
  0
LINE
  5
120A
330
17
100
AcDbEntity
  8
0
100
AcDbLine
 10
1.951548204910459
 20
0.1506374695115724
 30
0.0
 11
1.951548204910461
 21
8.681421015399508
 31
0.0
  0
LINE
  5
120B
330
17
100
AcDbEntity
  8
0
100
AcDbLine
 10
1.697302507334094
 20
0.1506374695115724
 30
0.0
 11
1.697302507334094
 21
8.681421015399511
 31
0.0
  0
LINE
  5
120C
330
17
100
AcDbEntity
  8
0
100
AcDbLine
 10
1.697302507334094
 20
0.1506374695115724
 30
0.0
 11
1.953423083314043
 21
0.1506374695115724
 31
0.0
  0
LINE
  5
120D
330
17
100
AcDbEntity
  8
0
100
AcDbLine
 10
1.697302507334094
 20
0.5256374695115724
 30
0.0
 11
1.953423083314043
 21
0.5256374695115724
 31
0.0
  0
LINE
  5
12DA
330
17
100
AcDbEntity
  8
0
100
AcDbLine
 10
-1.505822492665899
 20
16.43080990695714
 30
0.0
 11
-1.505822492665901
 21
9.529535332274374
 31
0.0
  0
ARC
  5
1329
330
17
100
AcDbEntity
  8
0
100
AcDbCircle
 10
1.130222143370666
 20
9.544501379362909
 30
0.0
 40
0.4458584219689399
100
AcDbArc
 50
262.5358457858166
 51
7.46415421418394
  0
ARC
  5
132A
330
17
100
AcDbEntity
  8
0
100
AcDbCircle
 10
1.150427507334079
 20
9.529535332274374
 30
0.0
 40
0.25
100
AcDbArc
 50
270.0000000000002
 51
0.000000000000007
  0
LINE
  5
132B
330
17
100
AcDbEntity
  8
0
100
AcDbLine
 10
1.400427507334086
 20
16.43080990695714
 30
0.0
 11
1.400427507334085
 21
9.529535332274374
 31
0.0
  0
ENDSEC
  0
SECTION
  2
OBJECTS
  0
DICTIONARY
  5
C
330
0
100
AcDbDictionary
281
     1
  3
ACAD_COLOR
350
E0F
  3
ACAD_GROUP
350
D
  3
ACAD_LAYOUT
350
B49
  3
ACAD_MATERIAL
350
E0E
  3
ACAD_MLINESTYLE
350
1A
  3
ACAD_PLOTSETTINGS
350
B4A
  3
ACAD_PLOTSTYLENAME
350
B47
  3
ACAD_TABLESTYLE
350
E10
  3
ACDBHEADERROUNDTRIPXREC
350
1BAD
  3
ACDBVARIABLEDICTIONARY
350
46
  0
DICTIONARY
  5
E47
330
2
100
AcDbDictionary
280
     1
281
     1
  3
ACAD_LAYERFILTERS
360
1B40
  3
ACAD_LAYERSTATES
360
E48
  3
ACLYDICTIONARY
360
1B3F
  0
DICTIONARY
  5
BD6
330
17
100
AcDbDictionary
280
     1
281
     1
  3
ACAD_SORTENTS
360
1333
  0
DICTIONARY
  5
E0F
102
{ACAD_REACTORS
330
C
102
}
330
C
100
AcDbDictionary
281
     1
  0
DICTIONARY
  5
D
102
{ACAD_REACTORS
330
C
102
}
330
C
100
AcDbDictionary
281
     1
  0
DICTIONARY
  5
B49
102
{ACAD_REACTORS
330
C
102
}
330
C
100
AcDbDictionary
281
     1
  3
Layout1
350
B4C
  3
Model
350
B4B
  0
DICTIONARY
  5
E0E
102
{ACAD_REACTORS
330
C
102
}
330
C
100
AcDbDictionary
281
     1
  0
DICTIONARY
  5
1A
102
{ACAD_REACTORS
330
C
102
}
330
C
100
AcDbDictionary
281
     1
  3
STANDARD
350
1B
  0
DICTIONARY
  5
B4A
102
{ACAD_REACTORS
330
C
102
}
330
C
100
AcDbDictionary
281
     1
  0
ACDBDICTIONARYWDFLT
  5
B47
102
{ACAD_REACTORS
330
C
102
}
330
C
100
AcDbDictionary
281
     1
  3
Normal
350
B48
100
AcDbDictionaryWithDefault
340
B48
  0
DICTIONARY
  5
E10
102
{ACAD_REACTORS
330
C
102
}
330
C
100
AcDbDictionary
281
     1
  3
Standard
350
E11
  0
DICTIONARY
  5
1BAD
102
{ACAD_REACTORS
330
C
102
}
330
C
100
AcDbDictionary
281
     1
  3
COLORDICT
350
1BAE
  3
MATERIALDICT
350
1BAF
  0
DICTIONARY
  5
46
102
{ACAD_REACTORS
330
C
102
}
330
C
100
AcDbDictionary
281
     1
  3
CTABLESTYLE
350
E32
  3
DIMADEC
350
47
  0
DICTIONARY
  5
1B40
102
{ACAD_REACTORS
330
E47
102
}
330
E47
100
AcDbDictionary
281
     1
  0
DICTIONARY
  5
E48
102
{ACAD_REACTORS
330
E47
102
}
330
E47
100
AcDbDictionary
281
     1
  0
DICTIONARY
  5
1B3F
102
{ACAD_REACTORS
330
E47
102
}
330
E47
100
AcDbDictionary
281
     1
1001
ACAD
1000
<All
  0
SORTENTSTABLE
  5
1333
102
{ACAD_REACTORS
330
BD6
102
}
330
BD6
100
AcDbSortentsTable
330
17
331
0
  5
1B57
331
11ED
  5
11ED
331
97C
  5
97C
331
1E4
  5
1E4
331
11EB
  5
11EB
331
11BE
  5
11BE
331
11EF
  5
11EF
331
132B
  5
132B
331
11DD
  5
11DD
331
11DF
  5
11DF
331
11E9
  5
11E9
331
979
  5
979
331
11E6
  5
11E6
331
11F4
  5
11F4
331
18C
  5
18C
331
11DB
  5
11DB
331
120A
  5
120A
331
120C
  5
120C
331
1102
  5
1102
331
11C6
  5
11C6
331
1329
  5
1329
331
11C9
  5
11C9
331
10FE
  5
10FE
331
11F0
  5
11F0
331
11CA
  5
11CA
331
120D
  5
120D
331
11DC
  5
11DC
331
11E4
  5
11E4
331
11C0
  5
11C0
331
11F2
  5
11F2
331
11E3
  5
11E3
331
97B
  5
97B
331
11E7
  5
11E7
331
110D
  5
110D
331
11C7
  5
11C7
331
989
  5
989
331
11EE
  5
11EE
331
11EC
  5
11EC
331
1FC
  5
1FC
331
11C4
  5
11C4
331
12DA
  5
12DA
331
11BF
  5
11BF
331
11C5
  5
11C5
331
18D
  5
18D
331
11DE
  5
11DE
331
11C1
  5
11C1
331
1F8
  5
1F8
331
11EA
  5
11EA
331
1101
  5
1101
331
18E
  5
18E
331
11C8
  5
11C8
331
97A
  5
97A
331
11E2
  5
11E2
331
10FF
  5
10FF
331
120B
  5
120B
331
11F3
  5
11F3
331
132A
  5
132A
331
11E8
  5
11E8
331
11F1
  5
11F1
331
1104
  5
1104
331
11C3
  5
11C3
331
11E0
  5
11E0
331
11DA
  5
11DA
331
11E5
  5
11E5
331
1DD
  5
1DD
331
11D9
  5
11D9
331
11F5
  5
11F5
  0
LAYOUT
  5
B4C
102
{ACAD_REACTORS
330
B49
102
}
102
{ACAD_XDICTIONARY
360
1BB0
102
}
330
B49
100
AcDbPlotSettings
  1

  2
HP LaserJet 2100 Series PS
  4

  6

 40
0.0
 41
0.0
 42
0.0
 43
0.0
 44
0.0
 45
0.0
 46
0.0
 47
0.0
 48
0.0
 49
0.0
140
0.0
141
0.0
142
1.0
143
1.0
 70
   688
 72
     0
 73
     0
 74
     5
  7
monochrome.ctb
 75
    16
147
1.0
148
0.0
149
0.0
100
AcDbLayout
  1
Layout1
 70
     0
 71
     1
 10
0.0
 20
0.0
 11
12.0
 21
9.0
 12
0.0
 22
0.0
 32
0.0
 14
1.000000000000000E+20
 24
1.000000000000000E+20
 34
1.000000000000000E+20
 15
-1.000000000000000E+20
 25
-1.000000000000000E+20
 35
-1.000000000000000E+20
146
0.0
 13
0.0
 23
0.0
 33
0.0
 16
1.0
 26
0.0
 36
0.0
 17
0.0
 27
1.0
 37
0.0
 76
     0
330
14
  0
LAYOUT
  5
B4B
102
{ACAD_REACTORS
330
B49
102
}
102
{ACAD_XDICTIONARY
360
1BB2
102
}
330
B49
100
AcDbPlotSettings
  1

  2
HP LaserJet 2100 Series PS
  4
Letter
  6
A
 40
5.365749835968018
 41
5.408073902130127
 42
5.132904052734375
 43
5.090576171875
 44
215.8999938964844
 45
279.3999938964844
 46
0.0
 47
0.0
 48
0.0
 49
0.0
140
0.0
141
0.0
142
1.0
143
4.959423774255553
 70
 11952
 72
     0
 73
     0
 74
     1
  7
monochrome.ctb
 75
     0
147
0.2016363282345453
148
1.553059379859579
149
-0.0610558621649801
100
AcDbLayout
  1
Model
 70
     1
 71
     0
 10
0.0
 20
0.0
 11
12.0
 21
9.0
 12
0.0
 22
0.0
 32
0.0
 14
0.0
 24
0.0
 34
0.0
 15
0.0
 25
0.0
 35
0.0
146
0.0
 13
0.0
 23
0.0
 33
0.0
 16
1.0
 26
0.0
 36
0.0
 17
0.0
 27
1.0
 37
0.0
 76
     0
330
17
1001
ACAD_PSEXT
1000
HP LaserJet 2100 Series PS
1000
HP LaserJet 2100 Series PS
1000
LPT1:
1000

1070
     0
  0
MLINESTYLE
  5
1B
102
{ACAD_REACTORS
330
1A
102
}
330
1A
100
AcDbMlineStyle
  2
STANDARD
 70
     0
  3

 62
   256
 51
90.0
 52
90.0
 71
     2
 49
0.5
 62
   256
  6
BYLAYER
 49
-0.5
 62
   256
  6
BYLAYER
  0
ACDBPLACEHOLDER
  5
B48
102
{ACAD_REACTORS
330
B47
102
}
330
B47
  0
ACAD_PROXY_OBJECT
  5
E11
102
{ACAD_REACTORS
330
E10
102
}
330
E10
100
AcDbProxyObject
 90
      499
 91
      525
 95
   983063
 70
     0
 93
     1841
310
4214DD185B99185C9928B81E85EB51B8AE3F2E07A17AD46E2B8FC02B5E8DC0F42B1CFD028000000C1008070000C3001FDFF8000000C1003FBFF000000182007F7FE00000030400FEFFC00000060801FDFF8000000C1003FBFF00000018200000000000000681FA0B0000001820100E000186003FBFF000000182007F7FE000
310
00030400FEFFC00000060801FDFF8000000C1003FBFF000000182007F7FE000000304000AD7A3703D0AC73F4160000003040201C00030C007F7FE00000030400FEFFC00000060801FDFF8000000C1003FBFF000000182007F7FE00000030400FEFFC000000608000
340
F
340
F
340
F
 94
        0
  0
XRECORD
  5
1BAE
102
{ACAD_REACTORS
330
1BAD
102
}
330
1BAD
100
AcDbXrecord
340
E0F
  0
XRECORD
  5
1BAF
102
{ACAD_REACTORS
330
1BAD
102
}
330
1BAD
100
AcDbXrecord
340
E0E
  0
DICTIONARYVAR
  5
E32
102
{ACAD_REACTORS
330
46
102
}
330
46
100
DictionaryVariables
280
     0
  1
STANDARD
  0
DICTIONARYVAR
  5
47
102
{ACAD_REACTORS
330
46
102
}
330
46
100
DictionaryVariables
280
     0
  1
0
  0
DICTIONARY
  5
1BB0
330
B4C
100
AcDbDictionary
280
     1
281
     1
  3
ACAD_XREC_ROUNDTRIP
360
1BB1
  0
DICTIONARY
  5
1BB2
330
B4B
100
AcDbDictionary
280
     1
281
     1
  3
ACAD_XREC_ROUNDTRIP
360
1BB3
  0
XRECORD
  5
1BB1
102
{ACAD_REACTORS
330
1BB0
102
}
330
1BB0
100
AcDbXrecord
102
SHADEPLOT
 70
     0
102
SHADEPLOTRESLEVEL
 70
     2
102
SHADEPLOTCUSTOMDPI
 70
   300
  0
XRECORD
  5
1BB3
102
{ACAD_REACTORS
330
1BB2
102
}
330
1BB2
100
AcDbXrecord
102
SHADEPLOT
 70
     0
102
SHADEPLOTRESLEVEL
 70
     2
102
SHADEPLOTCUSTOMDPI
 70
   300
  0
ENDSEC
  0
EOF
