  0
SECTION
  2
HEADER
  9
$ACADVER
  1
AC1015
  9
$ACADMAINTVER
 70
     6
  9
$DWGCODEPAGE
  3
ANSI_1252
  9
$INSBASE
 10
0.0
 20
0.0
 30
0.0
  9
$EXTMIN
 10
-0.0010680073185512
 20
-0.138130964317277
 30
-0.0000000349181948
  9
$EXTMAX
 10
12.40363761818151
 20
6.01529278856286
 30
0.0000000814935746
  9
$LIMMIN
 10
0.0
 20
0.0
  9
$LIMMAX
 10
17.4993
 20
13.3328
  9
$ORTHOMODE
 70
     1
  9
$REGENMODE
 70
     1
  9
$FILLMODE
 70
     1
  9
$QTEXTMODE
 70
     0
  9
$MIRRTEXT
 70
     1
  9
$LTSCALE
 40
0.5
  9
$ATTMODE
 70
     1
  9
$TEXTSIZE
 40
0.149994
  9
$TRACEWID
 40
0.05
  9
$TEXTSTYLE
  7
STANDARD
  9
$CLAYER
  8
0
  9
$CELTYPE
  6
BYLAYER
  9
$CECOLOR
 62
   256
  9
$CELTSCALE
 40
1.0
  9
$DISPSILH
 70
     0
  9
$DIMSCALE
 40
0.0
  9
$DIMASZ
 40
0.1875
  9
$DIMEXO
 40
0.0625
  9
$DIMDLI
 40
0.375
  9
$DIMRND
 40
0.0
  9
$DIMDLE
 40
0.0
  9
$DIMEXE
 40
0.078125
  9
$DIMTP
 40
0.0
  9
$DIMTM
 40
0.0
  9
$DIMTXT
 40
0.125
  9
$DIMCEN
 40
-0.0625
  9
$DIMTSZ
 40
0.0
  9
$DIMTOL
 70
     0
  9
$DIMLIM
 70
     0
  9
$DIMTIH
 70
     1
  9
$DIMTOH
 70
     1
  9
$DIMSE1
 70
     0
  9
$DIMSE2
 70
     0
  9
$DIMTAD
 70
     0
  9
$DIMZIN
 70
     0
  9
$DIMBLK
  1

  9
$DIMASO
 70
     0
  9
$DIMSHO
 70
     0
  9
$DIMPOST
  1

  9
$DIMAPOST
  1

  9
$DIMALT
 70
     0
  9
$DIMALTD
 70
     2
  9
$DIMALTF
 40
25.4
  9
$DIMLFAC
 40
1.0
  9
$DIMTOFL
 70
     1
  9
$DIMTVP
 40
0.0
  9
$DIMTIX
 70
     0
  9
$DIMSOXD
 70
     0
  9
$DIMSAH
 70
     0
  9
$DIMBLK1
  1

  9
$DIMBLK2
  1

  9
$DIMSTYLE
  2
STANDARD
  9
$DIMCLRD
 70
     0
  9
$DIMCLRE
 70
     0
  9
$DIMCLRT
 70
     0
  9
$DIMTFAC
 40
1.0
  9
$DIMGAP
 40
0.125
  9
$DIMJUST
 70
     0
  9
$DIMSD1
 70
     0
  9
$DIMSD2
 70
     0
  9
$DIMTOLJ
 70
     1
  9
$DIMTZIN
 70
     0
  9
$DIMALTZ
 70
     0
  9
$DIMALTTZ
 70
     0
  9
$DIMUPT
 70
     0
  9
$DIMDEC
 70
     5
  9
$DIMTDEC
 70
     4
  9
$DIMALTU
 70
     2
  9
$DIMALTTD
 70
     2
  9
$DIMTXSTY
  7
STANDARD
  9
$DIMAUNIT
 70
     0
  9
$DIMADEC
 70
     0
  9
$DIMALTRND
 40
0.0
  9
$DIMAZIN
 70
     0
  9
$DIMDSEP
 70
    46
  9
$DIMATFIT
 70
     3
  9
$DIMFRAC
 70
     2
  9
$DIMLDRBLK
  1

  9
$DIMLUNIT
 70
     5
  9
$DIMLWD
 70
    -2
  9
$DIMLWE
 70
    -2
  9
$DIMTMOVE
 70
     0
  9
$LUNITS
 70
     5
  9
$LUPREC
 70
     4
  9
$SKETCHINC
 40
0.1
  9
$FILLETRAD
 40
0.0
  9
$AUNITS
 70
     0
  9
$AUPREC
 70
     0
  9
$MENU
  1
acad
  9
$ELEVATION
 40
0.0
  9
$PELEVATION
 40
0.0
  9
$THICKNESS
 40
0.0
  9
$LIMCHECK
 70
     0
  9
$CHAMFERA
 40
0.0
  9
$CHAMFERB
 40
0.0
  9
$CHAMFERC
 40
0.0
  9
$CHAMFERD
 40
0.0
  9
$SKPOLY
 70
     0
  9
$TDCREATE
 40
2448958.706114815
  9
$TDUCREATE
 40
2448959.039448148
  9
$TDUPDATE
 40
2453809.927653588
  9
$TDUUPDATE
 40
2453810.260986921
  9
$TDINDWG
 40
0.5533630324
  9
$TDUSRTIMER
 40
0.5533630324
  9
$USRTIMER
 70
     1
  9
$ANGBASE
 50
0.0
  9
$ANGDIR
 70
     0
  9
$PDMODE
 70
     0
  9
$PDSIZE
 40
0.0
  9
$PLINEWID
 40
0.0
  9
$SPLFRAME
 70
     0
  9
$SPLINETYPE
 70
     6
  9
$SPLINESEGS
 70
     8
  9
$HANDSEED
  5
178
  9
$SURFTAB1
 70
     6
  9
$SURFTAB2
 70
     6
  9
$SURFTYPE
 70
     6
  9
$SURFU
 70
     6
  9
$SURFV
 70
     6
  9
$UCSBASE
  2

  9
$UCSNAME
  2

  9
$UCSORG
 10
0.0
 20
0.0
 30
0.0
  9
$UCSXDIR
 10
1.0
 20
0.0
 30
0.0
  9
$UCSYDIR
 10
0.0
 20
1.0
 30
0.0
  9
$UCSORTHOREF
  2

  9
$UCSORTHOVIEW
 70
     0
  9
$UCSORGTOP
 10
0.0
 20
0.0
 30
0.0
  9
$UCSORGBOTTOM
 10
0.0
 20
0.0
 30
0.0
  9
$UCSORGLEFT
 10
0.0
 20
0.0
 30
0.0
  9
$UCSORGRIGHT
 10
0.0
 20
0.0
 30
0.0
  9
$UCSORGFRONT
 10
0.0
 20
0.0
 30
0.0
  9
$UCSORGBACK
 10
0.0
 20
0.0
 30
0.0
  9
$PUCSBASE
  2

  9
$PUCSNAME
  2

  9
$PUCSORG
 10
0.0
 20
0.0
 30
0.0
  9
$PUCSXDIR
 10
1.0
 20
0.0
 30
0.0
  9
$PUCSYDIR
 10
0.0
 20
1.0
 30
0.0
  9
$PUCSORTHOREF
  2

  9
$PUCSORTHOVIEW
 70
     0
  9
$PUCSORGTOP
 10
0.0
 20
0.0
 30
0.0
  9
$PUCSORGBOTTOM
 10
0.0
 20
0.0
 30
0.0
  9
$PUCSORGLEFT
 10
0.0
 20
0.0
 30
0.0
  9
$PUCSORGRIGHT
 10
0.0
 20
0.0
 30
0.0
  9
$PUCSORGFRONT
 10
0.0
 20
0.0
 30
0.0
  9
$PUCSORGBACK
 10
0.0
 20
0.0
 30
0.0
  9
$USERI1
 70
     0
  9
$USERI2
 70
     0
  9
$USERI3
 70
     0
  9
$USERI4
 70
     0
  9
$USERI5
 70
     0
  9
$USERR1
 40
0.0
  9
$USERR2
 40
0.0
  9
$USERR3
 40
0.0
  9
$USERR4
 40
0.0
  9
$USERR5
 40
0.0
  9
$WORLDVIEW
 70
     1
  9
$SHADEDGE
 70
     3
  9
$SHADEDIF
 70
    70
  9
$TILEMODE
 70
     1
  9
$MAXACTVP
 70
    16
  9
$PINSBASE
 10
0.0
 20
0.0
 30
0.0
  9
$PLIMCHECK
 70
     0
  9
$PEXTMIN
 10
1.000000000000000E+20
 20
1.000000000000000E+20
 30
1.000000000000000E+20
  9
$PEXTMAX
 10
-1.000000000000000E+20
 20
-1.000000000000000E+20
 30
-1.000000000000000E+20
  9
$PLIMMIN
 10
0.0
 20
0.0
  9
$PLIMMAX
 10
12.0
 20
9.0
  9
$UNITMODE
 70
     0
  9
$VISRETAIN
 70
     0
  9
$PLINEGEN
 70
     0
  9
$PSLTSCALE
 70
     0
  9
$TREEDEPTH
 70
  3020
  9
$CMLSTYLE
  2
STANDARD
  9
$CMLJUST
 70
     0
  9
$CMLSCALE
 40
1.0
  9
$PROXYGRAPHICS
 70
     1
  9
$MEASUREMENT
 70
     0
  9
$CELWEIGHT
370
    -1
  9
$ENDCAPS
280
     0
  9
$JOINSTYLE
280
     0
  9
$LWDISPLAY
290
     0
  9
$INSUNITS
 70
     0
  9
$HYPERLINKBASE
  1

  9
$STYLESHEET
  1

  9
$XEDIT
290
     1
  9
$CEPSNTYPE
380
     0
  9
$PSTYLEMODE
290
     1
  9
$FINGERPRINTGUID
  2
{6B7B6B2E-6B19-42EF-9D5B-D8AEDFD90034}
  9
$VERSIONGUID
  2
{76C607FD-EB1B-4EA5-A204-C6DA8A24BD30}
  9
$EXTNAMES
290
     1
  9
$PSVPSCALE
 40
0.0
  9
$OLESTARTUP
290
     0
  0
ENDSEC
  0
SECTION
  2
CLASSES
  0
CLASS
  1
DICTIONARYVAR
  2
AcDbDictionaryVar
  3
AutoCAD 2000
 90
        0
280
     0
281
     0
  0
CLASS
  1
LWPOLYLINE
  2
AcDbPolyline
  3
AutoCAD 2000
 90
        0
280
     0
281
     1
  0
CLASS
  1
HATCH
  2
AcDbHatch
  3
AutoCAD 2000
 90
        0
280
     0
281
     1
  0
CLASS
  1
ACDBDICTIONARYWDFLT
  2
AcDbDictionaryWithDefault
  3
AutoCAD 2000
 90
        0
280
     0
281
     0
  0
CLASS
  1
ACDBPLACEHOLDER
  2
AcDbPlaceHolder
  3
ObjectDBX Classes
 90
        0
280
     0
281
     0
  0
CLASS
  1
LAYOUT
  2
AcDbLayout
  3
ObjectDBX Classes
 90
        0
280
     0
281
     0
  0
ENDSEC
  0
SECTION
  2
TABLES
  0
TABLE
  2
VPORT
  5
19
330
0
100
AcDbSymbolTable
 70
     2
  0
VPORT
  5
16D
330
19
100
AcDbSymbolTableRecord
100
AcDbViewportTableRecord
  2
*Active
 70
     0
 10
0.0
 20
0.0
 11
1.0
 21
1.0
 12
8.749115996340724
 22
6.597334517841363
 13
0.0
 23
0.0
 14
0.063
 24
0.063
 15
0.25
 25
0.25
 16
0.0
 26
0.0
 36
1.0
 17
0.0
 27
0.0
 37
0.0
 40
13.69670075701533
 41
1.840336134453781
 42
50.0
 43
0.0
 44
0.0
 50
0.0
 51
0.0
 71
     0
 72
   100
 73
     1
 74
     1
 75
     0
 76
     0
 77
     0
 78
     0
281
     0
 65
     1
110
0.0
120
0.0
130
0.0
111
1.0
121
0.0
131
0.0
112
0.0
122
1.0
132
0.0
 79
     0
146
0.0
  0
ENDTAB
  0
TABLE
  2
LTYPE
  5
14
330
0
100
AcDbSymbolTable
 70
     1
  0
LTYPE
  5
15
330
14
100
AcDbSymbolTableRecord
100
AcDbLinetypeTableRecord
  2
BYBLOCK
 70
     0
  3

 72
    65
 73
     0
 40
0.0
  0
LTYPE
  5
16
330
14
100
AcDbSymbolTableRecord
100
AcDbLinetypeTableRecord
  2
BYLAYER
 70
     0
  3

 72
    65
 73
     0
 40
0.0
  0
LTYPE
  5
8
330
14
100
AcDbSymbolTableRecord
100
AcDbLinetypeTableRecord
  2
CONTINUOUS
 70
     0
  3
Solid line
 72
    65
 73
     0
 40
0.0
  0
ENDTAB
  0
TABLE
  2
LAYER
  5
10
330
0
100
AcDbSymbolTable
 70
     1
  0
LAYER
  5
4
330
10
100
AcDbSymbolTableRecord
100
AcDbLayerTableRecord
  2
0
 70
     0
 62
     7
  6
CONTINUOUS
370
    -3
390
5
  0
ENDTAB
  0
TABLE
  2
STYLE
  5
11
330
0
100
AcDbSymbolTable
 70
     1
  0
STYLE
  5
12
330
11
100
AcDbSymbolTableRecord
100
AcDbTextStyleTableRecord
  2
STANDARD
 70
     0
 40
0.0
 41
1.0
 50
0.0
 71
     0
 42
0.149994
  3
TXT
  4

  0
ENDTAB
  0
TABLE
  2
VIEW
  5
17
330
0
100
AcDbSymbolTable
 70
     0
  0
ENDTAB
  0
TABLE
  2
UCS
  5
18
330
0
100
AcDbSymbolTable
 70
     0
  0
ENDTAB
  0
TABLE
  2
APPID
  5
1B
330
0
100
AcDbSymbolTable
 70
     1
  0
APPID
  5
1C
330
1B
100
AcDbSymbolTableRecord
100
AcDbRegAppTableRecord
  2
ACAD
 70
     0
  0
ENDTAB
  0
TABLE
  2
DIMSTYLE
  5
1D
330
0
100
AcDbSymbolTable
 70
     1
100
AcDbDimStyleTable
  0
DIMSTYLE
105
23
330
1D
100
AcDbSymbolTableRecord
100
AcDbDimStyleTableRecord
  2
STANDARD
 70
     0
  3

  4

340
12
  0
ENDTAB
  0
TABLE
  2
BLOCK_RECORD
  5
1
330
0
100
AcDbSymbolTable
 70
     1
  0
BLOCK_RECORD
  5
2
330
1
100
AcDbSymbolTableRecord
100
AcDbBlockTableRecord
  2
*MODEL_SPACE
340
A
  0
BLOCK_RECORD
  5
C
330
1
100
AcDbSymbolTableRecord
100
AcDbBlockTableRecord
  2
*PAPER_SPACE
340
F
  0
ENDTAB
  0
ENDSEC
  0
SECTION
  2
BLOCKS
  0
BLOCK
  5
3
330
2
100
AcDbEntity
  8
0
100
AcDbBlockBegin
  2
*MODEL_SPACE
 70
     0
 10
0.0
 20
0.0
 30
0.0
  3
*MODEL_SPACE
  1

  4

  0
ENDBLK
  5
9
330
2
100
AcDbEntity
  8
0
100
AcDbBlockEnd
  0
BLOCK
  5
D
330
C
100
AcDbEntity
 67
     1
  8
0
100
AcDbBlockBegin
  2
*PAPER_SPACE
 70
     0
 10
0.0
 20
0.0
 30
0.0
  3
*PAPER_SPACE
  1

  4

  0
ENDBLK
  5
E
330
C
100
AcDbEntity
 67
     1
  8
0
100
AcDbBlockEnd
  0
ENDSEC
  0
SECTION
  2
ENTITIES
  0
ARC
  5
D3
330
2
100
AcDbEntity
  8
0
100
AcDbCircle
 10
6.454632041604501
 20
1.499930869448491
 30
0.0
 40
0.6406
100
AcDbArc
 50
275.490052695927
 51
354.4010429897721
  0
ARC
  5
D4
330
2
100
AcDbEntity
  8
0
100
AcDbCircle
 10
6.454632041604501
 20
1.499930869448491
 30
0.0
 40
0.6406
100
AcDbArc
 50
185.5989570102279
 51
264.5099473040726
  0
CIRCLE
  5
D5
330
2
100
AcDbEntity
  8
0
100
AcDbCircle
 10
6.454632041604501
 20
1.499930869448491
 30
0.0
 40
0.5781
  0
LINE
  5
D6
330
2
100
AcDbEntity
  8
0
100
AcDbLine
 10
7.954699816654999
 20
1.43743086944849
 30
0.0
 11
7.954699816654998
 21
0.0815877727892742
 31
0.0
  0
LINE
  5
D7
330
2
100
AcDbEntity
  8
0
100
AcDbLine
 10
4.954699816654996
 20
1.437363094397997
 30
0.0
 11
4.954699816654996
 21
0.0815199977387797
 31
0.0
  0
LINE
  5
D8
330
2
100
AcDbEntity
  8
0
100
AcDbLine
 10
8.079699816654998
 20
-0.0625013555010172
 30
0.0
 11
8.079699816654999
 21
3.062498644498988
 31
0.0
  0
LINE
  5
D9
330
2
100
AcDbEntity
  8
0
100
AcDbLine
 10
4.829699816654996
 20
3.062430869448488
 30
0.0
 11
4.829699816654996
 21
-0.0625691305515081
 31
0.0
  0
LINE
  5
DA
330
2
100
AcDbEntity
  8
0
100
AcDbLine
 10
5.079699816654996
 20
1.43743086944849
 30
0.0
 11
5.079699816654998
 21
0.2168664142912249
 31
0.0
  0
LINE
  5
DB
330
2
100
AcDbEntity
  8
0
100
AcDbLine
 10
7.829699816654999
 20
1.43743086944849
 30
0.0
 11
7.829699816654998
 21
0.2168664142912249
 31
0.0
  0
CIRCLE
  5
DC
330
2
100
AcDbEntity
  8
0
100
AcDbCircle
 10
6.454632041604501
 20
1.499930869448491
 30
0.0
 40
0.5
  0
LINE
  5
DD
330
2
100
AcDbEntity
  8
0
100
AcDbLine
 10
5.04792546851886
 20
-0.0017724155110281
 30
0.0
 11
6.393343958066449
 21
-0.0017046404605372
 31
0.0
  0
LINE
  5
DE
330
2
100
AcDbEntity
  8
0
100
AcDbLine
 10
4.892199816654996
 20
-0.1250691305515073
 30
0.0
 11
8.017199816654998
 21
-0.1250013555010172
 31
0.0
  0
LINE
  5
DF
330
2
100
AcDbEntity
  8
0
100
AcDbLine
 10
6.393343958066453
 20
0.1094512397795056
 30
0.0
 11
5.150761539592767
 21
0.1094512397795056
 31
0.0
  0
LINE
  5
E0
330
2
100
AcDbEntity
  8
0
100
AcDbLine
 10
5.365540033459759
 20
0.3415641860544003
 30
0.0
 11
5.04798810095424
 21
-0.0017633125097811
 31
0.0
  0
LINE
  5
E1
330
2
100
AcDbEntity
  8
0
100
AcDbLine
 10
5.273520992580575
 20
0.4261661725303378
 30
0.0
 11
4.95475897523453
 21
0.0815252124378842
 31
0.0
  0
ARC
  5
E2
330
2
100
AcDbEntity
  8
0
100
AcDbCircle
 10
5.08222526110689
 20
0.1282172272098237
 30
0.0
 40
0.0625192006788431
100
AcDbArc
 50
315.9798575818874
 51
138.8199359553414
  0
ARC
  5
E3
330
2
100
AcDbEntity
  8
0
100
AcDbCircle
 10
4.892199816654996
 20
-0.0625691305515073
 30
0.0
 40
0.0625
100
AcDbArc
 50
179.9999999999999
 51
269.9999999999999
  0
CIRCLE
  5
E4
330
2
100
AcDbEntity
  8
0
100
AcDbCircle
 10
5.573173387860358
 20
0.6304400105971091
 30
0.0
 40
0.296875
  0
ARC
  5
E5
330
2
100
AcDbEntity
  8
0
100
AcDbCircle
 10
5.32057913075432
 20
0.3850057293215707
 30
0.0
 40
0.0625192006788431
100
AcDbArc
 50
315.9846369349325
 51
138.8247153083865
  0
LINE
  5
E6
330
2
100
AcDbEntity
  8
0
100
AcDbLine
 10
4.829699816654996
 20
0.6304400105971091
 30
0.0
 11
4.954699816654996
 21
0.6304400105971091
 31
0.0
  0
LINE
  5
E7
330
2
100
AcDbEntity
  8
0
100
AcDbLine
 10
4.829699816654996
 20
0.8804400105971091
 30
0.0
 11
4.954699816654996
 21
0.8804400105971091
 31
0.0
  0
CIRCLE
  5
E8
330
2
100
AcDbEntity
  8
0
100
AcDbCircle
 10
5.573173387860358
 20
0.6304400105971091
 30
0.0
 40
0.171875
  0
CIRCLE
  5
E9
330
2
100
AcDbEntity
  8
0
100
AcDbCircle
 10
5.573173387860358
 20
0.6304400105971091
 30
0.0
 40
0.09375
  0
LINE
  5
EA
330
2
100
AcDbEntity
  8
0
100
AcDbLine
 10
6.393343958066449
 20
-0.0017046404605372
 30
0.0
 11
6.393343958066449
 21
0.8622694147436967
 31
0.0
  0
LINE
  5
EB
330
2
100
AcDbEntity
  8
0
100
AcDbLine
 10
6.515920125142548
 20
-0.0017046404605354
 30
0.0
 11
6.515920125142547
 21
0.8622694147436967
 31
0.0
  0
ARC
  5
EC
330
2
100
AcDbEntity
  8
0
100
AcDbCircle
 10
7.827174372203105
 20
0.1282172272098237
 30
0.0
 40
0.0625192006788431
100
AcDbArc
 50
41.18006404465863
 51
224.0201424181126
  0
LINE
  5
ED
330
2
100
AcDbEntity
  8
0
100
AcDbLine
 10
7.622506151353134
 20
0.4409999985954878
 30
0.0
 11
7.954758975451977
 21
0.08158256055754
 31
0.0
  0
LINE
  5
EE
330
2
100
AcDbEntity
  8
0
100
AcDbLine
 10
7.530494167906578
 20
0.3563903366044903
 30
0.0
 11
7.861536797606124
 21
-0.00171374084952
 31
0.0
  0
LINE
  5
EF
330
2
100
AcDbEntity
  8
0
100
AcDbLine
 10
7.861474164791133
 20
-0.0017046404605336
 30
0.0
 11
6.515920125142548
 21
-0.0017046404605354
 31
0.0
  0
ARC
  5
F0
330
2
100
AcDbEntity
  8
0
100
AcDbCircle
 10
8.017199816654998
 20
-0.0625013555010172
 30
0.0
 40
0.0625
100
AcDbArc
 50
270.0
 51
0.0
  0
CIRCLE
  5
F1
330
2
100
AcDbEntity
  8
0
100
AcDbCircle
 10
7.323123387860358
 20
0.6304400105971091
 30
0.0
 40
0.09375
  0
CIRCLE
  5
F2
330
2
100
AcDbEntity
  8
0
100
AcDbCircle
 10
7.323123387860358
 20
0.6304400105971091
 30
0.0
 40
0.171875
  0
CIRCLE
  5
F3
330
2
100
AcDbEntity
  8
0
100
AcDbCircle
 10
7.323123387860358
 20
0.6304400105971091
 30
0.0
 40
0.296875
  0
LINE
  5
F4
330
2
100
AcDbEntity
  8
0
100
AcDbLine
 10
7.758638093717226
 20
0.1094512397795073
 30
0.0
 11
6.51592012514255
 21
0.1094512397795056
 31
0.0
  0
ARC
  5
F5
330
2
100
AcDbEntity
  8
0
100
AcDbCircle
 10
7.575451446759862
 20
0.399835630154306
 30
0.0
 40
0.0625192006788431
100
AcDbArc
 50
41.18006404465863
 51
224.0201424181126
  0
LINE
  5
F6
330
2
100
AcDbEntity
  8
0
100
AcDbLine
 10
8.079699816654998
 20
0.56819039208807
 30
0.0
 11
7.954699816654998
 21
0.56819039208807
 31
0.0
  0
LINE
  5
F7
330
2
100
AcDbEntity
  8
0
100
AcDbLine
 10
8.079699816654998
 20
0.81819039208807
 30
0.0
 11
7.954699816654998
 21
0.81819039208807
 31
0.0
  0
ARC
  5
F8
330
2
100
AcDbEntity
  8
0
100
AcDbCircle
 10
6.454632041604501
 20
1.499930869448491
 30
0.0
 40
0.6406
100
AcDbArc
 50
95.49005269592735
 51
174.4010429897722
  0
LINE
  5
F9
330
2
100
AcDbEntity
  8
0
100
AcDbLine
 10
5.04792546851886
 20
3.00163415440801
 30
0.0
 11
6.393343958066453
 21
3.002429632225465
 31
0.0
  0
LINE
  5
FA
330
2
100
AcDbEntity
  8
0
100
AcDbLine
 10
8.017199816654999
 20
3.124998644498988
 30
0.0
 11
4.892199816654996
 21
3.124930869448488
 31
0.0
  0
LINE
  5
FB
330
2
100
AcDbEntity
  8
0
100
AcDbLine
 10
6.393343958066453
 20
2.890410499117475
 30
0.0
 11
5.150761539592767
 21
2.890410499117475
 31
0.0
  0
CIRCLE
  5
FC
330
2
100
AcDbEntity
  8
0
100
AcDbCircle
 10
5.604423387860358
 20
2.374946316164811
 30
0.0
 40
0.296875
  0
LINE
  5
FD
330
2
100
AcDbEntity
  8
0
100
AcDbLine
 10
4.954699816654996
 20
1.562363094397997
 30
0.0
 11
4.954699816654996
 21
2.918341741158202
 31
0.0
  0
LINE
  5
FE
330
2
100
AcDbEntity
  8
0
100
AcDbLine
 10
5.079699816654996
 20
1.56243086944849
 30
0.0
 11
5.079699816654996
 21
2.783144668017282
 31
0.0
  0
LINE
  5
FF
330
2
100
AcDbEntity
  8
0
100
AcDbLine
 10
5.81708823134516
 20
1.437430869448491
 30
0.0
 11
4.954699816654996
 21
1.437363094397997
 31
0.0
  0
LINE
  5
100
330
2
100
AcDbEntity
  8
0
100
AcDbLine
 10
5.81708823134516
 20
1.562430869448491
 30
0.0
 11
4.954699816654996
 21
1.562363094397997
 31
0.0
  0
LINE
  5
101
330
2
100
AcDbEntity
  8
0
100
AcDbLine
 10
5.375007248093187
 20
2.647874712577104
 30
0.0
 11
5.04792546851886
 21
3.00163415440801
 31
0.0
  0
ARC
  5
102
330
2
100
AcDbEntity
  8
0
100
AcDbCircle
 10
5.330048157274721
 20
2.604431294130825
 30
0.0
 40
0.0625192006788431
100
AcDbArc
 50
221.1776743681361
 51
44.01775274159005
  0
LINE
  5
103
330
2
100
AcDbEntity
  8
0
100
AcDbLine
 10
5.282991735850284
 20
2.563268888270049
 30
0.0
 11
4.954699816654996
 21
2.918341741158202
 31
0.0
  0
LINE
  5
104
330
2
100
AcDbEntity
  8
0
100
AcDbLine
 10
4.829699816654996
 20
2.431809607911932
 30
0.0
 11
4.954699816654996
 21
2.431809607911932
 31
0.0
  0
LINE
  5
105
330
2
100
AcDbEntity
  8
0
100
AcDbLine
 10
4.829699816654996
 20
2.181809607911932
 30
0.0
 11
4.954699816654996
 21
2.181809607911932
 31
0.0
  0
ARC
  5
106
330
2
100
AcDbEntity
  8
0
100
AcDbCircle
 10
4.892199816654997
 20
3.062430869448488
 30
0.0
 40
0.0625
100
AcDbArc
 50
90.00000000000006
 51
180.0000000000001
  0
ARC
  5
107
330
2
100
AcDbEntity
  8
0
100
AcDbCircle
 10
5.08222526110689
 20
2.871644511687156
 30
0.0
 40
0.0625192006788431
100
AcDbArc
 50
221.1800640446587
 51
44.02014241811261
  0
CIRCLE
  5
108
330
2
100
AcDbEntity
  8
0
100
AcDbCircle
 10
5.604423387860358
 20
2.374946316164811
 30
0.0
 40
0.09375
  0
CIRCLE
  5
109
330
2
100
AcDbEntity
  8
0
100
AcDbCircle
 10
5.604423387860358
 20
2.374946316164811
 30
0.0
 40
0.171875
  0
ARC
  5
10A
330
2
100
AcDbEntity
  8
0
100
AcDbCircle
 10
6.454632041604501
 20
1.499930869448491
 30
0.0
 40
0.6406
100
AcDbArc
 50
5.598957010227847
 51
84.50994730407302
  0
CIRCLE
  5
10B
330
2
100
AcDbEntity
  8
0
100
AcDbCircle
 10
7.323123387860358
 20
2.374946316164811
 30
0.0
 40
0.296875
  0
LINE
  5
10C
330
2
100
AcDbEntity
  8
0
100
AcDbLine
 10
7.954699816654999
 20
1.56243086944849
 30
0.0
 11
7.954699816655001
 21
2.918409516208697
 31
0.0
  0
LINE
  5
10D
330
2
100
AcDbEntity
  8
0
100
AcDbLine
 10
6.393343958066453
 20
3.002429632225465
 30
0.0
 11
6.393343958066453
 21
2.137592324153284
 31
0.0
  0
LINE
  5
10E
330
2
100
AcDbEntity
  8
0
100
AcDbLine
 10
6.51592012514255
 20
3.002429632225465
 30
0.0
 11
6.51592012514255
 21
2.137592324153284
 31
0.0
  0
LINE
  5
10F
330
2
100
AcDbEntity
  8
0
100
AcDbLine
 10
7.829699816654999
 20
1.56243086944849
 30
0.0
 11
7.829699816654999
 21
2.783144668017282
 31
0.0
  0
LINE
  5
110
330
2
100
AcDbEntity
  8
0
100
AcDbLine
 10
7.954699816654999
 20
1.43743086944849
 30
0.0
 11
7.092175851863843
 21
1.43743086944849
 31
0.0
  0
LINE
  5
111
330
2
100
AcDbEntity
  8
0
100
AcDbLine
 10
7.954699816654999
 20
1.56243086944849
 30
0.0
 11
7.092175851863843
 21
1.56243086944849
 31
0.0
  0
CIRCLE
  5
112
330
2
100
AcDbEntity
  8
0
100
AcDbCircle
 10
7.323123387860358
 20
2.374946316164811
 30
0.0
 40
0.09375
  0
CIRCLE
  5
113
330
2
100
AcDbEntity
  8
0
100
AcDbCircle
 10
7.323123387860358
 20
2.374946316164811
 30
0.0
 40
0.171875
  0
LINE
  5
114
330
2
100
AcDbEntity
  8
0
100
AcDbLine
 10
7.861474164791135
 20
3.001701929458505
 30
0.0
 11
6.51592012514255
 21
3.002429632225465
 31
0.0
  0
LINE
  5
115
330
2
100
AcDbEntity
  8
0
100
AcDbLine
 10
7.758638093717226
 20
2.890410499117473
 30
0.0
 11
6.51592012514255
 21
2.890410499117475
 31
0.0
  0
LINE
  5
116
330
2
100
AcDbEntity
  8
0
100
AcDbLine
 10
7.534392385216808
 20
2.647874712577104
 30
0.0
 11
7.861474164791135
 21
3.00163415440801
 31
0.0
  0
LINE
  5
117
330
2
100
AcDbEntity
  8
0
100
AcDbLine
 10
7.626407897459711
 20
2.563268888270049
 30
0.0
 11
7.954699816654999
 21
2.918341741158202
 31
0.0
  0
ARC
  5
118
330
2
100
AcDbEntity
  8
0
100
AcDbCircle
 10
7.586369284892395
 20
2.613781320244114
 30
0.0
 40
0.0625192006788431
100
AcDbArc
 50
135.9822472584099
 51
318.8223256318639
  0
LINE
  5
119
330
2
100
AcDbEntity
  8
0
100
AcDbLine
 10
8.079699816654999
 20
2.181809607911932
 30
0.0
 11
7.954699816654999
 21
2.181809607911932
 31
0.0
  0
LINE
  5
11A
330
2
100
AcDbEntity
  8
0
100
AcDbLine
 10
8.079699816654999
 20
2.431809607911932
 30
0.0
 11
7.954699816654999
 21
2.431809607911932
 31
0.0
  0
ARC
  5
11B
330
2
100
AcDbEntity
  8
0
100
AcDbCircle
 10
7.827174372203105
 20
2.871644511687156
 30
0.0
 40
0.0625192006788431
100
AcDbArc
 50
135.9798575818874
 51
318.8199359553414
  0
ARC
  5
11C
330
2
100
AcDbEntity
  8
0
100
AcDbCircle
 10
8.017199816654998
 20
3.062498644498988
 30
0.0
 40
0.0625
100
AcDbArc
 50
0.0
 51
90.0
  0
LINE
  5
11D
330
2
100
AcDbEntity
  8
0
100
AcDbLine
 10
0.0
 20
3.000000000000001
 30
0.0
 11
0.0
 21
0.0
 31
0.0
  0
LINE
  5
11E
330
2
100
AcDbEntity
  8
0
100
AcDbLine
 10
0.125
 20
2.890344079567996
 30
0.0
 11
0.125
 21
0.1096080127890078
 31
0.0
  0
LINE
  5
11F
330
2
100
AcDbEntity
  8
0
100
AcDbLine
 10
0.9844389858995939
 20
3.125067775050497
 30
0.0
 11
0.9844389858995939
 21
-0.1250677750504963
 31
0.0
  0
LINE
  5
120
330
2
100
AcDbEntity
  8
0
100
AcDbLine
 10
0.9844389858995943
 20
-0.121219778247748
 30
0.0
 11
0.0
 21
0.0
 31
0.0
  0
LINE
  5
121
330
2
100
AcDbEntity
  8
0
100
AcDbLine
 10
0.9844389858995939
 20
0.003780221752252
 30
0.0
 11
0.125
 21
0.1096080127890078
 31
0.0
  0
LINE
  5
122
330
2
100
AcDbEntity
  8
0
100
AcDbLine
 10
0.9844389858995939
 20
0.2578030210406759
 30
0.0
 11
0.1250000000000004
 21
0.5737933881247388
 31
0.0
  0
LINE
  5
123
330
2
100
AcDbEntity
  8
0
100
AcDbLine
 10
0.9844389858995939
 20
0.8521976864438248
 30
0.0
 11
0.125
 21
0.8521976864438248
 31
0.0
  0
LINE
  5
124
330
2
100
AcDbEntity
  8
0
100
AcDbLine
 10
0.9844389858995939
 20
0.9145963226010379
 30
0.0
 11
0.125
 21
1.005803292309474
 31
0.0
  0
LINE
  5
125
330
2
100
AcDbEntity
  8
0
100
AcDbLine
 10
0.0
 20
1.005803292309474
 30
0.0
 11
0.125
 21
1.005803292309474
 31
0.0
  0
ARC
  5
126
330
2
100
AcDbEntity
  8
0
100
AcDbCircle
 10
0.8536808187610276
 20
0.6874322249495046
 30
0.0
 40
0.1192418328614338
100
AcDbArc
 50
90.00000000000003
 51
270.0
  0
LINE
  5
127
330
2
100
AcDbEntity
  8
0
100
AcDbLine
 10
0.9844389858995957
 20
0.56819039208807
 30
0.0
 11
0.8536808187610276
 21
0.5681903920880709
 31
0.0
  0
LINE
  5
128
330
2
100
AcDbEntity
  8
0
100
AcDbLine
 10
0.9844389858995957
 20
0.8066740578109375
 30
0.0
 11
0.8536808187610276
 21
0.8066740578109384
 31
0.0
  0
LINE
  5
129
330
2
100
AcDbEntity
  8
0
100
AcDbLine
 10
0.9844389858995939
 20
3.120842481035848
 30
0.0
 11
0.0
 21
3.000000000000001
 31
0.0
  0
LINE
  5
12A
330
2
100
AcDbEntity
  8
0
100
AcDbLine
 10
0.9844389858995939
 20
2.995842481035848
 30
0.0
 11
0.125
 21
2.890344079567996
 31
0.0
  0
LINE
  5
12B
330
2
100
AcDbEntity
  8
0
100
AcDbLine
 10
0.9844389858995939
 20
2.085403677398963
 30
0.0
 11
0.1249999999999898
 21
1.994196707690525
 31
0.0
  0
LINE
  5
12C
330
2
100
AcDbEntity
  8
0
100
AcDbLine
 10
0.9844389858995943
 20
2.147802313556176
 30
0.0
 11
0.125
 21
2.147802313556175
 31
0.0
  0
LINE
  5
12D
330
2
100
AcDbEntity
  8
0
100
AcDbLine
 10
0.9844389858995943
 20
1.557015858851382
 30
0.0
 11
0.1250000000000018
 21
1.557015858851381
 31
0.0
  0
LINE
  5
12E
330
2
100
AcDbEntity
  8
0
100
AcDbLine
 10
0.9844389858995943
 20
1.432015858851383
 30
0.0
 11
0.1250000000000018
 21
1.432015858851382
 31
0.0
  0
LINE
  5
12F
330
2
100
AcDbEntity
  8
0
100
AcDbLine
 10
0.9844389858995939
 20
2.742196978959325
 30
0.0
 11
0.1250000000000004
 21
2.426206611875263
 31
0.0
  0
LINE
  5
130
330
2
100
AcDbEntity
  8
0
100
AcDbLine
 10
-0.0000000000000102
 20
1.994196707690525
 30
0.0
 11
0.1249999999999898
 21
1.994196707690525
 31
0.0
  0
ARC
  5
131
330
2
100
AcDbEntity
  8
0
100
AcDbCircle
 10
0.8536808187610276
 20
2.312567775050497
 30
0.0
 40
0.1192418328614338
100
AcDbArc
 50
90.0
 51
270.0
  0
LINE
  5
132
330
2
100
AcDbEntity
  8
0
100
AcDbLine
 10
0.9844389858995957
 20
2.193325942189064
 30
0.0
 11
0.8536808187610276
 21
2.193325942189063
 31
0.0
  0
LINE
  5
133
330
2
100
AcDbEntity
  8
0
100
AcDbLine
 10
0.9844389858995957
 20
2.431809607911932
 30
0.0
 11
0.8536808187610276
 21
2.431809607911931
 31
0.0
  0
LINE
  5
134
330
2
100
AcDbEntity
  8
0
100
AcDbLine
 10
12.27825815310592
 20
1.432082278400862
 30
0.0
 11
12.27825815310592
 21
0.9902447118589546
 31
0.0
  0
LINE
  5
135
330
2
100
AcDbEntity
  8
0
100
AcDbLine
 10
12.40325815310592
 20
3.000066419549479
 30
0.0
 11
12.40325815310592
 21
0.0000664195494791
 31
0.0
  0
LINE
  5
136
330
2
100
AcDbEntity
  8
0
100
AcDbLine
 10
11.41881916720632
 20
3.125134194599975
 30
0.0
 11
11.41881916720632
 21
-0.1250013555010172
 31
0.0
  0
LINE
  5
137
330
2
100
AcDbEntity
  8
0
100
AcDbLine
 10
11.41881916720632
 20
0.8522641059933047
 30
0.0
 11
12.02825815310592
 21
0.8522641059933021
 31
0.0
  0
LINE
  5
138
330
2
100
AcDbEntity
  8
0
100
AcDbLine
 10
11.41881916720632
 20
-0.1211533586982689
 30
0.0
 11
12.40325815310592
 21
0.0000664195494791
 31
0.0
  0
LINE
  5
139
330
2
100
AcDbEntity
  8
0
100
AcDbLine
 10
11.41881916720632
 20
0.0038466413017311
 30
0.0
 11
12.27825815310592
 21
0.1096744323384868
 31
0.0
  0
LINE
  5
13A
330
2
100
AcDbEntity
  8
0
100
AcDbLine
 10
12.27825815310592
 20
0.7871197118589537
 30
0.0
 11
12.27825815310592
 21
0.5996197118589537
 31
0.0
  0
LINE
  5
13B
330
2
100
AcDbEntity
  8
0
100
AcDbLine
 10
12.02825815310592
 20
0.3964947118589537
 30
0.0
 11
12.02825815310592
 21
0.9902447118589537
 31
0.0
  0
LINE
  5
13C
330
2
100
AcDbEntity
  8
0
100
AcDbLine
 10
12.18450815310592
 20
0.5214947118589528
 30
0.0
 11
12.18450815310592
 21
0.8652447118589546
 31
0.0
  0
LINE
  5
13D
330
2
100
AcDbEntity
  8
0
100
AcDbLine
 10
12.27825815310592
 20
0.3964947118589537
 30
0.0
 11
12.27825815310592
 21
0.1096744323384868
 31
0.0
  0
LINE
  5
13E
330
2
100
AcDbEntity
  8
0
100
AcDbLine
 10
12.02825815310592
 20
0.3964947118589537
 30
0.0
 11
12.27825815310592
 21
0.3964947118589537
 31
0.0
  0
LINE
  5
13F
330
2
100
AcDbEntity
  8
0
100
AcDbLine
 10
12.18450815310592
 20
0.5214947118589537
 30
0.0
 11
12.27825815310592
 21
0.5996197118589528
 31
0.0
  0
LINE
  5
140
330
2
100
AcDbEntity
  8
0
100
AcDbLine
 10
12.02825815310592
 20
0.5214947118589537
 30
0.0
 11
12.18450815310592
 21
0.5214947118589528
 31
0.0
  0
LINE
  5
141
330
2
100
AcDbEntity
  8
0
100
AcDbLine
 10
12.27825815310592
 20
0.5996197118589528
 30
0.0
 11
12.40325815310592
 21
0.5996197118589537
 31
0.0
  0
LINE
  5
142
330
2
100
AcDbEntity
  8
0
100
AcDbLine
 10
12.18450815310592
 20
0.8652447118589528
 30
0.0
 11
12.27825815310592
 21
0.7871197118589528
 31
0.0
  0
LINE
  5
143
330
2
100
AcDbEntity
  8
0
100
AcDbLine
 10
12.27825815310592
 20
0.7871197118589528
 30
0.0
 11
12.40325815310592
 21
0.7871197118589528
 31
0.0
  0
LINE
  5
144
330
2
100
AcDbEntity
  8
0
100
AcDbLine
 10
12.02825815310592
 20
0.9902447118589537
 30
0.0
 11
12.27825815310592
 21
0.9902447118589537
 31
0.0
  0
LINE
  5
145
330
2
100
AcDbEntity
  8
0
100
AcDbLine
 10
12.02825815310592
 20
0.8652447118589537
 30
0.0
 11
12.18450815310592
 21
0.8652447118589528
 31
0.0
  0
LINE
  5
146
330
2
100
AcDbEntity
  8
0
100
AcDbLine
 10
11.41881916720632
 20
2.147868733105654
 30
0.0
 11
12.02825815310592
 21
2.147868733105656
 31
0.0
  0
LINE
  5
147
330
2
100
AcDbEntity
  8
0
100
AcDbLine
 10
11.41881916720632
 20
3.120908900585328
 30
0.0
 11
12.40325815310592
 21
3.000066419549479
 31
0.0
  0
LINE
  5
148
330
2
100
AcDbEntity
  8
0
100
AcDbLine
 10
11.41881916720632
 20
2.995908900585326
 30
0.0
 11
12.27825815310592
 21
2.890410499117475
 31
0.0
  0
LINE
  5
149
330
2
100
AcDbEntity
  8
0
100
AcDbLine
 10
11.41881916720632
 20
1.557082278400861
 30
0.0
 11
12.27825815310592
 21
1.55708227840086
 31
0.0
  0
LINE
  5
14A
330
2
100
AcDbEntity
  8
0
100
AcDbLine
 10
11.41881916720632
 20
1.432082278400862
 30
0.0
 11
12.27825815310592
 21
1.432082278400861
 31
0.0
  0
LINE
  5
14B
330
2
100
AcDbEntity
  8
0
100
AcDbLine
 10
12.18450815310592
 20
2.134888127240005
 30
0.0
 11
12.27825815310592
 21
2.213013127240005
 31
0.0
  0
LINE
  5
14C
330
2
100
AcDbEntity
  8
0
100
AcDbLine
 10
12.02825815310592
 20
2.603638127240004
 30
0.0
 11
12.02825815310592
 21
2.009888127240004
 31
0.0
  0
LINE
  5
14D
330
2
100
AcDbEntity
  8
0
100
AcDbLine
 10
12.18450815310592
 20
2.478638127240004
 30
0.0
 11
12.18450815310592
 21
2.134888127240004
 31
0.0
  0
LINE
  5
14E
330
2
100
AcDbEntity
  8
0
100
AcDbLine
 10
12.27825815310592
 20
2.009888127240004
 30
0.0
 11
12.27825815310592
 21
1.557082278400861
 31
0.0
  0
LINE
  5
14F
330
2
100
AcDbEntity
  8
0
100
AcDbLine
 10
12.02825815310592
 20
2.009888127240004
 30
0.0
 11
12.27825815310592
 21
2.009888127240004
 31
0.0
  0
LINE
  5
150
330
2
100
AcDbEntity
  8
0
100
AcDbLine
 10
12.02825815310592
 20
2.134888127240004
 30
0.0
 11
12.18450815310592
 21
2.134888127240005
 31
0.0
  0
LINE
  5
151
330
2
100
AcDbEntity
  8
0
100
AcDbLine
 10
12.27825815310592
 20
2.890410499117475
 30
0.0
 11
12.27825815310592
 21
2.603638127240004
 31
0.0
  0
LINE
  5
152
330
2
100
AcDbEntity
  8
0
100
AcDbLine
 10
12.18450815310592
 20
2.478638127240004
 30
0.0
 11
12.27825815310592
 21
2.400513127240005
 31
0.0
  0
LINE
  5
153
330
2
100
AcDbEntity
  8
0
100
AcDbLine
 10
12.27825815310592
 20
2.400513127240003
 30
0.0
 11
12.27825815310592
 21
2.213013127240005
 31
0.0
  0
LINE
  5
154
330
2
100
AcDbEntity
  8
0
100
AcDbLine
 10
12.27825815310592
 20
2.400513127240005
 30
0.0
 11
12.40325815310592
 21
2.400513127240004
 31
0.0
  0
LINE
  5
155
330
2
100
AcDbEntity
  8
0
100
AcDbLine
 10
12.27825815310592
 20
2.213013127240005
 30
0.0
 11
12.40325815310592
 21
2.213013127240005
 31
0.0
  0
LINE
  5
156
330
2
100
AcDbEntity
  8
0
100
AcDbLine
 10
12.02825815310592
 20
2.603638127240004
 30
0.0
 11
12.27825815310592
 21
2.603638127240004
 31
0.0
  0
LINE
  5
157
330
2
100
AcDbEntity
  8
0
100
AcDbLine
 10
12.02825815310592
 20
2.478638127240004
 30
0.0
 11
12.18450815310592
 21
2.478638127240004
 31
0.0
  0
LINE
  5
168
330
2
100
AcDbEntity
  8
0
100
AcDbLine
 10
8.142335366755988
 20
6.015171201177886
 30
0.0
 11
4.892199816654996
 21
6.015171201177886
 31
0.0
  0
LINE
  5
169
330
2
100
AcDbEntity
  8
0
100
AcDbLine
 10
8.017267591705492
 20
5.030732215278292
 30
0.0
 11
5.017267591705492
 21
5.030732215278292
 31
0.0
  0
LINE
  5
16A
330
2
100
AcDbEntity
  8
0
100
AcDbLine
 10
4.896047813457743
 20
6.015171201177886
 30
0.0
 11
5.017267591705492
 21
5.030732215278292
 31
0.0
  0
LINE
  5
16B
330
2
100
AcDbEntity
  8
0
100
AcDbLine
 10
8.138110072741339
 20
6.015171201177886
 30
0.0
 11
8.017267591705492
 21
5.030732215278292
 31
0.0
  0
ENDSEC
  0
SECTION
  2
OBJECTS
  0
DICTIONARY
  5
7
330
0
100
AcDbDictionary
281
     1
  3
ACAD_COLOR
350
170
  3
ACAD_GROUP
350
1F
  3
ACAD_LAYOUT
350
B
  3
ACAD_MATERIAL
350
172
  3
ACAD_MLINESTYLE
350
20
  3
ACAD_PLOTSETTINGS
350
21
  3
ACAD_PLOTSTYLENAME
350
6
  3
ACDBHEADERROUNDTRIPXREC
350
16F
  3
AcDbVariableDictionary
350
C7
  0
DICTIONARY
  5
170
102
{ACAD_REACTORS
330
7
102
}
330
7
100
AcDbDictionary
281
     1
  0
DICTIONARY
  5
1F
102
{ACAD_REACTORS
330
7
102
}
330
7
100
AcDbDictionary
281
     1
  0
DICTIONARY
  5
B
102
{ACAD_REACTORS
330
7
102
}
330
7
100
AcDbDictionary
281
     1
  3
Layout1
350
F
  3
Model
350
A
  0
DICTIONARY
  5
172
102
{ACAD_REACTORS
330
7
102
}
330
7
100
AcDbDictionary
281
     1
  0
DICTIONARY
  5
20
102
{ACAD_REACTORS
330
7
102
}
330
7
100
AcDbDictionary
281
     1
  3
STANDARD
350
22
  0
DICTIONARY
  5
21
102
{ACAD_REACTORS
330
7
102
}
330
7
100
AcDbDictionary
281
     1
  0
ACDBDICTIONARYWDFLT
  5
6
102
{ACAD_REACTORS
330
7
102
}
330
7
100
AcDbDictionary
281
     1
  3
Normal
350
5
100
AcDbDictionaryWithDefault
340
5
  0
DICTIONARY
  5
16F
102
{ACAD_REACTORS
330
7
102
}
330
7
100
AcDbDictionary
281
     1
  3
COLORDICT
350
171
  3
MATERIALDICT
350
173
  0
DICTIONARY
  5
C7
102
{ACAD_REACTORS
330
7
102
}
330
7
100
AcDbDictionary
281
     1
  3
HIDETEXT
350
16E
  0
LAYOUT
  5
F
102
{ACAD_REACTORS
330
B
102
}
102
{ACAD_XDICTIONARY
360
174
102
}
330
B
100
AcDbPlotSettings
  1

  2
X:\Program Files\AutoCAD2002\plotters\DWF ePlot (optimized for plotting).pc3
  4

  6

 40
0.0
 41
0.0
 42
0.0
 43
0.0
 44
0.0
 45
0.0
 46
0.0
 47
0.0
 48
0.0
 49
0.0
140
0.0
141
0.0
142
1.0
143
1.0
 70
   688
 72
     0
 73
     0
 74
     5
  7

 75
    16
147
1.0
148
0.0
149
0.0
100
AcDbLayout
  1
Layout1
 70
     0
 71
     1
 10
0.0
 20
0.0
 11
12.0
 21
9.0
 12
0.0
 22
0.0
 32
0.0
 14
1.000000000000000E+20
 24
1.000000000000000E+20
 34
1.000000000000000E+20
 15
-1.000000000000000E+20
 25
-1.000000000000000E+20
 35
-1.000000000000000E+20
146
0.0
 13
0.0
 23
0.0
 33
0.0
 16
1.0
 26
0.0
 36
0.0
 17
0.0
 27
1.0
 37
0.0
 76
     0
330
C
  0
LAYOUT
  5
A
102
{ACAD_REACTORS
330
B
102
}
102
{ACAD_XDICTIONARY
360
176
102
}
330
B
100
AcDbPlotSettings
  1

  2
X:\Program Files\AutoCAD2002\plotters\DWF ePlot (optimized for plotting).pc3
  4

  6

 40
0.0
 41
0.0
 42
0.0
 43
0.0
 44
0.0
 45
0.0
 46
0.0
 47
0.0
 48
0.0
 49
0.0
140
0.0
141
0.0
142
1.0
143
1.0
 70
  1712
 72
     0
 73
     0
 74
     0
  7

 75
     0
147
1.0
148
0.0
149
0.0
100
AcDbLayout
  1
Model
 70
     1
 71
     0
 10
0.0
 20
0.0
 11
12.0
 21
9.0
 12
0.0
 22
0.0
 32
0.0
 14
0.0
 24
0.0
 34
0.0
 15
0.0
 25
0.0
 35
0.0
146
0.0
 13
0.0
 23
0.0
 33
0.0
 16
1.0
 26
0.0
 36
0.0
 17
0.0
 27
1.0
 37
0.0
 76
     0
330
2
  0
MLINESTYLE
  5
22
102
{ACAD_REACTORS
330
20
102
}
330
20
100
AcDbMlineStyle
  2
STANDARD
 70
     0
  3

 62
   256
 51
90.0
 52
90.0
 71
     2
 49
0.5
 62
   256
  6
BYLAYER
 49
-0.5
 62
   256
  6
BYLAYER
  0
ACDBPLACEHOLDER
  5
5
102
{ACAD_REACTORS
330
6
102
}
330
6
  0
XRECORD
  5
171
102
{ACAD_REACTORS
330
16F
102
}
330
16F
100
AcDbXrecord
340
170
  0
XRECORD
  5
173
102
{ACAD_REACTORS
330
16F
102
}
330
16F
100
AcDbXrecord
340
172
  0
DICTIONARYVAR
  5
16E
102
{ACAD_REACTORS
330
C7
102
}
330
C7
100
DictionaryVariables
280
     0
  1
0
  0
DICTIONARY
  5
174
330
F
100
AcDbDictionary
280
     1
281
     1
  3
ACAD_XREC_ROUNDTRIP
360
175
  0
DICTIONARY
  5
176
330
A
100
AcDbDictionary
280
     1
281
     1
  3
ACAD_XREC_ROUNDTRIP
360
177
  0
XRECORD
  5
175
102
{ACAD_REACTORS
330
174
102
}
330
174
100
AcDbXrecord
102
SHADEPLOT
 70
     0
102
SHADEPLOTRESLEVEL
 70
     2
102
SHADEPLOTCUSTOMDPI
 70
   300
  0
XRECORD
  5
177
102
{ACAD_REACTORS
330
176
102
}
330
176
100
AcDbXrecord
102
SHADEPLOT
 70
     0
102
SHADEPLOTRESLEVEL
 70
     2
102
SHADEPLOTCUSTOMDPI
 70
   300
  0
ENDSEC
  0
EOF
