  0
SECTION
  2
HEADER
  9
$ACADVER
  1
AC1015
  9
$ACADMAINTVER
 70
     6
  9
$DWGCODEPAGE
  3
ANSI_1252
  9
$INSBASE
 10
0.0
 20
0.0
 30
0.0
  9
$EXTMIN
 10
-0.0005339955117734
 20
-0.1346365770196591
 30
-0.0015258207003583
  9
$EXTMAX
 10
13.38641981897573
 20
8.817557196048977
 30
0.0000000349246037
  9
$LIMMIN
 10
0.0
 20
0.0
  9
$LIMMAX
 10
17.4993
 20
13.3328
  9
$ORTHOMODE
 70
     1
  9
$REGENMODE
 70
     1
  9
$FILLMODE
 70
     1
  9
$QTEXTMODE
 70
     0
  9
$MIRRTEXT
 70
     1
  9
$LTSCALE
 40
0.5
  9
$ATTMODE
 70
     1
  9
$TEXTSIZE
 40
0.149994
  9
$TRACEWID
 40
0.05
  9
$TEXTSTYLE
  7
STANDARD
  9
$CLAYER
  8
0
  9
$CELTYPE
  6
BYLAYER
  9
$CECOLOR
 62
   256
  9
$CELTSCALE
 40
1.0
  9
$DISPSILH
 70
     0
  9
$DIMSCALE
 40
0.0
  9
$DIMASZ
 40
0.1875
  9
$DIMEXO
 40
0.0625
  9
$DIMDLI
 40
0.375
  9
$DIMRND
 40
0.0
  9
$DIMDLE
 40
0.0
  9
$DIMEXE
 40
0.078125
  9
$DIMTP
 40
0.0
  9
$DIMTM
 40
0.0
  9
$DIMTXT
 40
0.125
  9
$DIMCEN
 40
-0.0625
  9
$DIMTSZ
 40
0.0
  9
$DIMTOL
 70
     0
  9
$DIMLIM
 70
     0
  9
$DIMTIH
 70
     1
  9
$DIMTOH
 70
     1
  9
$DIMSE1
 70
     0
  9
$DIMSE2
 70
     0
  9
$DIMTAD
 70
     0
  9
$DIMZIN
 70
     0
  9
$DIMBLK
  1

  9
$DIMASO
 70
     0
  9
$DIMSHO
 70
     0
  9
$DIMPOST
  1

  9
$DIMAPOST
  1

  9
$DIMALT
 70
     0
  9
$DIMALTD
 70
     2
  9
$DIMALTF
 40
25.4
  9
$DIMLFAC
 40
1.0
  9
$DIMTOFL
 70
     1
  9
$DIMTVP
 40
0.0
  9
$DIMTIX
 70
     0
  9
$DIMSOXD
 70
     0
  9
$DIMSAH
 70
     0
  9
$DIMBLK1
  1

  9
$DIMBLK2
  1

  9
$DIMSTYLE
  2
STANDARD
  9
$DIMCLRD
 70
     0
  9
$DIMCLRE
 70
     0
  9
$DIMCLRT
 70
     0
  9
$DIMTFAC
 40
1.0
  9
$DIMGAP
 40
0.125
  9
$DIMJUST
 70
     0
  9
$DIMSD1
 70
     0
  9
$DIMSD2
 70
     0
  9
$DIMTOLJ
 70
     1
  9
$DIMTZIN
 70
     0
  9
$DIMALTZ
 70
     0
  9
$DIMALTTZ
 70
     0
  9
$DIMUPT
 70
     1
  9
$DIMDEC
 70
     5
  9
$DIMTDEC
 70
     4
  9
$DIMALTU
 70
     2
  9
$DIMALTTD
 70
     2
  9
$DIMTXSTY
  7
STANDARD
  9
$DIMAUNIT
 70
     0
  9
$DIMADEC
 70
     0
  9
$DIMALTRND
 40
0.0
  9
$DIMAZIN
 70
     0
  9
$DIMDSEP
 70
    46
  9
$DIMATFIT
 70
     3
  9
$DIMFRAC
 70
     2
  9
$DIMLDRBLK
  1

  9
$DIMLUNIT
 70
     5
  9
$DIMLWD
 70
    -2
  9
$DIMLWE
 70
    -2
  9
$DIMTMOVE
 70
     0
  9
$LUNITS
 70
     5
  9
$LUPREC
 70
     4
  9
$SKETCHINC
 40
0.1
  9
$FILLETRAD
 40
0.0
  9
$AUNITS
 70
     0
  9
$AUPREC
 70
     0
  9
$MENU
  1
acad
  9
$ELEVATION
 40
0.0
  9
$PELEVATION
 40
0.0
  9
$THICKNESS
 40
0.0
  9
$LIMCHECK
 70
     0
  9
$CHAMFERA
 40
0.0
  9
$CHAMFERB
 40
0.0
  9
$CHAMFERC
 40
0.0
  9
$CHAMFERD
 40
0.0
  9
$SKPOLY
 70
     0
  9
$TDCREATE
 40
2448958.706114815
  9
$TDUCREATE
 40
2448959.039448148
  9
$TDUPDATE
 40
2454159.747129896
  9
$TDUUPDATE
 40
2454160.080463229
  9
$TDINDWG
 40
0.8748025463
  9
$TDUSRTIMER
 40
0.8748025463
  9
$USRTIMER
 70
     1
  9
$ANGBASE
 50
0.0
  9
$ANGDIR
 70
     0
  9
$PDMODE
 70
     0
  9
$PDSIZE
 40
0.0
  9
$PLINEWID
 40
0.0
  9
$SPLFRAME
 70
     0
  9
$SPLINETYPE
 70
     6
  9
$SPLINESEGS
 70
     8
  9
$HANDSEED
  5
222
  9
$SURFTAB1
 70
     6
  9
$SURFTAB2
 70
     6
  9
$SURFTYPE
 70
     6
  9
$SURFU
 70
     6
  9
$SURFV
 70
     6
  9
$UCSBASE
  2

  9
$UCSNAME
  2

  9
$UCSORG
 10
0.0
 20
0.0
 30
0.0
  9
$UCSXDIR
 10
1.0
 20
0.0
 30
0.0
  9
$UCSYDIR
 10
0.0
 20
1.0
 30
0.0
  9
$UCSORTHOREF
  2

  9
$UCSORTHOVIEW
 70
     0
  9
$UCSORGTOP
 10
0.0
 20
0.0
 30
0.0
  9
$UCSORGBOTTOM
 10
0.0
 20
0.0
 30
0.0
  9
$UCSORGLEFT
 10
0.0
 20
0.0
 30
0.0
  9
$UCSORGRIGHT
 10
0.0
 20
0.0
 30
0.0
  9
$UCSORGFRONT
 10
0.0
 20
0.0
 30
0.0
  9
$UCSORGBACK
 10
0.0
 20
0.0
 30
0.0
  9
$PUCSBASE
  2

  9
$PUCSNAME
  2

  9
$PUCSORG
 10
0.0
 20
0.0
 30
0.0
  9
$PUCSXDIR
 10
1.0
 20
0.0
 30
0.0
  9
$PUCSYDIR
 10
0.0
 20
1.0
 30
0.0
  9
$PUCSORTHOREF
  2

  9
$PUCSORTHOVIEW
 70
     0
  9
$PUCSORGTOP
 10
0.0
 20
0.0
 30
0.0
  9
$PUCSORGBOTTOM
 10
0.0
 20
0.0
 30
0.0
  9
$PUCSORGLEFT
 10
0.0
 20
0.0
 30
0.0
  9
$PUCSORGRIGHT
 10
0.0
 20
0.0
 30
0.0
  9
$PUCSORGFRONT
 10
0.0
 20
0.0
 30
0.0
  9
$PUCSORGBACK
 10
0.0
 20
0.0
 30
0.0
  9
$USERI1
 70
     0
  9
$USERI2
 70
     0
  9
$USERI3
 70
     0
  9
$USERI4
 70
     0
  9
$USERI5
 70
     0
  9
$USERR1
 40
0.0
  9
$USERR2
 40
0.0
  9
$USERR3
 40
0.0
  9
$USERR4
 40
0.0
  9
$USERR5
 40
0.0
  9
$WORLDVIEW
 70
     1
  9
$SHADEDGE
 70
     3
  9
$SHADEDIF
 70
    70
  9
$TILEMODE
 70
     1
  9
$MAXACTVP
 70
    16
  9
$PINSBASE
 10
0.0
 20
0.0
 30
0.0
  9
$PLIMCHECK
 70
     0
  9
$PEXTMIN
 10
1.000000000000000E+20
 20
1.000000000000000E+20
 30
1.000000000000000E+20
  9
$PEXTMAX
 10
-1.000000000000000E+20
 20
-1.000000000000000E+20
 30
-1.000000000000000E+20
  9
$PLIMMIN
 10
0.0
 20
0.0
  9
$PLIMMAX
 10
12.0
 20
9.0
  9
$UNITMODE
 70
     0
  9
$VISRETAIN
 70
     0
  9
$PLINEGEN
 70
     0
  9
$PSLTSCALE
 70
     0
  9
$TREEDEPTH
 70
  3020
  9
$CMLSTYLE
  2
STANDARD
  9
$CMLJUST
 70
     0
  9
$CMLSCALE
 40
1.0
  9
$PROXYGRAPHICS
 70
     1
  9
$MEASUREMENT
 70
     0
  9
$CELWEIGHT
370
    -1
  9
$ENDCAPS
280
     0
  9
$JOINSTYLE
280
     0
  9
$LWDISPLAY
290
     0
  9
$INSUNITS
 70
     0
  9
$HYPERLINKBASE
  1

  9
$STYLESHEET
  1

  9
$XEDIT
290
     1
  9
$CEPSNTYPE
380
     0
  9
$PSTYLEMODE
290
     1
  9
$FINGERPRINTGUID
  2
{1CA3907D-B622-463F-B03A-C6115AE1CF58}
  9
$VERSIONGUID
  2
{392870B5-6C91-42ED-9E69-0323268D59FD}
  9
$EXTNAMES
290
     1
  9
$PSVPSCALE
 40
0.0
  9
$OLESTARTUP
290
     0
  0
ENDSEC
  0
SECTION
  2
CLASSES
  0
CLASS
  1
DICTIONARYVAR
  2
AcDbDictionaryVar
  3
AutoCAD 2000
 90
        0
280
     0
281
     0
  0
CLASS
  1
LWPOLYLINE
  2
AcDbPolyline
  3
AutoCAD 2000
 90
        0
280
     0
281
     1
  0
CLASS
  1
HATCH
  2
AcDbHatch
  3
AutoCAD 2000
 90
        0
280
     0
281
     1
  0
CLASS
  1
ACDBDICTIONARYWDFLT
  2
AcDbDictionaryWithDefault
  3
AutoCAD 2000
 90
        0
280
     0
281
     0
  0
CLASS
  1
ACDBPLACEHOLDER
  2
AcDbPlaceHolder
  3
ObjectDBX Classes
 90
        0
280
     0
281
     0
  0
CLASS
  1
LAYOUT
  2
AcDbLayout
  3
ObjectDBX Classes
 90
        0
280
     0
281
     0
  0
CLASS
  1
TABLESTYLE
  2
AcDbTableStyle
  3
ObjectDBX Classes
 90
     2047
280
     1
281
     0
  0
ENDSEC
  0
SECTION
  2
TABLES
  0
TABLE
  2
VPORT
  5
19
330
0
100
AcDbSymbolTable
 70
     2
  0
VPORT
  5
212
330
19
100
AcDbSymbolTableRecord
100
AcDbViewportTableRecord
  2
*Active
 70
     0
 10
0.0
 20
0.0
 11
1.0
 21
1.0
 12
8.749383002244114
 22
6.599081711490171
 13
0.0
 23
0.0
 14
0.063
 24
0.063
 15
0.25
 25
0.25
 16
0.0
 26
0.0
 36
1.0
 17
0.0
 27
0.0
 37
0.0
 40
13.63542954887438
 41
1.814583333333333
 42
50.0
 43
0.0
 44
0.0
 50
0.0
 51
0.0
 71
     0
 72
   100
 73
     1
 74
     1
 75
     0
 76
     0
 77
     0
 78
     0
281
     0
 65
     1
110
0.0
120
0.0
130
0.0
111
1.0
121
0.0
131
0.0
112
0.0
122
1.0
132
0.0
 79
     0
146
0.0
  0
ENDTAB
  0
TABLE
  2
LTYPE
  5
14
330
0
100
AcDbSymbolTable
 70
     2
  0
LTYPE
  5
15
330
14
100
AcDbSymbolTableRecord
100
AcDbLinetypeTableRecord
  2
BYBLOCK
 70
     0
  3

 72
    65
 73
     0
 40
0.0
  0
LTYPE
  5
16
330
14
100
AcDbSymbolTableRecord
100
AcDbLinetypeTableRecord
  2
BYLAYER
 70
     0
  3

 72
    65
 73
     0
 40
0.0
  0
LTYPE
  5
8
330
14
100
AcDbSymbolTableRecord
100
AcDbLinetypeTableRecord
  2
CONTINUOUS
 70
     0
  3
Solid line
 72
    65
 73
     0
 40
0.0
  0
LTYPE
  5
20E
330
14
100
AcDbSymbolTableRecord
100
AcDbLinetypeTableRecord
  2
HIDDEN
 70
     0
  3
Hidden __ __ __ __ __ __ __ __ __ __ __ __ __ _
 72
    65
 73
     2
 40
0.375
 49
0.25
 74
     0
 49
-0.125
 74
     0
  0
ENDTAB
  0
TABLE
  2
LAYER
  5
10
102
{ACAD_XDICTIONARY
360
20F
102
}
330
0
100
AcDbSymbolTable
 70
     1
  0
LAYER
  5
4
330
10
100
AcDbSymbolTableRecord
100
AcDbLayerTableRecord
  2
0
 70
     0
 62
     7
  6
CONTINUOUS
370
    -3
390
5
  0
ENDTAB
  0
TABLE
  2
STYLE
  5
11
330
0
100
AcDbSymbolTable
 70
     2
  0
STYLE
  5
12
330
11
100
AcDbSymbolTableRecord
100
AcDbTextStyleTableRecord
  2
STANDARD
 70
     0
 40
0.0
 41
1.0
 50
0.0
 71
     0
 42
0.149994
  3
TXT
  4

  0
STYLE
  5
20D
330
11
100
AcDbSymbolTableRecord
100
AcDbTextStyleTableRecord
  2

 70
     1
 40
0.0
 41
1.0
 50
0.0
 71
     0
 42
0.149994
  3
ltypeshp.shx
  4

  0
ENDTAB
  0
TABLE
  2
VIEW
  5
17
330
0
100
AcDbSymbolTable
 70
     0
  0
ENDTAB
  0
TABLE
  2
UCS
  5
18
330
0
100
AcDbSymbolTable
 70
     0
  0
ENDTAB
  0
TABLE
  2
APPID
  5
1B
330
0
100
AcDbSymbolTable
 70
     1
  0
APPID
  5
1C
330
1B
100
AcDbSymbolTableRecord
100
AcDbRegAppTableRecord
  2
ACAD
 70
     0
  0
ENDTAB
  0
TABLE
  2
DIMSTYLE
  5
1D
330
0
100
AcDbSymbolTable
 70
     1
100
AcDbDimStyleTable
  0
DIMSTYLE
105
24
330
1D
100
AcDbSymbolTableRecord
100
AcDbDimStyleTableRecord
  2
STANDARD
 70
     0
  3

  4

340
12
  0
ENDTAB
  0
TABLE
  2
BLOCK_RECORD
  5
1
330
0
100
AcDbSymbolTable
 70
     0
  0
BLOCK_RECORD
  5
2
330
1
100
AcDbSymbolTableRecord
100
AcDbBlockTableRecord
  2
*MODEL_SPACE
340
A
  0
BLOCK_RECORD
  5
C
330
1
100
AcDbSymbolTableRecord
100
AcDbBlockTableRecord
  2
*PAPER_SPACE
340
F
  0
ENDTAB
  0
ENDSEC
  0
SECTION
  2
BLOCKS
  0
BLOCK
  5
3
330
2
100
AcDbEntity
  8
0
100
AcDbBlockBegin
  2
*MODEL_SPACE
 70
     0
 10
0.0
 20
0.0
 30
0.0
  3
*MODEL_SPACE
  1

  4

  0
ENDBLK
  5
9
330
2
100
AcDbEntity
  8
0
100
AcDbBlockEnd
  0
BLOCK
  5
D
330
C
100
AcDbEntity
 67
     1
  8
0
100
AcDbBlockBegin
  2
*PAPER_SPACE
 70
     0
 10
0.0
 20
0.0
 30
0.0
  3
*PAPER_SPACE
  1

  4

  0
ENDBLK
  5
E
330
C
100
AcDbEntity
 67
     1
  8
0
100
AcDbBlockEnd
  0
ENDSEC
  0
SECTION
  2
ENTITIES
  0
LINE
  5
146
330
2
100
AcDbEntity
  8
0
100
AcDbLine
 10
5.530870711419927
 20
5.120834651004463
 30
0.0
 11
5.530993354224032
 21
-0.058781453543693
 31
0.0
  0
LINE
  5
147
330
2
100
AcDbEntity
  8
0
100
AcDbLine
 10
7.094531990540517
 20
1.847428997381715
 30
0.0
 11
7.09451372885626
 21
2.468603139242919
 31
0.0
  0
LINE
  5
148
330
2
100
AcDbEntity
  8
0
100
AcDbLine
 10
7.2171081576418
 20
1.847429942522262
 30
0.0
 11
7.217089895879386
 21
2.468606742817358
 31
0.0
  0
LINE
  5
149
330
2
100
AcDbEntity
  8
0
100
AcDbLine
 10
8.655742148982712
 20
2.468563094397998
 30
0.0
 11
8.655742148982714
 21
0.1039535685276904
 31
0.0
  0
LINE
  5
14A
330
2
100
AcDbEntity
  8
0
100
AcDbLine
 10
8.530742148982712
 20
2.468630869448491
 30
0.0
 11
8.530742148982711
 21
0.2271232764117732
 31
0.0
  0
LINE
  5
14B
330
2
100
AcDbEntity
  8
0
100
AcDbLine
 10
8.780864791786819
 20
5.120834651004463
 30
0.0
 11
8.780742148982712
 21
-0.058781453543693
 31
0.0
  0
LINE
  5
14C
330
2
100
AcDbEntity
  8
0
100
AcDbLine
 10
5.655993354224032
 20
2.468563094397998
 30
0.0
 11
5.655993354224031
 21
0.1039535685276904
 31
0.0
  0
LINE
  5
14D
330
2
100
AcDbEntity
  8
0
100
AcDbLine
 10
5.780993354224032
 20
2.468630869448491
 30
0.0
 11
5.780993354224034
 21
0.2271232764117732
 31
0.0
  0
LINE
  5
14E
330
2
100
AcDbEntity
  8
0
100
AcDbLine
 10
5.749167752991593
 20
0.0020187165641357
 30
0.0
 11
7.094586265343754
 21
0.0012627922409383
 31
0.0
  0
LINE
  5
14F
330
2
100
AcDbEntity
  8
0
100
AcDbLine
 10
7.094582972131914
 20
0.1132819253005177
 30
0.0
 11
5.852000554195198
 21
0.1132453950487715
 31
0.0
  0
LINE
  5
150
330
2
100
AcDbEntity
  8
0
100
AcDbLine
 10
8.718445726594663
 20
-0.121258480801572
 30
0.0
 11
5.593445725952603
 21
-0.121282576547765
 31
0.0
  0
ARC
  5
151
330
2
100
AcDbEntity
  8
0
100
AcDbCircle
 10
6.858078742221739
 20
1.25367071503082
 30
0.0
 40
0.5000009536734069
100
AcDbArc
 50
89.88977874178542
 51
270.113590095917
  0
ARC
  5
152
330
2
100
AcDbEntity
  8
0
100
AcDbCircle
 10
6.85066900321754
 20
1.253670497194459
 30
0.0
 40
0.5938092223542608
100
AcDbArc
 50
89.19247560475388
 51
270.8108932329486
  0
ARC
  5
153
330
2
100
AcDbEntity
  8
0
100
AcDbCircle
 10
6.859055304721316
 20
1.253670743740443
 30
0.0
 40
0.46875
100
AcDbArc
 50
90.0016844188512
 51
270.0016844188512
  0
ARC
  5
154
330
2
100
AcDbEntity
  8
0
100
AcDbCircle
 10
5.783463724044149
 20
0.1320093675965826
 30
0.0
 40
0.0625192006788431
100
AcDbArc
 50
315.9815420007386
 51
138.8216203741926
  0
LINE
  5
155
330
2
100
AcDbEntity
  8
0
100
AcDbLine
 10
5.95985921482105
 20
0.2302927824295384
 30
0.0
 11
5.749167752991593
 21
0.0020187165641357
 31
0.0
  0
ARC
  5
156
330
2
100
AcDbEntity
  8
0
100
AcDbCircle
 10
5.593493354224032
 20
-0.058781453543693
 30
0.0
 40
0.0625
100
AcDbArc
 50
179.9999999999999
 51
269.9999999999999
  0
LINE
  5
157
330
2
100
AcDbEntity
  8
0
100
AcDbLine
 10
5.873256759345863
 20
0.3203673463756225
 30
0.0
 11
5.6559396524831
 21
0.0853083890691781
 31
0.0
  0
CIRCLE
  5
158
330
2
100
AcDbEntity
  8
0
100
AcDbCircle
 10
6.155927351908842
 20
0.5037217604164628
 30
0.0
 40
0.2707949300924284
  0
CIRCLE
  5
159
330
2
100
AcDbEntity
  8
0
100
AcDbCircle
 10
6.155927351908842
 20
0.5037217604164628
 30
0.0
 40
0.1875
  0
CIRCLE
  5
15A
330
2
100
AcDbEntity
  8
0
100
AcDbCircle
 10
6.155927351908842
 20
0.5037217604164628
 30
0.0
 40
0.0855
  0
ARC
  5
15B
330
2
100
AcDbEntity
  8
0
100
AcDbCircle
 10
5.914898846843944
 20
0.2737348791202479
 30
0.0
 40
0.0625192006788431
100
AcDbArc
 50
315.9839316772612
 51
138.8240100507152
  0
LINE
  5
15C
330
2
100
AcDbEntity
  8
0
100
AcDbLine
 10
5.530993354224032
 20
1.216772054613686
 30
0.0
 11
5.655993354224032
 21
1.216772054613686
 31
0.0
  0
LINE
  5
15D
330
2
100
AcDbEntity
  8
0
100
AcDbLine
 10
5.530993354224032
 20
1.466772054613686
 30
0.0
 11
5.655993354224032
 21
1.466772054613686
 31
0.0
  0
ARC
  5
15E
330
2
100
AcDbEntity
  8
0
100
AcDbCircle
 10
8.52841283395416
 20
0.1320900654083062
 30
0.0
 40
0.0625192006788431
100
AcDbArc
 50
41.18174846350987
 51
224.0218268369638
  0
LINE
  5
15F
330
2
100
AcDbEntity
  8
0
100
AcDbLine
 10
8.352011564681776
 20
0.2303631084910478
 30
0.0
 11
8.56271644804802
 21
0.0021014311113916
 31
0.0
  0
LINE
  5
160
330
2
100
AcDbEntity
  8
0
100
AcDbLine
 10
7.094586265343754
 20
0.0012627922409383
 30
0.0
 11
7.09456690148237
 21
0.659927667208029
 31
0.0
  0
LINE
  5
161
330
2
100
AcDbEntity
  8
0
100
AcDbLine
 10
7.21716243236688
 20
0.001266395815378
 30
0.0
 11
7.217143068505498
 21
0.6599312707824669
 31
0.0
  0
LINE
  5
162
330
2
100
AcDbEntity
  8
0
100
AcDbLine
 10
8.562716450040515
 20
0.0020336560609273
 30
0.0
 11
7.21716243236688
 21
0.001266395815378
 31
0.0
  0
ARC
  5
163
330
2
100
AcDbEntity
  8
0
100
AcDbCircle
 10
8.718443889178728
 20
-0.0587584808285797
 30
0.0
 40
0.0625
100
AcDbArc
 50
270.0016844188512
 51
0.0016844188512174
  0
LINE
  5
164
330
2
100
AcDbEntity
  8
0
100
AcDbLine
 10
8.438608723865221
 20
0.3204427642728387
 30
0.0
 11
8.655939651186682
 21
0.0853965850339762
 31
0.0
  0
ARC
  5
165
330
2
100
AcDbEntity
  8
0
100
AcDbCircle
 10
7.453731866964329
 20
1.253688226431502
 30
0.0
 40
0.5000009536734069
100
AcDbArc
 50
269.8897787417855
 51
90.113590095917
  0
ARC
  5
166
330
2
100
AcDbEntity
  8
0
100
AcDbCircle
 10
7.452755304464752
 20
1.253688197721878
 30
0.0
 40
0.46875
100
AcDbArc
 50
270.0016844188515
 51
90.001684418851
  0
ARC
  5
167
330
2
100
AcDbEntity
  8
0
100
AcDbCircle
 10
7.461141605968528
 20
1.253688444267862
 30
0.0
 40
0.5938092223542608
100
AcDbArc
 50
269.1924756047538
 51
90.81089323294854
  0
LINE
  5
168
330
2
100
AcDbEntity
  8
0
100
AcDbLine
 10
8.459877107192687
 20
0.1133220631116956
 30
0.0
 11
7.21715913915504
 21
0.1132855288749575
 31
0.0
  0
LINE
  5
169
330
2
100
AcDbEntity
  8
0
100
AcDbLine
 10
7.452769085084253
 20
0.7849381979244434
 30
0.0
 11
6.859069085340813
 21
0.7849207439430099
 31
0.0
  0
LINE
  5
16A
330
2
100
AcDbEntity
  8
0
100
AcDbLine
 10
7.452770003792219
 20
0.7536881979379473
 30
0.0
 11
6.859070004048782
 21
0.7536707439565138
 31
0.0
  0
LINE
  5
16B
330
2
100
AcDbEntity
  8
0
100
AcDbLine
 10
7.09456690148237
 20
0.659927667208029
 30
0.0
 11
6.859072760172682
 21
0.6599207439970272
 31
0.0
  0
LINE
  5
16C
330
2
100
AcDbEntity
  8
0
100
AcDbLine
 10
7.452772759916119
 20
0.6599381979784607
 30
0.0
 11
7.217143068505498
 21
0.6599312707824669
 31
0.0
  0
CIRCLE
  5
16D
330
2
100
AcDbEntity
  8
0
100
AcDbCircle
 10
8.155927351044563
 20
0.5037805577263264
 30
0.0
 40
0.1875
  0
CIRCLE
  5
16E
330
2
100
AcDbEntity
  8
0
100
AcDbCircle
 10
8.155927351044563
 20
0.5037805577263264
 30
0.0
 40
0.2707949300924284
  0
CIRCLE
  5
16F
330
2
100
AcDbEntity
  8
0
100
AcDbCircle
 10
8.155927351044563
 20
0.5037805577263264
 30
0.0
 40
0.0855
  0
ARC
  5
170
330
2
100
AcDbEntity
  8
0
100
AcDbCircle
 10
8.396969378302744
 20
0.2738078486553501
 30
0.0
 40
0.0625192006788431
100
AcDbArc
 50
41.17935878698731
 51
224.0194371604413
  0
LINE
  5
171
330
2
100
AcDbEntity
  8
0
100
AcDbLine
 10
7.452741523845255
 20
1.722438197519312
 30
0.0
 11
6.859041524101816
 21
1.722420743537878
 31
0.0
  0
LINE
  5
172
330
2
100
AcDbEntity
  8
0
100
AcDbLine
 10
7.452740605137286
 20
1.753688197505807
 30
0.0
 11
6.859040605393849
 21
1.753670743524373
 31
0.0
  0
LINE
  5
173
330
2
100
AcDbEntity
  8
0
100
AcDbLine
 10
7.094531990540517
 20
1.847428997381713
 30
0.0
 11
6.842760694160265
 21
1.847427056064193
 31
0.0
  0
LINE
  5
174
330
2
100
AcDbEntity
  8
0
100
AcDbLine
 10
7.452737849013388
 20
1.847438197465294
 30
0.0
 11
7.217108157602766
 21
1.847431270269301
 31
0.0
  0
LINE
  5
175
330
2
100
AcDbEntity
  8
0
100
AcDbLine
 10
8.780742148982712
 20
1.216772054613686
 30
0.0
 11
8.655742148982712
 21
1.216772054613686
 31
0.0
  0
LINE
  5
176
330
2
100
AcDbEntity
  8
0
100
AcDbLine
 10
8.780742148982712
 20
1.466772054613686
 30
0.0
 11
8.655742148982712
 21
1.466772054613686
 31
0.0
  0
LINE
  5
177
330
2
100
AcDbEntity
  8
0
100
AcDbLine
 10
7.094513730033523
 20
2.468563094397998
 30
0.0
 11
5.655993354224032
 21
2.468563094397998
 31
0.0
  0
LINE
  5
178
330
2
100
AcDbEntity
  8
0
100
AcDbLine
 10
7.094511893014829
 20
2.593496025389616
 30
0.0
 11
5.655990396065615
 21
2.593496025389615
 31
0.0
  0
ARC
  5
179
330
2
100
AcDbEntity
  8
0
100
AcDbCircle
 10
6.850631450095971
 20
3.808421498206107
 30
0.0
 40
0.5938092223542608
100
AcDbArc
 50
89.19079118590264
 51
270.8092088140974
  0
ARC
  5
17A
330
2
100
AcDbEntity
  8
0
100
AcDbCircle
 10
6.858041189103375
 20
3.808421498206107
 30
0.0
 40
0.5000009536734069
100
AcDbArc
 50
89.88809432293419
 51
270.1119056770658
  0
ARC
  5
17B
330
2
100
AcDbEntity
  8
0
100
AcDbCircle
 10
6.859017751603371
 20
3.808421498206107
 30
0.0
 40
0.46875
100
AcDbArc
 50
89.99999999999999
 51
270.0
  0
LINE
  5
17C
330
2
100
AcDbEntity
  8
0
100
AcDbLine
 10
8.718367751603374
 20
5.183405385731357
 30
0.0
 11
5.59336775160337
 21
5.183337610680857
 31
0.0
  0
LINE
  5
17D
330
2
100
AcDbEntity
  8
0
100
AcDbLine
 10
5.749093403467235
 20
5.060040895640379
 30
0.0
 11
7.094511893014827
 21
5.060836373457834
 31
0.0
  0
LINE
  5
17E
330
2
100
AcDbEntity
  8
0
100
AcDbLine
 10
7.094511893014827
 20
4.948817240349845
 30
0.0
 11
5.851929474541142
 21
4.948817240349845
 31
0.0
  0
LINE
  5
17F
330
2
100
AcDbEntity
  8
0
100
AcDbLine
 10
5.655990396065615
 20
2.593496025389615
 30
0.0
 11
5.65586775160337
 21
4.976748482390571
 31
0.0
  0
LINE
  5
180
330
2
100
AcDbEntity
  8
0
100
AcDbLine
 10
5.780990399135005
 20
2.593434169832147
 30
0.0
 11
5.780884250427869
 21
4.834941760355477
 31
0.0
  0
LINE
  5
181
330
2
100
AcDbEntity
  8
0
100
AcDbLine
 10
5.530944435319043
 20
3.595281144592716
 30
0.0
 11
5.655944435178881
 21
3.595287064085666
 31
0.0
  0
LINE
  5
182
330
2
100
AcDbEntity
  8
0
100
AcDbLine
 10
5.530932596333145
 20
3.845281144312395
 30
0.0
 11
5.655932596192983
 21
3.845287063805344
 31
0.0
  0
ARC
  5
183
330
2
100
AcDbEntity
  8
0
100
AcDbCircle
 10
5.783393196055265
 20
4.930051252919524
 30
0.0
 40
0.0625192006788431
100
AcDbArc
 50
221.1800640446587
 51
44.02014241811261
  0
LINE
  5
184
330
2
100
AcDbEntity
  8
0
100
AcDbLine
 10
5.873191768789397
 20
4.741695914016342
 30
0.0
 11
5.65586775160337
 21
4.976748482390571
 31
0.0
  0
ARC
  5
185
330
2
100
AcDbEntity
  8
0
100
AcDbCircle
 10
5.593367751603371
 20
5.120837610680857
 30
0.0
 40
0.0625
100
AcDbArc
 50
90.00000000000006
 51
180.0000000000001
  0
ARC
  5
186
330
2
100
AcDbEntity
  8
0
100
AcDbCircle
 10
5.593370711349846
 20
5.120837610750938
 30
0.0
 40
0.0625
100
AcDbArc
 50
90.00271329570379
 51
180.0027132957038
  0
ARC
  5
187
330
2
100
AcDbEntity
  8
0
100
AcDbCircle
 10
5.91483248533767
 20
4.788329605472926
 30
0.0
 40
0.0625192006788431
100
AcDbArc
 50
221.1776743681361
 51
44.01775274159005
  0
CIRCLE
  5
188
330
2
100
AcDbEntity
  8
0
100
AcDbCircle
 10
6.15586775160337
 20
4.558349810189947
 30
0.0
 40
0.2707949300924284
  0
CIRCLE
  5
189
330
2
100
AcDbEntity
  8
0
100
AcDbCircle
 10
6.15586775160337
 20
4.558349810189947
 30
0.0
 40
0.0855
  0
CIRCLE
  5
18A
330
2
100
AcDbEntity
  8
0
100
AcDbCircle
 10
6.15586775160337
 20
4.558349810189947
 30
0.0
 40
0.1875
  0
LINE
  5
18B
330
2
100
AcDbEntity
  8
0
100
AcDbLine
 10
5.959791576156135
 20
4.831773023919206
 30
0.0
 11
5.749093403467235
 21
5.060040895640379
 31
0.0
  0
LINE
  5
18C
330
2
100
AcDbEntity
  8
0
100
AcDbLine
 10
8.655745107141129
 20
2.593496025389615
 30
0.0
 11
8.655867751603374
 21
4.976748482390571
 31
0.0
  0
LINE
  5
18D
330
2
100
AcDbEntity
  8
0
100
AcDbLine
 10
8.530745104071739
 20
2.593434169832147
 30
0.0
 11
8.530851252778875
 21
4.834941760355477
 31
0.0
  0
ARC
  5
18E
330
2
100
AcDbEntity
  8
0
100
AcDbCircle
 10
7.46110405311077
 20
3.808421498206105
 30
0.0
 40
0.5938092223542608
100
AcDbArc
 50
269.1907911859026
 51
90.80920881409732
  0
ARC
  5
18F
330
2
100
AcDbEntity
  8
0
100
AcDbCircle
 10
7.45369431410337
 20
3.808421498206105
 30
0.0
 40
0.5000009536734069
100
AcDbArc
 50
269.8880943229342
 51
90.11190567706578
  0
ARC
  5
190
330
2
100
AcDbEntity
  8
0
100
AcDbCircle
 10
7.45271775160337
 20
3.808421498206105
 30
0.0
 40
0.46875
100
AcDbArc
 50
270.0000000000002
 51
89.99999999999976
  0
LINE
  5
191
330
2
100
AcDbEntity
  8
0
100
AcDbLine
 10
8.655742148982712
 20
2.468563094397998
 30
0.0
 11
7.217089897162591
 21
2.468563094397998
 31
0.0
  0
LINE
  5
192
330
2
100
AcDbEntity
  8
0
100
AcDbLine
 10
8.655745107141129
 20
2.593496025389615
 30
0.0
 11
7.217088060090925
 21
2.593496025389615
 31
0.0
  0
LINE
  5
193
330
2
100
AcDbEntity
  8
0
100
AcDbLine
 10
7.217088060090925
 20
3.214672825953146
 30
0.0
 11
7.217088060090923
 21
2.593496025389615
 31
0.0
  0
LINE
  5
194
330
2
100
AcDbEntity
  8
0
100
AcDbLine
 10
7.094511893014825
 20
3.214670167519254
 30
0.0
 11
7.094511893014827
 21
2.593496025389615
 31
0.0
  0
LINE
  5
195
330
2
100
AcDbEntity
  8
0
100
AcDbLine
 10
7.452717751603373
 20
3.308421498206107
 30
0.0
 11
6.859017751603371
 21
3.308421498206107
 31
0.0
  0
LINE
  5
196
330
2
100
AcDbEntity
  8
0
100
AcDbLine
 10
7.452717751603373
 20
3.339671498206107
 30
0.0
 11
6.859017751603371
 21
3.339671498206107
 31
0.0
  0
LINE
  5
197
330
2
100
AcDbEntity
  8
0
100
AcDbLine
 10
7.094511893014825
 20
3.214670167519255
 30
0.0
 11
6.842740596686305
 21
3.214664707099311
 31
0.0
  0
LINE
  5
198
330
2
100
AcDbEntity
  8
0
100
AcDbLine
 10
7.452717751603373
 20
3.214671498206107
 30
0.0
 11
7.217088060090926
 21
3.214671498206107
 31
0.0
  0
LINE
  5
199
330
2
100
AcDbEntity
  8
0
100
AcDbLine
 10
8.780791067887702
 20
3.595281144592716
 30
0.0
 11
8.655791068027863
 21
3.595287064085666
 31
0.0
  0
LINE
  5
19A
330
2
100
AcDbEntity
  8
0
100
AcDbLine
 10
8.7808029068736
 20
3.845281144312395
 30
0.0
 11
8.655802907013761
 21
3.845287063805344
 31
0.0
  0
LINE
  5
19B
330
2
100
AcDbEntity
  8
0
100
AcDbLine
 10
8.438543734417348
 20
4.741695914016342
 30
0.0
 11
8.655867751603374
 21
4.976748482390571
 31
0.0
  0
ARC
  5
19C
330
2
100
AcDbEntity
  8
0
100
AcDbCircle
 10
8.52834230715148
 20
4.930051252919524
 30
0.0
 40
0.0625192006788431
100
AcDbArc
 50
135.9798575818874
 51
318.8199359553414
  0
LINE
  5
19D
330
2
100
AcDbEntity
  8
0
100
AcDbLine
 10
8.562642099739509
 20
5.060108670690871
 30
0.0
 11
7.217088060090925
 21
5.060836373457834
 31
0.0
  0
LINE
  5
19E
330
2
100
AcDbEntity
  8
0
100
AcDbLine
 10
8.4598060286656
 20
4.948817240349841
 30
0.0
 11
7.217088060090925
 21
4.948817240349845
 31
0.0
  0
LINE
  5
19F
330
2
100
AcDbEntity
  8
0
100
AcDbLine
 10
7.217088060090925
 20
5.060836373457834
 30
0.0
 11
7.217088060090926
 21
4.402171498206108
 31
0.0
  0
LINE
  5
1A0
330
2
100
AcDbEntity
  8
0
100
AcDbLine
 10
7.094511893014827
 20
5.060836373457834
 30
0.0
 11
7.094511893014825
 21
4.402171498206107
 31
0.0
  0
LINE
  5
1A1
330
2
100
AcDbEntity
  8
0
100
AcDbLine
 10
7.452717751603373
 20
4.308421498206107
 30
0.0
 11
6.859017751603371
 21
4.308421498206107
 31
0.0
  0
LINE
  5
1A2
330
2
100
AcDbEntity
  8
0
100
AcDbLine
 10
7.452717751603373
 20
4.277171498206107
 30
0.0
 11
6.859017751603371
 21
4.277171498206107
 31
0.0
  0
LINE
  5
1A3
330
2
100
AcDbEntity
  8
0
100
AcDbLine
 10
7.094511893014825
 20
4.402171498206107
 30
0.0
 11
6.859017751603371
 21
4.402171498206107
 31
0.0
  0
LINE
  5
1A4
330
2
100
AcDbEntity
  8
0
100
AcDbLine
 10
7.452717751603373
 20
4.402171498206107
 30
0.0
 11
7.217088060090926
 21
4.402171498206108
 31
0.0
  0
ARC
  5
1A5
330
2
100
AcDbEntity
  8
0
100
AcDbCircle
 10
8.396903017869073
 20
4.788329605472926
 30
0.0
 40
0.0625192006788431
100
AcDbArc
 50
135.9822472584099
 51
318.8223256318639
  0
CIRCLE
  5
1A6
330
2
100
AcDbEntity
  8
0
100
AcDbCircle
 10
8.155867751603374
 20
4.558349810189947
 30
0.0
 40
0.2707949300924284
  0
CIRCLE
  5
1A7
330
2
100
AcDbEntity
  8
0
100
AcDbCircle
 10
8.155867751603374
 20
4.558349810189947
 30
0.0
 40
0.0855
  0
CIRCLE
  5
1A8
330
2
100
AcDbEntity
  8
0
100
AcDbCircle
 10
8.155867751603374
 20
4.558349810189947
 30
0.0
 40
0.1875
  0
LINE
  5
1A9
330
2
100
AcDbEntity
  8
0
100
AcDbLine
 10
8.351943927050609
 20
4.831773023919206
 30
0.0
 11
8.562642099739509
 21
5.060040895640379
 31
0.0
  0
ARC
  5
1AA
330
2
100
AcDbEntity
  8
0
100
AcDbCircle
 10
8.718367751603372
 20
5.120905385731357
 30
0.0
 40
0.0625
100
AcDbArc
 50
0.0
 51
90.0
  0
LINE
  5
1AB
330
2
100
AcDbEntity
  8
0
100
AcDbLine
 10
0.0
 20
5.062400000000002
 30
0.0
 11
0.0
 21
0.0
 31
0.0
  0
LINE
  5
1AC
330
2
100
AcDbEntity
  8
0
  6
HIDDEN
100
AcDbLine
 10
0.125
 20
4.952744079567998
 30
0.0
 11
0.125
 21
0.1096080127890087
 31
0.0
  0
LINE
  5
1AD
330
2
100
AcDbEntity
  8
0
100
AcDbLine
 10
0.9844389858995939
 20
5.183242481035851
 30
0.0
 11
0.9844389858995943
 21
-0.1212197782477471
 31
0.0
  0
LINE
  5
1AE
330
2
100
AcDbEntity
  8
0
  6
HIDDEN
100
AcDbLine
 10
0.9844389858995939
 20
0.0037802217522529
 30
0.0
 11
0.125
 21
0.1096080127890087
 31
0.0
  0
LINE
  5
1AF
330
2
100
AcDbEntity
  8
0
100
AcDbLine
 10
0.9844389858995943
 20
-0.1212197782477471
 30
0.0
 11
0.0
 21
0.0000000000000009
 31
0.0
  0
LINE
  5
1B0
330
2
100
AcDbEntity
  8
0
  6
HIDDEN
100
AcDbLine
 10
0.9844389858995943
 20
1.847351204581997
 30
0.0
 11
0.1250000000000004
 21
1.847351204581997
 31
0.0
  0
LINE
  5
1B1
330
2
100
AcDbEntity
  8
0
  6
HIDDEN
100
AcDbLine
 10
0.9844389858995943
 20
1.753601204581997
 30
0.0
 11
-0.0000000000000002
 21
1.71780608844916
 31
0.0
  0
LINE
  5
1B2
330
2
100
AcDbEntity
  8
0
100
AcDbLine
 10
0.9844389858995957
 20
1.165788388890819
 30
0.0
 11
0.8536808187610276
 21
1.165788388890819
 31
0.0
  0
LINE
  5
1B3
330
2
100
AcDbEntity
  8
0
100
AcDbLine
 10
0.9844389858995957
 20
1.404272054613687
 30
0.0
 11
0.8536808187610276
 21
1.404272054613687
 31
0.0
  0
LINE
  5
1B4
330
2
100
AcDbEntity
  8
0
  6
HIDDEN
100
AcDbLine
 10
0.9844389858995939
 20
0.2574257238287778
 30
0.0
 11
0.1250000000000004
 21
0.5734160909128399
 31
0.0
  0
LINE
  5
1B5
330
2
100
AcDbEntity
  8
0
  6
HIDDEN
100
AcDbLine
 10
0.9844389858995943
 20
0.6598512045819973
 30
0.0
 11
0.1250000000000004
 21
0.6598512045819973
 31
0.0
  0
LINE
  5
1B6
330
2
100
AcDbEntity
  8
0
  6
HIDDEN
100
AcDbLine
 10
0.9844389858995943
 20
0.7536012045819973
 30
0.0
 11
-0.0000000000000002
 21
0.7893963207148342
 31
0.0
  0
ARC
  5
1B7
330
2
100
AcDbEntity
  8
0
100
AcDbCircle
 10
0.8536808187610276
 20
1.285030221752253
 30
0.0
 40
0.1192418328614338
100
AcDbArc
 50
90.00000000000003
 51
270.0
  0
LINE
  5
1B8
330
2
100
AcDbEntity
  8
0
  6
HIDDEN
100
AcDbLine
 10
0.9844389858995943
 20
3.214671498206107
 30
0.0
 11
0.1250000000000004
 21
3.214671498206107
 31
0.0
  0
LINE
  5
1B9
330
2
100
AcDbEntity
  8
0
  6
HIDDEN
100
AcDbLine
 10
0.9844389858995943
 20
3.308421498206107
 30
0.0
 11
-0.0000000000000002
 21
3.344216614338944
 31
0.0
  0
LINE
  5
1BA
330
2
100
AcDbEntity
  8
0
100
AcDbLine
 10
0.9844389858995957
 20
3.864984313897285
 30
0.0
 11
0.8536808187610276
 21
3.864984313897285
 31
0.0
  0
LINE
  5
1BB
330
2
100
AcDbEntity
  8
0
100
AcDbLine
 10
0.9844389858995957
 20
3.626500648174417
 30
0.0
 11
0.8536808187610276
 21
3.626500648174417
 31
0.0
  0
LINE
  5
1BC
330
2
100
AcDbEntity
  8
0
  6
HIDDEN
100
AcDbLine
 10
0.9844389858995943
 20
2.588215858851383
 30
0.0
 11
0.1250000000000018
 21
2.588215858851382
 31
0.0
  0
LINE
  5
1BD
330
2
100
AcDbEntity
  8
0
  6
HIDDEN
100
AcDbLine
 10
0.9844389858995943
 20
2.463215858851384
 30
0.0
 11
0.1250000000000018
 21
2.463215858851383
 31
0.0
  0
ARC
  5
1BE
330
2
100
AcDbEntity
  8
0
100
AcDbCircle
 10
0.8536808187610276
 20
3.745742481035851
 30
0.0
 40
0.1192418328614338
100
AcDbArc
 50
90.00000000000003
 51
270.0
  0
LINE
  5
1BF
330
2
100
AcDbEntity
  8
0
  6
HIDDEN
100
AcDbLine
 10
0.9844389858995943
 20
4.308421498206107
 30
0.0
 11
-0.0000000000000002
 21
4.27262638207327
 31
0.0
  0
LINE
  5
1C0
330
2
100
AcDbEntity
  8
0
  6
HIDDEN
100
AcDbLine
 10
0.9844389858995943
 20
4.402171498206107
 30
0.0
 11
0.1250000000000004
 21
4.402171498206107
 31
0.0
  0
LINE
  5
1C1
330
2
100
AcDbEntity
  8
0
  6
HIDDEN
100
AcDbLine
 10
0.9844389858995939
 20
4.804596978959326
 30
0.0
 11
0.1250000000000004
 21
4.488606611875264
 31
0.0
  0
LINE
  5
1C2
330
2
100
AcDbEntity
  8
0
100
AcDbLine
 10
0.9844389858995939
 20
5.183242481035849
 30
0.0
 11
0.0
 21
5.062400000000002
 31
0.0
  0
LINE
  5
1C3
330
2
100
AcDbEntity
  8
0
  6
HIDDEN
100
AcDbLine
 10
0.9844389858995939
 20
5.058242481035849
 30
0.0
 11
0.125
 21
4.952744079567998
 31
0.0
  0
LINE
  5
1C4
330
2
100
AcDbEntity
  8
0
100
AcDbLine
 10
13.25996528089692
 20
0.8266576057077302
 30
0.0
 11
13.25996528089692
 21
2.47374042438724
 31
0.0
  0
LINE
  5
1C5
330
2
100
AcDbEntity
  8
0
100
AcDbLine
 10
13.38496528089692
 20
5.0624
 30
0.0
 11
13.38496528089692
 21
0.0000000000000018
 31
0.0
  0
LINE
  5
1C6
330
2
100
AcDbEntity
  8
0
100
AcDbLine
 10
12.40052629499733
 20
5.183242481035849
 30
0.0
 11
12.40052629499733
 21
-0.1212197782477462
 31
0.0
  0
LINE
  5
1C7
330
2
100
AcDbEntity
  8
0
100
AcDbLine
 10
12.40052629499733
 20
0.0037802217522538
 30
0.0
 11
13.25996528089692
 21
0.1096080127890096
 31
0.0
  0
LINE
  5
1C8
330
2
100
AcDbEntity
  8
0
100
AcDbLine
 10
12.40052629499733
 20
-0.1212197782477462
 30
0.0
 11
13.38496528089692
 21
0.0000000000000018
 31
0.0
  0
LINE
  5
1C9
330
2
100
AcDbEntity
  8
0
100
AcDbLine
 10
13.25996528089692
 20
0.4181728925981556
 30
0.0
 11
13.38496528089692
 21
0.4181728925981556
 31
0.0
  0
LINE
  5
1CA
330
2
100
AcDbEntity
  8
0
100
AcDbLine
 10
13.25996528089692
 20
0.6413923188173047
 30
0.0
 11
13.38496528089692
 21
0.6413923188173047
 31
0.0
  0
LINE
  5
1CB
330
2
100
AcDbEntity
  8
0
100
AcDbLine
 10
12.40120750721847
 20
0.7536013351230828
 30
0.0
 11
13.3856337445348
 21
0.787053420407549
 31
0.0
  0
LINE
  5
1CC
330
2
100
AcDbEntity
  8
0
100
AcDbLine
 10
13.16621528089692
 20
0.3161728925981553
 30
0.0
 11
13.16621528089692
 21
0.7433923188173051
 31
0.0
  0
LINE
  5
1CD
330
2
100
AcDbEntity
  8
0
100
AcDbLine
 10
13.25996528089692
 20
0.4181728925981556
 30
0.0
 11
13.25996528089692
 21
0.6413923188173047
 31
0.0
  0
LINE
  5
1CE
330
2
100
AcDbEntity
  8
0
100
AcDbLine
 10
13.00996528089692
 20
0.2329076057077302
 30
0.0
 11
13.00996528089692
 21
0.8266576057077302
 31
0.0
  0
LINE
  5
1CF
330
2
100
AcDbEntity
  8
0
100
AcDbLine
 10
13.16621528089692
 20
0.3161728925981553
 30
0.0
 11
13.25996528089692
 21
0.4181728925981556
 31
0.0
  0
LINE
  5
1D0
330
2
100
AcDbEntity
  8
0
100
AcDbLine
 10
13.00996528089692
 20
0.2329076057077302
 30
0.0
 11
13.25996528089692
 21
0.2329076057077302
 31
0.0
  0
LINE
  5
1D1
330
2
100
AcDbEntity
  8
0
100
AcDbLine
 10
13.00996528089692
 20
0.3161728925981553
 30
0.0
 11
13.16621528089692
 21
0.3161728925981553
 31
0.0
  0
LINE
  5
1D2
330
2
100
AcDbEntity
  8
0
100
AcDbLine
 10
13.25996528089692
 20
0.1092786232201064
 30
0.0
 11
13.25996528089692
 21
0.2329076057077302
 31
0.0
  0
LINE
  5
1D3
330
2
100
AcDbEntity
  8
0
100
AcDbLine
 10
12.4012434379494
 20
0.6598513420085066
 30
0.0
 11
13.01068237908902
 21
0.6600849162828428
 31
0.0
  0
LINE
  5
1D4
330
2
100
AcDbEntity
  8
0
100
AcDbLine
 10
13.00996528089692
 20
0.7433923188173051
 30
0.0
 11
13.16621528089692
 21
0.7433923188173051
 31
0.0
  0
LINE
  5
1D5
330
2
100
AcDbEntity
  8
0
100
AcDbLine
 10
13.00996528089692
 20
0.8266576057077302
 30
0.0
 11
13.25996528089692
 21
0.8266576057077302
 31
0.0
  0
LINE
  5
1D6
330
2
100
AcDbEntity
  8
0
100
AcDbLine
 10
13.16621528089692
 20
0.7433923188173051
 30
0.0
 11
13.25996528089692
 21
0.6413923188173047
 31
0.0
  0
LINE
  5
1D7
330
2
100
AcDbEntity
  8
0
100
AcDbLine
 10
12.40082424608858
 20
1.753601261678534
 30
0.0
 11
13.38527513659681
 21
1.72272856117172
 31
0.0
  0
LINE
  5
1D8
330
2
100
AcDbEntity
  8
0
100
AcDbLine
 10
12.40078831535766
 20
1.847351254793107
 30
0.0
 11
13.26022723813614
 21
1.847680644349913
 31
0.0
  0
LINE
  5
1D9
330
2
100
AcDbEntity
  8
0
100
AcDbLine
 10
13.00996528089692
 20
4.829115097080372
 30
0.0
 11
13.00996528089692
 21
4.235365097080372
 31
0.0
  0
LINE
  5
1DA
330
2
100
AcDbEntity
  8
0
100
AcDbLine
 10
13.25996528089692
 20
4.235365097080372
 30
0.0
 11
13.25996528089692
 21
2.588282278400862
 31
0.0
  0
LINE
  5
1DB
330
2
100
AcDbEntity
  8
0
100
AcDbLine
 10
12.40052629499733
 20
2.588282278400862
 30
0.0
 11
13.25996528089692
 21
2.588282278400861
 31
0.0
  0
LINE
  5
1DC
330
2
100
AcDbEntity
  8
0
100
AcDbLine
 10
12.40052629499733
 20
2.463282278400863
 30
0.0
 11
13.25996528089692
 21
2.463282278400862
 31
0.0
  0
LINE
  5
1DD
330
2
100
AcDbEntity
  8
0
100
AcDbLine
 10
12.40052629499733
 20
3.308421498206107
 30
0.0
 11
13.38496528089692
 21
3.339671498206107
 31
0.0
  0
LINE
  5
1DE
330
2
100
AcDbEntity
  8
0
100
AcDbLine
 10
12.40052629499733
 20
3.214671498206107
 30
0.0
 11
13.25996528089692
 21
3.214671498206109
 31
0.0
  0
LINE
  5
1DF
330
2
100
AcDbEntity
  8
0
100
AcDbLine
 10
13.00996528089692
 20
4.235365097080372
 30
0.0
 11
13.25996528089692
 21
4.235365097080372
 31
0.0
  0
LINE
  5
1E0
330
2
100
AcDbEntity
  8
0
100
AcDbLine
 10
13.25996528089692
 20
4.420630383970797
 30
0.0
 11
13.38496528089692
 21
4.420630383970797
 31
0.0
  0
LINE
  5
1E1
330
2
100
AcDbEntity
  8
0
100
AcDbLine
 10
12.40052629499733
 20
4.308421498206107
 30
0.0
 11
13.38496528089692
 21
4.275346707690524
 31
0.0
  0
LINE
  5
1E2
330
2
100
AcDbEntity
  8
0
100
AcDbLine
 10
13.25996528089692
 20
4.643849810189947
 30
0.0
 11
13.38496528089692
 21
4.643849810189947
 31
0.0
  0
LINE
  5
1E3
330
2
100
AcDbEntity
  8
0
100
AcDbLine
 10
12.40052629499733
 20
5.183242481035849
 30
0.0
 11
13.38496528089692
 21
5.0624
 31
0.0
  0
LINE
  5
1E4
330
2
100
AcDbEntity
  8
0
100
AcDbLine
 10
12.40052629499733
 20
4.402171498206108
 30
0.0
 11
13.00996528089692
 21
4.402171498206108
 31
0.0
  0
LINE
  5
1E5
330
2
100
AcDbEntity
  8
0
100
AcDbLine
 10
13.25996528089692
 20
4.643849810189947
 30
0.0
 11
13.25996528089692
 21
4.420630383970797
 31
0.0
  0
LINE
  5
1E6
330
2
100
AcDbEntity
  8
0
100
AcDbLine
 10
13.16621528089692
 20
4.745849810189947
 30
0.0
 11
13.16621528089692
 21
4.318630383970797
 31
0.0
  0
LINE
  5
1E7
330
2
100
AcDbEntity
  8
0
100
AcDbLine
 10
13.00996528089692
 20
4.318630383970797
 30
0.0
 11
13.16621528089692
 21
4.318630383970797
 31
0.0
  0
LINE
  5
1E8
330
2
100
AcDbEntity
  8
0
100
AcDbLine
 10
13.16621528089692
 20
4.318630383970797
 30
0.0
 11
13.25996528089692
 21
4.420630383970797
 31
0.0
  0
LINE
  5
1E9
330
2
100
AcDbEntity
  8
0
100
AcDbLine
 10
13.00996528089692
 20
4.745849810189947
 30
0.0
 11
13.16621528089692
 21
4.745849810189947
 31
0.0
  0
LINE
  5
1EA
330
2
100
AcDbEntity
  8
0
100
AcDbLine
 10
13.16621528089692
 20
4.745849810189947
 30
0.0
 11
13.25996528089692
 21
4.643849810189947
 31
0.0
  0
LINE
  5
1EB
330
2
100
AcDbEntity
  8
0
100
AcDbLine
 10
12.40052629499733
 20
5.058242481035848
 30
0.0
 11
13.25996528089692
 21
4.952744079567996
 31
0.0
  0
LINE
  5
1EC
330
2
100
AcDbEntity
  8
0
100
AcDbLine
 10
13.00996528089692
 20
4.829115097080372
 30
0.0
 11
13.25996528089692
 21
4.829115097080372
 31
0.0
  0
LINE
  5
1ED
330
2
100
AcDbEntity
  8
0
100
AcDbLine
 10
13.25996528089692
 20
4.952744079567996
 30
0.0
 11
13.25996528089692
 21
4.829115097080372
 31
0.0
  0
LINE
  5
200
330
2
100
AcDbEntity
  8
0
100
AcDbLine
 10
8.659774065326193
 20
7.83234431274613
 30
0.0
 11
5.652087529851117
 21
7.832344312746129
 31
0.0
  0
LINE
  5
201
330
2
100
AcDbEntity
  8
0
100
AcDbLine
 10
8.780616546362044
 20
8.816783298645722
 30
0.0
 11
5.530867751603371
 21
8.816783298645724
 31
0.0
  0
LINE
  5
202
330
2
100
AcDbEntity
  8
0
100
AcDbLine
 10
5.530867751603371
 20
8.816783298645724
 30
0.0
 11
5.652087529851117
 21
7.832344312746129
 31
0.0
  0
LINE
  5
203
330
2
100
AcDbEntity
  8
0
100
AcDbLine
 10
8.780616546362044
 20
8.816783298645722
 30
0.0
 11
8.659774065326193
 21
7.83234431274613
 31
0.0
  0
ENDSEC
  0
SECTION
  2
OBJECTS
  0
DICTIONARY
  5
7
330
0
100
AcDbDictionary
281
     1
  3
ACAD_COLOR
350
207
  3
ACAD_GROUP
350
1F
  3
ACAD_LAYOUT
350
B
  3
ACAD_MATERIAL
350
206
  3
ACAD_MLINESTYLE
350
20
  3
ACAD_PLOTSETTINGS
350
21
  3
ACAD_PLOTSTYLENAME
350
6
  3
ACAD_TABLESTYLE
350
208
  3
ACDBHEADERROUNDTRIPXREC
350
21B
  3
AcDbVariableDictionary
350
131
  0
DICTIONARY
  5
20F
330
10
100
AcDbDictionary
280
     1
281
     1
  3
ACAD_LAYERFILTERS
360
211
  3
ACLYDICTIONARY
360
210
  0
DICTIONARY
  5
207
102
{ACAD_REACTORS
330
7
102
}
330
7
100
AcDbDictionary
281
     1
  0
DICTIONARY
  5
1F
102
{ACAD_REACTORS
330
7
102
}
330
7
100
AcDbDictionary
281
     1
  0
DICTIONARY
  5
B
102
{ACAD_REACTORS
330
7
102
}
330
7
100
AcDbDictionary
281
     1
  3
Layout1
350
F
  3
Model
350
A
  0
DICTIONARY
  5
206
102
{ACAD_REACTORS
330
7
102
}
330
7
100
AcDbDictionary
281
     1
  0
DICTIONARY
  5
20
102
{ACAD_REACTORS
330
7
102
}
330
7
100
AcDbDictionary
281
     1
  3
STANDARD
350
23
  0
DICTIONARY
  5
21
102
{ACAD_REACTORS
330
7
102
}
330
7
100
AcDbDictionary
281
     1
  0
ACDBDICTIONARYWDFLT
  5
6
102
{ACAD_REACTORS
330
7
102
}
330
7
100
AcDbDictionary
281
     1
  3
Normal
350
5
100
AcDbDictionaryWithDefault
340
5
  0
DICTIONARY
  5
208
102
{ACAD_REACTORS
330
7
102
}
330
7
100
AcDbDictionary
281
     1
  3
Standard
350
209
  0
DICTIONARY
  5
21B
102
{ACAD_REACTORS
330
7
102
}
330
7
100
AcDbDictionary
281
     1
  3
COLORDICT
350
21C
  3
MATERIALDICT
350
21D
  0
DICTIONARY
  5
131
102
{ACAD_REACTORS
330
7
102
}
330
7
100
AcDbDictionary
281
     1
  3
CTABLESTYLE
350
218
  3
HIDETEXT
350
21A
  0
DICTIONARY
  5
211
102
{ACAD_REACTORS
330
20F
102
}
330
20F
100
AcDbDictionary
281
     1
  0
DICTIONARY
  5
210
102
{ACAD_REACTORS
330
20F
102
}
330
20F
100
AcDbDictionary
281
     1
1001
ACAD
1000
<All
  0
LAYOUT
  5
F
102
{ACAD_REACTORS
330
B
102
}
102
{ACAD_XDICTIONARY
360
21E
102
}
330
B
100
AcDbPlotSettings
  1

  2
X:\Program Files\AutoCAD2002\plotters\DWF ePlot (optimized for plotting).pc3
  4

  6

 40
0.0
 41
0.0
 42
0.0
 43
0.0
 44
0.0
 45
0.0
 46
0.0
 47
0.0
 48
0.0
 49
0.0
140
0.0
141
0.0
142
1.0
143
1.0
 70
   688
 72
     0
 73
     0
 74
     5
  7

 75
    16
147
1.0
148
0.0
149
0.0
100
AcDbLayout
  1
Layout1
 70
     0
 71
     1
 10
0.0
 20
0.0
 11
12.0
 21
9.0
 12
0.0
 22
0.0
 32
0.0
 14
1.000000000000000E+20
 24
1.000000000000000E+20
 34
1.000000000000000E+20
 15
-1.000000000000000E+20
 25
-1.000000000000000E+20
 35
-1.000000000000000E+20
146
0.0
 13
0.0
 23
0.0
 33
0.0
 16
1.0
 26
0.0
 36
0.0
 17
0.0
 27
1.0
 37
0.0
 76
     0
330
C
  0
LAYOUT
  5
A
102
{ACAD_REACTORS
330
B
102
}
102
{ACAD_XDICTIONARY
360
220
102
}
330
B
100
AcDbPlotSettings
  1

  2
X:\Program Files\AutoCAD2002\plotters\DWF ePlot (optimized for plotting).pc3
  4

  6

 40
0.0
 41
0.0
 42
0.0
 43
0.0
 44
0.0
 45
0.0
 46
0.0
 47
0.0
 48
0.0
 49
0.0
140
0.0
141
0.0
142
1.0
143
1.0
 70
  1712
 72
     0
 73
     0
 74
     0
  7

 75
     0
147
1.0
148
0.0
149
0.0
100
AcDbLayout
  1
Model
 70
     1
 71
     0
 10
0.0
 20
0.0
 11
12.0
 21
9.0
 12
0.0
 22
0.0
 32
0.0
 14
0.0
 24
0.0
 34
0.0
 15
0.0
 25
0.0
 35
0.0
146
0.0
 13
0.0
 23
0.0
 33
0.0
 16
1.0
 26
0.0
 36
0.0
 17
0.0
 27
1.0
 37
0.0
 76
     0
330
2
  0
MLINESTYLE
  5
23
102
{ACAD_REACTORS
330
20
102
}
330
20
100
AcDbMlineStyle
  2
STANDARD
 70
     0
  3

 62
   256
 51
90.0
 52
90.0
 71
     2
 49
0.5
 62
   256
  6
BYLAYER
 49
-0.5
 62
   256
  6
BYLAYER
  0
ACDBPLACEHOLDER
  5
5
102
{ACAD_REACTORS
330
6
102
}
330
6
  0
ACAD_PROXY_OBJECT
  5
209
102
{ACAD_REACTORS
330
208
102
}
330
208
100
AcDbProxyObject
 90
      499
 91
      506
 95
   983063
 70
     0
 93
     1841
310
4214DD185B99185C9928B81E85EB51B8AE3F2E07A17AD46E2B8FC02B5E8DC0F42B1CFD028000000C1008070000C3001FDFF8000000C1003FBFF000000182007F7FE00000030400FEFFC00000060801FDFF8000000C1003FBFF00000018200000000000000681FA0B0000001820100E000186003FBFF000000182007F7FE000
310
00030400FEFFC00000060801FDFF8000000C1003FBFF000000182007F7FE000000304000AD7A3703D0AC73F4160000003040201C00030C007F7FE00000030400FEFFC00000060801FDFF8000000C1003FBFF000000182007F7FE00000030400FEFFC000000608000
340
12
340
12
340
12
 94
        0
  0
XRECORD
  5
21C
102
{ACAD_REACTORS
330
21B
102
}
330
21B
100
AcDbXrecord
340
207
  0
XRECORD
  5
21D
102
{ACAD_REACTORS
330
21B
102
}
330
21B
100
AcDbXrecord
340
206
  0
DICTIONARYVAR
  5
218
102
{ACAD_REACTORS
330
131
102
}
330
131
100
DictionaryVariables
280
     0
  1
STANDARD
  0
DICTIONARYVAR
  5
21A
102
{ACAD_REACTORS
330
131
102
}
330
131
100
DictionaryVariables
280
     0
  1
0
  0
DICTIONARY
  5
21E
330
F
100
AcDbDictionary
280
     1
281
     1
  3
ACAD_XREC_ROUNDTRIP
360
21F
  0
DICTIONARY
  5
220
330
A
100
AcDbDictionary
280
     1
281
     1
  3
ACAD_XREC_ROUNDTRIP
360
221
  0
XRECORD
  5
21F
102
{ACAD_REACTORS
330
21E
102
}
330
21E
100
AcDbXrecord
102
SHADEPLOT
 70
     0
102
SHADEPLOTRESLEVEL
 70
     2
102
SHADEPLOTCUSTOMDPI
 70
   300
  0
XRECORD
  5
221
102
{ACAD_REACTORS
330
220
102
}
330
220
100
AcDbXrecord
102
SHADEPLOT
 70
     0
102
SHADEPLOTRESLEVEL
 70
     2
102
SHADEPLOTCUSTOMDPI
 70
   300
  0
ENDSEC
  0
EOF
