  0
SECTION
  2
HEADER
  9
$ACADVER
  1
AC1015
  9
$ACADMAINTVER
 70
     6
  9
$DWGCODEPAGE
  3
ANSI_1252
  9
$INSBASE
 10
0.0
 20
0.0
 30
0.0
  9
$EXTMIN
 10
0.0
 20
-0.1064280276950665
 30
0.0
  9
$EXTMAX
 10
12.90939963331
 20
8.932414177434755
 30
0.0
  9
$LIMMIN
 10
0.0
 20
0.0
  9
$LIMMAX
 10
17.4993
 20
13.3328
  9
$ORTHOMODE
 70
     1
  9
$REGENMODE
 70
     1
  9
$FILLMODE
 70
     1
  9
$QTEXTMODE
 70
     0
  9
$MIRRTEXT
 70
     1
  9
$LTSCALE
 40
0.5
  9
$ATTMODE
 70
     1
  9
$TEXTSIZE
 40
0.149994
  9
$TRACEWID
 40
0.05
  9
$TEXTSTYLE
  7
STANDARD
  9
$CLAYER
  8
0
  9
$CELTYPE
  6
BYLAYER
  9
$CECOLOR
 62
   256
  9
$CELTSCALE
 40
1.0
  9
$DISPSILH
 70
     0
  9
$DIMSCALE
 40
0.0
  9
$DIMASZ
 40
0.1875
  9
$DIMEXO
 40
0.0625
  9
$DIMDLI
 40
0.375
  9
$DIMRND
 40
0.0
  9
$DIMDLE
 40
0.0
  9
$DIMEXE
 40
0.078125
  9
$DIMTP
 40
0.0
  9
$DIMTM
 40
0.0
  9
$DIMTXT
 40
0.125
  9
$DIMCEN
 40
-0.0625
  9
$DIMTSZ
 40
0.0
  9
$DIMTOL
 70
     0
  9
$DIMLIM
 70
     0
  9
$DIMTIH
 70
     1
  9
$DIMTOH
 70
     1
  9
$DIMSE1
 70
     0
  9
$DIMSE2
 70
     0
  9
$DIMTAD
 70
     0
  9
$DIMZIN
 70
     0
  9
$DIMBLK
  1

  9
$DIMASO
 70
     0
  9
$DIMSHO
 70
     0
  9
$DIMPOST
  1

  9
$DIMAPOST
  1

  9
$DIMALT
 70
     0
  9
$DIMALTD
 70
     2
  9
$DIMALTF
 40
25.4
  9
$DIMLFAC
 40
1.0
  9
$DIMTOFL
 70
     1
  9
$DIMTVP
 40
0.0
  9
$DIMTIX
 70
     0
  9
$DIMSOXD
 70
     0
  9
$DIMSAH
 70
     0
  9
$DIMBLK1
  1

  9
$DIMBLK2
  1

  9
$DIMSTYLE
  2
STANDARD
  9
$DIMCLRD
 70
     0
  9
$DIMCLRE
 70
     0
  9
$DIMCLRT
 70
     0
  9
$DIMTFAC
 40
1.0
  9
$DIMGAP
 40
0.125
  9
$DIMJUST
 70
     0
  9
$DIMSD1
 70
     0
  9
$DIMSD2
 70
     0
  9
$DIMTOLJ
 70
     1
  9
$DIMTZIN
 70
     0
  9
$DIMALTZ
 70
     0
  9
$DIMALTTZ
 70
     0
  9
$DIMUPT
 70
     0
  9
$DIMDEC
 70
     5
  9
$DIMTDEC
 70
     4
  9
$DIMALTU
 70
     2
  9
$DIMALTTD
 70
     2
  9
$DIMTXSTY
  7
STANDARD
  9
$DIMAUNIT
 70
     0
  9
$DIMADEC
 70
     0
  9
$DIMALTRND
 40
0.0
  9
$DIMAZIN
 70
     0
  9
$DIMDSEP
 70
    46
  9
$DIMATFIT
 70
     3
  9
$DIMFRAC
 70
     2
  9
$DIMLDRBLK
  1

  9
$DIMLUNIT
 70
     5
  9
$DIMLWD
 70
    -2
  9
$DIMLWE
 70
    -2
  9
$DIMTMOVE
 70
     0
  9
$LUNITS
 70
     5
  9
$LUPREC
 70
     4
  9
$SKETCHINC
 40
0.1
  9
$FILLETRAD
 40
0.0
  9
$AUNITS
 70
     0
  9
$AUPREC
 70
     0
  9
$MENU
  1
acad
  9
$ELEVATION
 40
0.0
  9
$PELEVATION
 40
0.0
  9
$THICKNESS
 40
0.0
  9
$LIMCHECK
 70
     0
  9
$CHAMFERA
 40
0.0
  9
$CHAMFERB
 40
0.0
  9
$CHAMFERC
 40
0.0
  9
$CHAMFERD
 40
0.0
  9
$SKPOLY
 70
     0
  9
$TDCREATE
 40
2448958.706114815
  9
$TDUCREATE
 40
2448959.039448148
  9
$TDUPDATE
 40
2453809.929123646
  9
$TDUUPDATE
 40
2453810.262456979
  9
$TDINDWG
 40
0.6438596875
  9
$TDUSRTIMER
 40
0.6438596875
  9
$USRTIMER
 70
     1
  9
$ANGBASE
 50
0.0
  9
$ANGDIR
 70
     0
  9
$PDMODE
 70
     0
  9
$PDSIZE
 40
0.0
  9
$PLINEWID
 40
0.0
  9
$SPLFRAME
 70
     0
  9
$SPLINETYPE
 70
     6
  9
$SPLINESEGS
 70
     8
  9
$HANDSEED
  5
17D
  9
$SURFTAB1
 70
     6
  9
$SURFTAB2
 70
     6
  9
$SURFTYPE
 70
     6
  9
$SURFU
 70
     6
  9
$SURFV
 70
     6
  9
$UCSBASE
  2

  9
$UCSNAME
  2

  9
$UCSORG
 10
0.0
 20
0.0
 30
0.0
  9
$UCSXDIR
 10
1.0
 20
0.0
 30
0.0
  9
$UCSYDIR
 10
0.0
 20
1.0
 30
0.0
  9
$UCSORTHOREF
  2

  9
$UCSORTHOVIEW
 70
     0
  9
$UCSORGTOP
 10
0.0
 20
0.0
 30
0.0
  9
$UCSORGBOTTOM
 10
0.0
 20
0.0
 30
0.0
  9
$UCSORGLEFT
 10
0.0
 20
0.0
 30
0.0
  9
$UCSORGRIGHT
 10
0.0
 20
0.0
 30
0.0
  9
$UCSORGFRONT
 10
0.0
 20
0.0
 30
0.0
  9
$UCSORGBACK
 10
0.0
 20
0.0
 30
0.0
  9
$PUCSBASE
  2

  9
$PUCSNAME
  2

  9
$PUCSORG
 10
0.0
 20
0.0
 30
0.0
  9
$PUCSXDIR
 10
1.0
 20
0.0
 30
0.0
  9
$PUCSYDIR
 10
0.0
 20
1.0
 30
0.0
  9
$PUCSORTHOREF
  2

  9
$PUCSORTHOVIEW
 70
     0
  9
$PUCSORGTOP
 10
0.0
 20
0.0
 30
0.0
  9
$PUCSORGBOTTOM
 10
0.0
 20
0.0
 30
0.0
  9
$PUCSORGLEFT
 10
0.0
 20
0.0
 30
0.0
  9
$PUCSORGRIGHT
 10
0.0
 20
0.0
 30
0.0
  9
$PUCSORGFRONT
 10
0.0
 20
0.0
 30
0.0
  9
$PUCSORGBACK
 10
0.0
 20
0.0
 30
0.0
  9
$USERI1
 70
     0
  9
$USERI2
 70
     0
  9
$USERI3
 70
     0
  9
$USERI4
 70
     0
  9
$USERI5
 70
     0
  9
$USERR1
 40
0.0
  9
$USERR2
 40
0.0
  9
$USERR3
 40
0.0
  9
$USERR4
 40
0.0
  9
$USERR5
 40
0.0
  9
$WORLDVIEW
 70
     1
  9
$SHADEDGE
 70
     3
  9
$SHADEDIF
 70
    70
  9
$TILEMODE
 70
     1
  9
$MAXACTVP
 70
    16
  9
$PINSBASE
 10
0.0
 20
0.0
 30
0.0
  9
$PLIMCHECK
 70
     0
  9
$PEXTMIN
 10
1.000000000000000E+20
 20
1.000000000000000E+20
 30
1.000000000000000E+20
  9
$PEXTMAX
 10
-1.000000000000000E+20
 20
-1.000000000000000E+20
 30
-1.000000000000000E+20
  9
$PLIMMIN
 10
0.0
 20
0.0
  9
$PLIMMAX
 10
12.0
 20
9.0
  9
$UNITMODE
 70
     0
  9
$VISRETAIN
 70
     0
  9
$PLINEGEN
 70
     0
  9
$PSLTSCALE
 70
     0
  9
$TREEDEPTH
 70
  3020
  9
$CMLSTYLE
  2
STANDARD
  9
$CMLJUST
 70
     0
  9
$CMLSCALE
 40
1.0
  9
$PROXYGRAPHICS
 70
     1
  9
$MEASUREMENT
 70
     0
  9
$CELWEIGHT
370
    -1
  9
$ENDCAPS
280
     0
  9
$JOINSTYLE
280
     0
  9
$LWDISPLAY
290
     0
  9
$INSUNITS
 70
     0
  9
$HYPERLINKBASE
  1

  9
$STYLESHEET
  1

  9
$XEDIT
290
     1
  9
$CEPSNTYPE
380
     0
  9
$PSTYLEMODE
290
     1
  9
$FINGERPRINTGUID
  2
{F8D036EC-3A55-41DB-B147-A5CE1EBFA5E7}
  9
$VERSIONGUID
  2
{967803DC-6A65-4103-9F18-393C0CA98AC7}
  9
$EXTNAMES
290
     1
  9
$PSVPSCALE
 40
0.0
  9
$OLESTARTUP
290
     0
  0
ENDSEC
  0
SECTION
  2
CLASSES
  0
CLASS
  1
DICTIONARYVAR
  2
AcDbDictionaryVar
  3
AutoCAD 2000
 90
        0
280
     0
281
     0
  0
CLASS
  1
LWPOLYLINE
  2
AcDbPolyline
  3
AutoCAD 2000
 90
        0
280
     0
281
     1
  0
CLASS
  1
HATCH
  2
AcDbHatch
  3
AutoCAD 2000
 90
        0
280
     0
281
     1
  0
CLASS
  1
ACDBDICTIONARYWDFLT
  2
AcDbDictionaryWithDefault
  3
AutoCAD 2000
 90
        0
280
     0
281
     0
  0
CLASS
  1
ACDBPLACEHOLDER
  2
AcDbPlaceHolder
  3
ObjectDBX Classes
 90
        0
280
     0
281
     0
  0
CLASS
  1
LAYOUT
  2
AcDbLayout
  3
ObjectDBX Classes
 90
        0
280
     0
281
     0
  0
ENDSEC
  0
SECTION
  2
TABLES
  0
TABLE
  2
VPORT
  5
19
330
0
100
AcDbSymbolTable
 70
     2
  0
VPORT
  5
172
330
19
100
AcDbSymbolTableRecord
100
AcDbViewportTableRecord
  2
*Active
 70
     0
 10
0.0
 20
0.0
 11
1.0
 21
1.0
 12
8.749383002244114
 22
6.930272722117247
 13
0.0
 23
0.0
 14
0.063
 24
0.063
 15
0.25
 25
0.25
 16
0.0
 26
0.0
 36
1.0
 17
0.0
 27
0.0
 37
0.0
 40
14.28774432572699
 41
1.840336134453782
 42
50.0
 43
0.0
 44
0.0
 50
0.0
 51
0.0
 71
     0
 72
   100
 73
     1
 74
     1
 75
     0
 76
     0
 77
     0
 78
     0
281
     0
 65
     1
110
0.0
120
0.0
130
0.0
111
1.0
121
0.0
131
0.0
112
0.0
122
1.0
132
0.0
 79
     0
146
0.0
  0
ENDTAB
  0
TABLE
  2
LTYPE
  5
14
330
0
100
AcDbSymbolTable
 70
     1
  0
LTYPE
  5
15
330
14
100
AcDbSymbolTableRecord
100
AcDbLinetypeTableRecord
  2
BYBLOCK
 70
     0
  3

 72
    65
 73
     0
 40
0.0
  0
LTYPE
  5
16
330
14
100
AcDbSymbolTableRecord
100
AcDbLinetypeTableRecord
  2
BYLAYER
 70
     0
  3

 72
    65
 73
     0
 40
0.0
  0
LTYPE
  5
8
330
14
100
AcDbSymbolTableRecord
100
AcDbLinetypeTableRecord
  2
CONTINUOUS
 70
     0
  3
Solid line
 72
    65
 73
     0
 40
0.0
  0
ENDTAB
  0
TABLE
  2
LAYER
  5
10
330
0
100
AcDbSymbolTable
 70
     1
  0
LAYER
  5
4
330
10
100
AcDbSymbolTableRecord
100
AcDbLayerTableRecord
  2
0
 70
     0
 62
     7
  6
CONTINUOUS
370
    -3
390
5
  0
ENDTAB
  0
TABLE
  2
STYLE
  5
11
330
0
100
AcDbSymbolTable
 70
     1
  0
STYLE
  5
12
330
11
100
AcDbSymbolTableRecord
100
AcDbTextStyleTableRecord
  2
STANDARD
 70
     0
 40
0.0
 41
1.0
 50
0.0
 71
     0
 42
0.149994
  3
TXT
  4

  0
ENDTAB
  0
TABLE
  2
VIEW
  5
17
330
0
100
AcDbSymbolTable
 70
     0
  0
ENDTAB
  0
TABLE
  2
UCS
  5
18
330
0
100
AcDbSymbolTable
 70
     0
  0
ENDTAB
  0
TABLE
  2
APPID
  5
1B
330
0
100
AcDbSymbolTable
 70
     1
  0
APPID
  5
1C
330
1B
100
AcDbSymbolTableRecord
100
AcDbRegAppTableRecord
  2
ACAD
 70
     0
  0
ENDTAB
  0
TABLE
  2
DIMSTYLE
  5
1D
330
0
100
AcDbSymbolTable
 70
     1
100
AcDbDimStyleTable
  0
DIMSTYLE
105
24
330
1D
100
AcDbSymbolTableRecord
100
AcDbDimStyleTableRecord
  2
STANDARD
 70
     0
  3

  4

340
12
  0
ENDTAB
  0
TABLE
  2
BLOCK_RECORD
  5
1
330
0
100
AcDbSymbolTable
 70
     1
  0
BLOCK_RECORD
  5
2
330
1
100
AcDbSymbolTableRecord
100
AcDbBlockTableRecord
  2
*MODEL_SPACE
340
A
  0
BLOCK_RECORD
  5
C
330
1
100
AcDbSymbolTableRecord
100
AcDbBlockTableRecord
  2
*PAPER_SPACE
340
F
  0
ENDTAB
  0
ENDSEC
  0
SECTION
  2
BLOCKS
  0
BLOCK
  5
3
330
2
100
AcDbEntity
  8
0
100
AcDbBlockBegin
  2
*MODEL_SPACE
 70
     0
 10
0.0
 20
0.0
 30
0.0
  3
*MODEL_SPACE
  1

  4

  0
ENDBLK
  5
9
330
2
100
AcDbEntity
  8
0
100
AcDbBlockEnd
  0
BLOCK
  5
D
330
C
100
AcDbEntity
 67
     1
  8
0
100
AcDbBlockBegin
  2
*PAPER_SPACE
 70
     0
 10
0.0
 20
0.0
 30
0.0
  3
*PAPER_SPACE
  1

  4

  0
ENDBLK
  5
E
330
C
100
AcDbEntity
 67
     1
  8
0
100
AcDbBlockEnd
  0
ENDSEC
  0
SECTION
  2
ENTITIES
  0
LINE
  5
D5
330
2
100
AcDbEntity
  8
0
100
AcDbLine
 10
4.642199816654998
 20
1.906559522161405
 30
0.0
 11
4.642199816655001
 21
0.2418230739347562
 31
0.0
  0
LINE
  5
D6
330
2
100
AcDbEntity
  8
0
100
AcDbLine
 10
4.517199816654998
 20
1.906491747110912
 30
0.0
 11
4.517199816654998
 21
0.1161101395405568
 31
0.0
  0
LINE
  5
D7
330
2
100
AcDbEntity
  8
0
100
AcDbLine
 10
4.392199816654998
 20
3.969102898193718
 30
0.0
 11
4.392199816654998
 21
-0.0309838538709073
 31
0.0
  0
LINE
  5
D8
330
2
100
AcDbEntity
  8
0
100
AcDbLine
 10
4.392199816654998
 20
1.103665749802487
 30
0.0
 11
4.517199816654998
 21
1.103665749802487
 31
0.0
  0
LINE
  5
D9
330
2
100
AcDbEntity
  8
0
100
AcDbLine
 10
4.392199816654998
 20
1.342149398010029
 30
0.0
 11
4.517199816654998
 21
1.342149398010029
 31
0.0
  0
LINE
  5
DA
330
2
100
AcDbEntity
  8
0
100
AcDbLine
 10
6.393343958066453
 20
3.797073039355636
 30
0.0
 11
4.718261797457025
 21
3.797073039355638
 31
0.0
  0
LINE
  5
DB
330
2
100
AcDbEntity
  8
0
100
AcDbLine
 10
4.607670552539034
 20
3.908293380242034
 30
0.0
 11
6.393343958066449
 21
3.908228919595681
 31
0.0
  0
LINE
  5
DC
330
2
100
AcDbEntity
  8
0
100
AcDbLine
 10
4.454699816654998
 20
4.031602898193718
 30
0.0
 11
8.454699816654998
 21
4.031602898193718
 31
0.0
  0
LINE
  5
DD
330
2
100
AcDbEntity
  8
0
100
AcDbLine
 10
5.243615116359214
 20
3.268731259159296
 30
0.0
 11
4.607670552539034
 21
3.908293380242034
 31
0.0
  0
LINE
  5
DE
330
2
100
AcDbEntity
  8
0
100
AcDbLine
 10
5.154713539102495
 20
3.180859138658724
 30
0.0
 11
4.517199816654998
 21
3.822008904782253
 31
0.0
  0
LINE
  5
DF
330
2
100
AcDbEntity
  8
0
100
AcDbLine
 10
4.642199816654998
 20
2.031559522161405
 30
0.0
 11
4.642199816655001
 21
3.696295970388055
 31
0.0
  0
LINE
  5
E0
330
2
100
AcDbEntity
  8
0
100
AcDbLine
 10
4.517199816654998
 20
2.031627297211899
 30
0.0
 11
4.517199816654998
 21
3.822008904782253
 31
0.0
  0
LINE
  5
E1
330
2
100
AcDbEntity
  8
0
100
AcDbLine
 10
4.392199816654998
 20
2.595969646312782
 30
0.0
 11
4.517199816654998
 21
2.595969646312782
 31
0.0
  0
LINE
  5
E2
330
2
100
AcDbEntity
  8
0
100
AcDbLine
 10
4.392199816654998
 20
2.834453294520324
 30
0.0
 11
4.517199816654998
 21
2.834453294520324
 31
0.0
  0
LINE
  5
E3
330
2
100
AcDbEntity
  8
0
100
AcDbLine
 10
5.81708823134516
 20
1.906559522161406
 30
0.0
 11
4.517199816654998
 21
1.906491747110912
 31
0.0
  0
LINE
  5
E4
330
2
100
AcDbEntity
  8
0
100
AcDbLine
 10
5.81708823134516
 20
2.031559522161405
 30
0.0
 11
4.517199816654998
 21
2.031627297211899
 31
0.0
  0
ARC
  5
E5
330
2
100
AcDbEntity
  8
0
100
AcDbCircle
 10
4.454699816654998
 20
3.969102898193718
 30
0.0
 40
0.0625
100
AcDbArc
 50
90.0000000000001
 51
180.0000000000001
  0
CIRCLE
  5
E6
330
2
100
AcDbEntity
  8
0
100
AcDbCircle
 10
6.454632041604501
 20
1.969059522161406
 30
0.0
 40
0.5
  0
ARC
  5
E7
330
2
100
AcDbEntity
  8
0
100
AcDbCircle
 10
6.454632041604501
 20
1.969059522161406
 30
0.0
 40
0.6406
100
AcDbArc
 50
275.490052695927
 51
354.4010429897721
  0
ARC
  5
E8
330
2
100
AcDbEntity
  8
0
100
AcDbCircle
 10
6.454632041604501
 20
1.969059522161406
 30
0.0
 40
0.6406
100
AcDbArc
 50
185.5989570102279
 51
264.5099473040726
  0
CIRCLE
  5
E9
330
2
100
AcDbEntity
  8
0
100
AcDbCircle
 10
6.454632041604501
 20
1.969059522161406
 30
0.0
 40
0.5781
  0
LINE
  5
EA
330
2
100
AcDbEntity
  8
0
100
AcDbLine
 10
8.517199816654998
 20
3.969102898193718
 30
0.0
 11
8.517199816654998
 21
-0.0309838538709073
 31
0.0
  0
LINE
  5
EB
330
2
100
AcDbEntity
  8
0
100
AcDbLine
 10
8.392199816654998
 20
1.906491747110912
 30
0.0
 11
8.392199816654998
 21
0.1161101395405568
 31
0.0
  0
LINE
  5
EC
330
2
100
AcDbEntity
  8
0
100
AcDbLine
 10
8.267199816654998
 20
1.906559522161405
 30
0.0
 11
8.267199816654994
 21
0.2418230739347562
 31
0.0
  0
LINE
  5
ED
330
2
100
AcDbEntity
  8
0
100
AcDbLine
 10
6.393343958066453
 20
0.1410460049671736
 30
0.0
 11
4.718261797457025
 21
0.1410460049671727
 31
0.0
  0
LINE
  5
EE
330
2
100
AcDbEntity
  8
0
100
AcDbLine
 10
4.607670552539034
 20
0.0298256640807777
 30
0.0
 11
6.393343958066449
 21
0.0298901247271308
 31
0.0
  0
LINE
  5
EF
330
2
100
AcDbEntity
  8
0
100
AcDbLine
 10
4.454699816654998
 20
-0.0934838538709073
 30
0.0
 11
8.454699816654998
 21
-0.0934838538709073
 31
0.0
  0
ARC
  5
F0
330
2
100
AcDbEntity
  8
0
100
AcDbCircle
 10
4.454699816654998
 20
-0.0309838538709073
 30
0.0
 40
0.0625
100
AcDbArc
 50
179.9999999999999
 51
269.9999999999999
  0
ARC
  5
F1
330
2
100
AcDbEntity
  8
0
100
AcDbCircle
 10
4.978766765665149
 20
0.4924569399532288
 30
0.0
 40
0.0625192006788431
100
AcDbArc
 50
313.9088445633265
 51
136.7489229367804
  0
LINE
  5
F2
330
2
100
AcDbEntity
  8
0
100
AcDbLine
 10
5.243615116359214
 20
0.6693877851635151
 30
0.0
 11
4.607670552539034
 21
0.0298256640807777
 31
0.0
  0
LINE
  5
F3
330
2
100
AcDbEntity
  8
0
100
AcDbLine
 10
5.154713539102495
 20
0.7572599056640881
 30
0.0
 11
4.517199816654998
 21
0.1161101395405568
 31
0.0
  0
CIRCLE
  5
F4
330
2
100
AcDbEntity
  8
0
100
AcDbCircle
 10
5.448173387860358
 20
0.9745686633100243
 30
0.0
 40
0.171875
  0
CIRCLE
  5
F5
330
2
100
AcDbEntity
  8
0
100
AcDbCircle
 10
5.448173387860358
 20
0.9745686633100243
 30
0.0
 40
0.296875
  0
ARC
  5
F6
330
2
100
AcDbEntity
  8
0
100
AcDbCircle
 10
5.20025347785289
 20
0.7144257553616491
 30
0.0
 40
0.0625192006788431
100
AcDbArc
 50
313.9136239163716
 51
136.7537022898255
  0
CIRCLE
  5
F7
330
2
100
AcDbEntity
  8
0
100
AcDbCircle
 10
5.448173387860358
 20
0.9745686633100243
 30
0.0
 40
0.09375
  0
LINE
  5
F8
330
2
100
AcDbEntity
  8
0
100
AcDbLine
 10
8.301729080770961
 20
0.0298256640807777
 30
0.0
 11
6.516055675243546
 21
0.0298901247271308
 31
0.0
  0
LINE
  5
F9
330
2
100
AcDbEntity
  8
0
100
AcDbLine
 10
7.665784516950783
 20
0.6693877851635151
 30
0.0
 11
8.301729080770961
 21
0.0298256640807777
 31
0.0
  0
LINE
  5
FA
330
2
100
AcDbEntity
  8
0
100
AcDbLine
 10
7.7546860942075
 20
0.7572599056640881
 30
0.0
 11
8.392199816654998
 21
0.1161101395405568
 31
0.0
  0
LINE
  5
FB
330
2
100
AcDbEntity
  8
0
100
AcDbLine
 10
6.393343958066449
 20
0.0298901247271308
 30
0.0
 11
6.393343958066449
 21
1.331398067456612
 31
0.0
  0
LINE
  5
FC
330
2
100
AcDbEntity
  8
0
100
AcDbLine
 10
6.516055675243546
 20
0.0298901247271308
 30
0.0
 11
6.516055675243546
 21
1.331398067456612
 31
0.0
  0
ARC
  5
FD
330
2
100
AcDbEntity
  8
0
100
AcDbCircle
 10
7.930632867644846
 20
0.4924569399532288
 30
0.0
 40
0.0625192006788431
100
AcDbArc
 50
43.25107706321958
 51
226.0911554366734
  0
LINE
  5
FE
330
2
100
AcDbEntity
  8
0
100
AcDbLine
 10
6.516055675243543
 20
0.1410460049671736
 30
0.0
 11
8.19113783585297
 21
0.1410460049671727
 31
0.0
  0
CIRCLE
  5
FF
330
2
100
AcDbEntity
  8
0
100
AcDbCircle
 10
7.461226245449637
 20
0.9745686633100243
 30
0.0
 40
0.296875
  0
CIRCLE
  5
100
330
2
100
AcDbEntity
  8
0
100
AcDbCircle
 10
7.461226245449637
 20
0.9745686633100243
 30
0.0
 40
0.171875
  0
ARC
  5
101
330
2
100
AcDbEntity
  8
0
100
AcDbCircle
 10
7.709146155457106
 20
0.7144257553616491
 30
0.0
 40
0.0625192006788431
100
AcDbArc
 50
43.24629771017448
 51
226.0863760836284
  0
CIRCLE
  5
102
330
2
100
AcDbEntity
  8
0
100
AcDbCircle
 10
7.461226245449637
 20
0.9745686633100243
 30
0.0
 40
0.09375
  0
ARC
  5
103
330
2
100
AcDbEntity
  8
0
100
AcDbCircle
 10
8.454699816654998
 20
-0.0309838538709073
 30
0.0
 40
0.0625
100
AcDbArc
 50
270.0000000000001
 51
0.0000000000000833
  0
LINE
  5
104
330
2
100
AcDbEntity
  8
0
100
AcDbLine
 10
8.517199816654998
 20
1.103665749802487
 30
0.0
 11
8.392199816654998
 21
1.103665749802487
 31
0.0
  0
LINE
  5
105
330
2
100
AcDbEntity
  8
0
100
AcDbLine
 10
8.517199816654998
 20
1.342149398010029
 30
0.0
 11
8.392199816654998
 21
1.342149398010029
 31
0.0
  0
ARC
  5
106
330
2
100
AcDbEntity
  8
0
100
AcDbCircle
 10
6.454632041604501
 20
1.969059522161406
 30
0.0
 40
0.6406
100
AcDbArc
 50
95.49005269592735
 51
174.4010429897722
  0
CIRCLE
  5
107
330
2
100
AcDbEntity
  8
0
100
AcDbCircle
 10
5.448173387860358
 20
2.963550381012786
 30
0.0
 40
0.296875
  0
CIRCLE
  5
108
330
2
100
AcDbEntity
  8
0
100
AcDbCircle
 10
5.448173387860358
 20
2.963550381012786
 30
0.0
 40
0.171875
  0
ARC
  5
109
330
2
100
AcDbEntity
  8
0
100
AcDbCircle
 10
4.978766765665149
 20
3.445662104369582
 30
0.0
 40
0.0625192006788431
100
AcDbArc
 50
223.2510770632196
 51
46.09115543667348
  0
ARC
  5
10A
330
2
100
AcDbEntity
  8
0
100
AcDbCircle
 10
5.20025347785289
 20
3.223693288961162
 30
0.0
 40
0.0625192006788431
100
AcDbArc
 50
223.2462977101745
 51
46.0863760836284
  0
CIRCLE
  5
10B
330
2
100
AcDbEntity
  8
0
100
AcDbCircle
 10
5.448173387860358
 20
2.963550381012786
 30
0.0
 40
0.09375
  0
LINE
  5
10C
330
2
100
AcDbEntity
  8
0
100
AcDbLine
 10
7.7546860942075
 20
3.180859138658724
 30
0.0
 11
8.392199816654998
 21
3.822008904782253
 31
0.0
  0
LINE
  5
10D
330
2
100
AcDbEntity
  8
0
100
AcDbLine
 10
7.665784516950783
 20
3.268731259159296
 30
0.0
 11
8.301729080770961
 21
3.908293380242034
 31
0.0
  0
LINE
  5
10E
330
2
100
AcDbEntity
  8
0
100
AcDbLine
 10
8.267199816654998
 20
2.031559522161405
 30
0.0
 11
8.267199816654994
 21
3.696295970388055
 31
0.0
  0
LINE
  5
10F
330
2
100
AcDbEntity
  8
0
100
AcDbLine
 10
8.392199816654998
 20
2.031627297211899
 30
0.0
 11
8.392199816654998
 21
3.822008904782253
 31
0.0
  0
LINE
  5
110
330
2
100
AcDbEntity
  8
0
100
AcDbLine
 10
6.516055675243546
 20
3.908228919595681
 30
0.0
 11
6.516055675243546
 21
2.606720976866199
 31
0.0
  0
LINE
  5
111
330
2
100
AcDbEntity
  8
0
100
AcDbLine
 10
6.393343958066449
 20
3.908228919595681
 30
0.0
 11
6.393343958066449
 21
2.606720976866199
 31
0.0
  0
LINE
  5
112
330
2
100
AcDbEntity
  8
0
100
AcDbLine
 10
7.092311401964835
 20
2.031559522161405
 30
0.0
 11
8.392199816654998
 21
2.031627297211899
 31
0.0
  0
LINE
  5
113
330
2
100
AcDbEntity
  8
0
100
AcDbLine
 10
7.092311401964835
 20
1.906559522161406
 30
0.0
 11
8.392199816654998
 21
1.906491747110912
 31
0.0
  0
ARC
  5
114
330
2
100
AcDbEntity
  8
0
100
AcDbCircle
 10
6.454632041604501
 20
1.969059522161406
 30
0.0
 40
0.6406
100
AcDbArc
 50
5.598957010227847
 51
84.50994730407302
  0
CIRCLE
  5
115
330
2
100
AcDbEntity
  8
0
100
AcDbCircle
 10
7.461226245449637
 20
2.963550381012786
 30
0.0
 40
0.296875
  0
CIRCLE
  5
116
330
2
100
AcDbEntity
  8
0
100
AcDbCircle
 10
7.461226245449637
 20
2.963550381012786
 30
0.0
 40
0.09375
  0
CIRCLE
  5
117
330
2
100
AcDbEntity
  8
0
100
AcDbCircle
 10
7.461226245449637
 20
2.963550381012786
 30
0.0
 40
0.171875
  0
ARC
  5
118
330
2
100
AcDbEntity
  8
0
100
AcDbCircle
 10
7.709146155457106
 20
3.223693288961162
 30
0.0
 40
0.0625192006788431
100
AcDbArc
 50
133.9136239163716
 51
316.7537022898255
  0
ARC
  5
119
330
2
100
AcDbEntity
  8
0
100
AcDbCircle
 10
7.930632867644846
 20
3.445662104369582
 30
0.0
 40
0.0625192006788431
100
AcDbArc
 50
133.9088445633265
 51
316.7489229367805
  0
LINE
  5
11A
330
2
100
AcDbEntity
  8
0
100
AcDbLine
 10
8.517199816654998
 20
2.595969646312782
 30
0.0
 11
8.392199816654998
 21
2.595969646312782
 31
0.0
  0
LINE
  5
11B
330
2
100
AcDbEntity
  8
0
100
AcDbLine
 10
8.517199816654998
 20
2.834453294520324
 30
0.0
 11
8.392199816654998
 21
2.834453294520324
 31
0.0
  0
LINE
  5
11C
330
2
100
AcDbEntity
  8
0
100
AcDbLine
 10
8.301729080770961
 20
3.908293380242034
 30
0.0
 11
6.516055675243546
 21
3.908228919595681
 31
0.0
  0
LINE
  5
11D
330
2
100
AcDbEntity
  8
0
100
AcDbLine
 10
6.516055675243543
 20
3.797073039355636
 30
0.0
 11
8.19113783585297
 21
3.797073039355638
 31
0.0
  0
ARC
  5
11E
330
2
100
AcDbEntity
  8
0
100
AcDbCircle
 10
8.454699816654998
 20
3.969102898193718
 30
0.0
 40
0.0625
100
AcDbArc
 50
359.9999999999999
 51
89.99999999999992
  0
LINE
  5
11F
330
2
100
AcDbEntity
  8
0
100
AcDbLine
 10
0.0
 20
3.94196704112556
 30
0.0
 11
0.0
 21
0.0
 31
0.0
  0
LINE
  5
120
330
2
100
AcDbEntity
  8
0
100
AcDbLine
 10
0.1250000000000004
 20
3.828343124651187
 30
0.0
 11
0.1250000000000004
 21
0.1136239164743707
 31
0.0
  0
LINE
  5
121
330
2
100
AcDbEntity
  8
0
100
AcDbLine
 10
0.9844389858995943
 20
4.031559522161405
 30
0.0
 11
0.9844389858995948
 21
-0.0895924810358464
 31
0.0
  0
LINE
  5
122
330
2
100
AcDbEntity
  8
0
100
AcDbLine
 10
0.9844389858995943
 20
0.7269316737535911
 30
0.0
 11
0.1250000000000009
 21
1.042922040837654
 31
0.0
  0
LINE
  5
123
330
2
100
AcDbEntity
  8
0
100
AcDbLine
 10
0.9844389858995943
 20
1.32132633915674
 30
0.0
 11
0.1250000000000004
 21
1.32132633915674
 31
0.0
  0
LINE
  5
124
330
2
100
AcDbEntity
  8
0
100
AcDbLine
 10
0.9844389858995943
 20
1.383724975313953
 30
0.0
 11
0.0
 21
1.474931945022389
 31
0.0
  0
LINE
  5
125
330
2
100
AcDbEntity
  8
0
100
AcDbLine
 10
0.9844389858995943
 20
0.0354075189641527
 30
0.0
 11
0.1250000000000004
 21
0.1136239164743707
 31
0.0
  0
LINE
  5
126
330
2
100
AcDbEntity
  8
0
100
AcDbLine
 10
0.9844389858995943
 20
-0.0895924810358473
 30
0.0
 11
0.0
 21
0.0
 31
0.0
  0
ARC
  5
127
330
2
100
AcDbEntity
  8
0
100
AcDbCircle
 10
0.8533941199108845
 20
1.22295768842914
 30
0.0
 40
0.1192418328614338
100
AcDbArc
 50
89.97804075426815
 51
269.9780407542681
  0
LINE
  5
128
330
2
100
AcDbEntity
  8
0
100
AcDbLine
 10
0.9841065766863846
 20
1.103665749802487
 30
0.0
 11
0.8533484191512915
 21
1.103715864325369
 31
0.0
  0
LINE
  5
129
330
2
100
AcDbEntity
  8
0
100
AcDbLine
 10
0.9841979782055708
 20
1.342149398010029
 30
0.0
 11
0.8534398206704776
 21
1.34219951253291
 31
0.0
  0
LINE
  5
12A
330
2
100
AcDbEntity
  8
0
100
AcDbLine
 10
0.9844389858995943
 20
2.554532330111878
 30
0.0
 11
0.0
 21
2.463325360403441
 31
0.0
  0
LINE
  5
12B
330
2
100
AcDbEntity
  8
0
100
AcDbLine
 10
0.9844389858995948
 20
2.616930966269091
 30
0.0
 11
0.1250000000000004
 21
2.616930966269091
 31
0.0
  0
LINE
  5
12C
330
2
100
AcDbEntity
  8
0
100
AcDbLine
 10
0.9844389858995948
 20
2.026144511564297
 30
0.0
 11
0.1250000000000022
 21
2.026144511564296
 31
0.0
  0
LINE
  5
12D
330
2
100
AcDbEntity
  8
0
100
AcDbLine
 10
0.9844389858995948
 20
1.901144511564298
 30
0.0
 11
0.1250000000000022
 21
1.901144511564297
 31
0.0
  0
LINE
  5
12E
330
2
100
AcDbEntity
  8
0
100
AcDbLine
 10
0.9844389858995943
 20
3.21132563167224
 30
0.0
 11
0.1250000000000009
 21
2.895335264588178
 31
0.0
  0
ARC
  5
12F
330
2
100
AcDbEntity
  8
0
100
AcDbCircle
 10
0.8536808187610281
 20
2.719059522161405
 30
0.0
 40
0.1192418328614338
100
AcDbArc
 50
90.0
 51
270.0
  0
LINE
  5
130
330
2
100
AcDbEntity
  8
0
100
AcDbLine
 10
0.9844389858995961
 20
2.599817689299973
 30
0.0
 11
0.8536808187610281
 21
2.599817689299972
 31
0.0
  0
LINE
  5
131
330
2
100
AcDbEntity
  8
0
100
AcDbLine
 10
0.9844389858995961
 20
2.83830135502284
 30
0.0
 11
0.8536808187610281
 21
2.838301355022839
 31
0.0
  0
LINE
  5
132
330
2
100
AcDbEntity
  8
0
100
AcDbLine
 10
0.9844389858995943
 20
4.031559522161405
 30
0.0
 11
0.0
 21
3.941967041125558
 31
0.0
  0
LINE
  5
133
330
2
100
AcDbEntity
  8
0
100
AcDbLine
 10
0.9844389858995943
 20
3.906559522161405
 30
0.0
 11
0.1250000000000004
 21
3.828343124651187
 31
0.0
  0
LINE
  5
134
330
2
100
AcDbEntity
  8
0
100
AcDbLine
 10
12.78439963330999
 20
1.901144511564297
 30
0.0
 11
12.78439963330999
 21
1.275291660112773
 31
0.0
  0
LINE
  5
135
330
2
100
AcDbEntity
  8
0
100
AcDbLine
 10
11.9249606474104
 20
4.031559522161405
 30
0.0
 11
11.9249606474104
 21
-0.0895924810358464
 31
0.0
  0
LINE
  5
136
330
2
100
AcDbEntity
  8
0
100
AcDbLine
 10
12.90939963331
 20
3.94196704112556
 30
0.0
 11
12.90939963331
 21
0.0
 31
0.0
  0
LINE
  5
137
330
2
100
AcDbEntity
  8
0
100
AcDbLine
 10
11.9249606474104
 20
1.383724975313953
 30
0.0
 11
12.90939963331
 21
1.474931945022389
 31
0.0
  0
LINE
  5
138
330
2
100
AcDbEntity
  8
0
100
AcDbLine
 10
11.9249606474104
 20
1.32132633915674
 30
0.0
 11
12.78439963331
 21
1.32132633915674
 31
0.0
  0
LINE
  5
139
330
2
100
AcDbEntity
  8
0
100
AcDbLine
 10
11.9249606474104
 20
-0.0895924810358473
 30
0.0
 11
12.90939963331
 21
0.0
 31
0.0
  0
LINE
  5
13A
330
2
100
AcDbEntity
  8
0
100
AcDbLine
 10
11.9249606474104
 20
0.0354075189641527
 30
0.0
 11
12.78439963331
 21
0.1136239164743707
 31
0.0
  0
LINE
  5
13B
330
2
100
AcDbEntity
  8
0
100
AcDbLine
 10
12.78439963330999
 20
0.6815416601127762
 30
0.0
 11
12.78439963331
 21
0.1136239164743707
 31
0.0
  0
LINE
  5
13C
330
2
100
AcDbEntity
  8
0
100
AcDbLine
 10
12.78439963330999
 20
1.072166660112781
 30
0.0
 11
12.78439963330999
 21
0.8846666601127708
 31
0.0
  0
LINE
  5
13D
330
2
100
AcDbEntity
  8
0
100
AcDbLine
 10
12.69064963331
 20
0.8065416601127762
 30
0.0
 11
12.69064963331
 21
1.150291660112777
 31
0.0
  0
LINE
  5
13E
330
2
100
AcDbEntity
  8
0
100
AcDbLine
 10
12.78439963331
 20
0.884666660112778
 30
0.0
 11
12.78439963331
 21
1.072166660112775
 31
0.0
  0
LINE
  5
13F
330
2
100
AcDbEntity
  8
0
100
AcDbLine
 10
12.90939963331
 20
0.6815416601127744
 30
0.0
 11
12.90939963331
 21
1.275291660112774
 31
0.0
  0
LINE
  5
140
330
2
100
AcDbEntity
  8
0
100
AcDbLine
 10
12.53439963331
 20
0.6815416601127762
 30
0.0
 11
12.53439963331
 21
1.275291660112773
 31
0.0
  0
LINE
  5
141
330
2
100
AcDbEntity
  8
0
100
AcDbLine
 10
12.69064963331
 20
0.8065416601127762
 30
0.0
 11
12.78439963331
 21
0.8846666601127762
 31
0.0
  0
LINE
  5
142
330
2
100
AcDbEntity
  8
0
100
AcDbLine
 10
12.53439963331
 20
0.6815416601127762
 30
0.0
 11
12.78439963331
 21
0.6815416601127762
 31
0.0
  0
LINE
  5
143
330
2
100
AcDbEntity
  8
0
100
AcDbLine
 10
12.53439963331
 20
0.8065416601127762
 30
0.0
 11
12.69064963331
 21
0.8065416601127762
 31
0.0
  0
LINE
  5
144
330
2
100
AcDbEntity
  8
0
100
AcDbLine
 10
12.78439963331
 20
0.8846666601127762
 30
0.0
 11
12.90939963331
 21
0.8846666601127762
 31
0.0
  0
LINE
  5
145
330
2
100
AcDbEntity
  8
0
100
AcDbLine
 10
12.69064963331
 20
1.150291660112775
 30
0.0
 11
12.78439963331
 21
1.072166660112775
 31
0.0
  0
LINE
  5
146
330
2
100
AcDbEntity
  8
0
100
AcDbLine
 10
12.53439963331
 20
1.275291660112773
 30
0.0
 11
12.78439963331
 21
1.275291660112773
 31
0.0
  0
LINE
  5
147
330
2
100
AcDbEntity
  8
0
100
AcDbLine
 10
12.53439963331
 20
1.150291660112776
 30
0.0
 11
12.69064963331
 21
1.150291660112775
 31
0.0
  0
LINE
  5
148
330
2
100
AcDbEntity
  8
0
100
AcDbLine
 10
12.78439963331
 20
1.072166660112775
 30
0.0
 11
12.90939963331
 21
1.072166660112775
 31
0.0
  0
LINE
  5
149
330
2
100
AcDbEntity
  8
0
100
AcDbLine
 10
12.78439963331
 20
3.828343124651187
 30
0.0
 11
12.78439963331
 21
3.260425381012784
 31
0.0
  0
LINE
  5
14A
330
2
100
AcDbEntity
  8
0
100
AcDbLine
 10
11.9249606474104
 20
2.554532330111878
 30
0.0
 11
12.90939963331
 21
2.463325360403441
 31
0.0
  0
LINE
  5
14B
330
2
100
AcDbEntity
  8
0
100
AcDbLine
 10
11.9249606474104
 20
1.901144511564298
 30
0.0
 11
12.78439963330999
 21
1.901144511564297
 31
0.0
  0
LINE
  5
14C
330
2
100
AcDbEntity
  8
0
100
AcDbLine
 10
11.9249606474104
 20
2.026144511564297
 30
0.0
 11
12.78439963330999
 21
2.026144511564296
 31
0.0
  0
LINE
  5
14D
330
2
100
AcDbEntity
  8
0
100
AcDbLine
 10
11.9249606474104
 20
2.616930966269091
 30
0.0
 11
12.78439963331
 21
2.616930966269091
 31
0.0
  0
LINE
  5
14E
330
2
100
AcDbEntity
  8
0
100
AcDbLine
 10
12.78439963331
 20
2.666675381012787
 30
0.0
 11
12.78439963330999
 21
2.026144511564295
 31
0.0
  0
LINE
  5
14F
330
2
100
AcDbEntity
  8
0
100
AcDbLine
 10
12.90939963331
 20
3.260425381012786
 30
0.0
 11
12.90939963331
 21
2.666675381012786
 31
0.0
  0
LINE
  5
150
330
2
100
AcDbEntity
  8
0
100
AcDbLine
 10
12.53439963331
 20
3.260425381012784
 30
0.0
 11
12.53439963331
 21
2.666675381012787
 31
0.0
  0
LINE
  5
151
330
2
100
AcDbEntity
  8
0
100
AcDbLine
 10
12.69064963331
 20
3.135425381012784
 30
0.0
 11
12.69064963331
 21
2.791675381012783
 31
0.0
  0
LINE
  5
152
330
2
100
AcDbEntity
  8
0
100
AcDbLine
 10
12.78439963331
 20
3.057300381012782
 30
0.0
 11
12.78439963331
 21
2.869800381012785
 31
0.0
  0
LINE
  5
153
330
2
100
AcDbEntity
  8
0
100
AcDbLine
 10
12.69064963331
 20
2.791675381012785
 30
0.0
 11
12.78439963331
 21
2.869800381012785
 31
0.0
  0
LINE
  5
154
330
2
100
AcDbEntity
  8
0
100
AcDbLine
 10
12.53439963331
 20
2.666675381012787
 30
0.0
 11
12.78439963331
 21
2.666675381012787
 31
0.0
  0
LINE
  5
155
330
2
100
AcDbEntity
  8
0
100
AcDbLine
 10
12.53439963331
 20
2.791675381012784
 30
0.0
 11
12.69064963331
 21
2.791675381012785
 31
0.0
  0
LINE
  5
156
330
2
100
AcDbEntity
  8
0
100
AcDbLine
 10
12.78439963331
 20
2.869800381012785
 30
0.0
 11
12.90939963331
 21
2.869800381012785
 31
0.0
  0
LINE
  5
157
330
2
100
AcDbEntity
  8
0
100
AcDbLine
 10
12.69064963331
 20
3.135425381012784
 30
0.0
 11
12.78439963331
 21
3.057300381012784
 31
0.0
  0
LINE
  5
158
330
2
100
AcDbEntity
  8
0
100
AcDbLine
 10
12.53439963331
 20
3.135425381012784
 30
0.0
 11
12.69064963331
 21
3.135425381012784
 31
0.0
  0
LINE
  5
159
330
2
100
AcDbEntity
  8
0
100
AcDbLine
 10
12.78439963331
 20
3.057300381012784
 30
0.0
 11
12.90939963331
 21
3.057300381012784
 31
0.0
  0
LINE
  5
15A
330
2
100
AcDbEntity
  8
0
100
AcDbLine
 10
12.53439963331
 20
3.260425381012784
 30
0.0
 11
12.78439963331
 21
3.260425381012784
 31
0.0
  0
LINE
  5
15B
330
2
100
AcDbEntity
  8
0
100
AcDbLine
 10
11.9249606474104
 20
4.031559522161405
 30
0.0
 11
12.90939963331
 21
3.941967041125558
 31
0.0
  0
LINE
  5
15C
330
2
100
AcDbEntity
  8
0
100
AcDbLine
 10
11.9249606474104
 20
3.906559522161405
 30
0.0
 11
12.78439963331
 21
3.828343124651187
 31
0.0
  0
LINE
  5
16D
330
2
100
AcDbEntity
  8
0
100
AcDbLine
 10
4.500098123866684
 20
6.564437182406059
 30
0.0
 11
8.442065164992243
 21
6.564437182406059
 31
0.0
  0
LINE
  5
16E
330
2
100
AcDbEntity
  8
0
100
AcDbLine
 10
4.410505642830838
 20
7.548876168305654
 30
0.0
 11
8.531657646028091
 21
7.548876168305654
 31
0.0
  0
LINE
  5
16F
330
2
100
AcDbEntity
  8
0
100
AcDbLine
 10
4.410505642830838
 20
7.548876168305654
 30
0.0
 11
4.500098123866685
 21
6.564437182406059
 31
0.0
  0
LINE
  5
170
330
2
100
AcDbEntity
  8
0
100
AcDbLine
 10
8.531657646028091
 20
7.548876168305654
 30
0.0
 11
8.442065164992243
 21
6.564437182406059
 31
0.0
  0
ENDSEC
  0
SECTION
  2
OBJECTS
  0
DICTIONARY
  5
7
330
0
100
AcDbDictionary
281
     1
  3
ACAD_COLOR
350
175
  3
ACAD_GROUP
350
1F
  3
ACAD_LAYOUT
350
B
  3
ACAD_MATERIAL
350
177
  3
ACAD_MLINESTYLE
350
20
  3
ACAD_PLOTSETTINGS
350
21
  3
ACAD_PLOTSTYLENAME
350
6
  3
ACDBHEADERROUNDTRIPXREC
350
174
  3
AcDbVariableDictionary
350
C9
  0
DICTIONARY
  5
175
102
{ACAD_REACTORS
330
7
102
}
330
7
100
AcDbDictionary
281
     1
  0
DICTIONARY
  5
1F
102
{ACAD_REACTORS
330
7
102
}
330
7
100
AcDbDictionary
281
     1
  0
DICTIONARY
  5
B
102
{ACAD_REACTORS
330
7
102
}
330
7
100
AcDbDictionary
281
     1
  3
Layout1
350
F
  3
Model
350
A
  0
DICTIONARY
  5
177
102
{ACAD_REACTORS
330
7
102
}
330
7
100
AcDbDictionary
281
     1
  0
DICTIONARY
  5
20
102
{ACAD_REACTORS
330
7
102
}
330
7
100
AcDbDictionary
281
     1
  3
STANDARD
350
23
  0
DICTIONARY
  5
21
102
{ACAD_REACTORS
330
7
102
}
330
7
100
AcDbDictionary
281
     1
  0
ACDBDICTIONARYWDFLT
  5
6
102
{ACAD_REACTORS
330
7
102
}
330
7
100
AcDbDictionary
281
     1
  3
Normal
350
5
100
AcDbDictionaryWithDefault
340
5
  0
DICTIONARY
  5
174
102
{ACAD_REACTORS
330
7
102
}
330
7
100
AcDbDictionary
281
     1
  3
COLORDICT
350
176
  3
MATERIALDICT
350
178
  0
DICTIONARY
  5
C9
102
{ACAD_REACTORS
330
7
102
}
330
7
100
AcDbDictionary
281
     1
  3
HIDETEXT
350
173
  0
LAYOUT
  5
F
102
{ACAD_REACTORS
330
B
102
}
102
{ACAD_XDICTIONARY
360
179
102
}
330
B
100
AcDbPlotSettings
  1

  2
X:\Program Files\AutoCAD2002\plotters\DWF ePlot (optimized for plotting).pc3
  4

  6

 40
0.0
 41
0.0
 42
0.0
 43
0.0
 44
0.0
 45
0.0
 46
0.0
 47
0.0
 48
0.0
 49
0.0
140
0.0
141
0.0
142
1.0
143
1.0
 70
   688
 72
     0
 73
     0
 74
     5
  7

 75
    16
147
1.0
148
0.0
149
0.0
100
AcDbLayout
  1
Layout1
 70
     0
 71
     1
 10
0.0
 20
0.0
 11
12.0
 21
9.0
 12
0.0
 22
0.0
 32
0.0
 14
1.000000000000000E+20
 24
1.000000000000000E+20
 34
1.000000000000000E+20
 15
-1.000000000000000E+20
 25
-1.000000000000000E+20
 35
-1.000000000000000E+20
146
0.0
 13
0.0
 23
0.0
 33
0.0
 16
1.0
 26
0.0
 36
0.0
 17
0.0
 27
1.0
 37
0.0
 76
     0
330
C
  0
LAYOUT
  5
A
102
{ACAD_REACTORS
330
B
102
}
102
{ACAD_XDICTIONARY
360
17B
102
}
330
B
100
AcDbPlotSettings
  1

  2
X:\Program Files\AutoCAD2002\plotters\DWF ePlot (optimized for plotting).pc3
  4

  6

 40
0.0
 41
0.0
 42
0.0
 43
0.0
 44
0.0
 45
0.0
 46
0.0
 47
0.0
 48
0.0
 49
0.0
140
0.0
141
0.0
142
1.0
143
1.0
 70
  1712
 72
     0
 73
     0
 74
     0
  7

 75
     0
147
1.0
148
0.0
149
0.0
100
AcDbLayout
  1
Model
 70
     1
 71
     0
 10
0.0
 20
0.0
 11
12.0
 21
9.0
 12
0.0
 22
0.0
 32
0.0
 14
0.0
 24
0.0
 34
0.0
 15
0.0
 25
0.0
 35
0.0
146
0.0
 13
0.0
 23
0.0
 33
0.0
 16
1.0
 26
0.0
 36
0.0
 17
0.0
 27
1.0
 37
0.0
 76
     0
330
2
  0
MLINESTYLE
  5
23
102
{ACAD_REACTORS
330
20
102
}
330
20
100
AcDbMlineStyle
  2
STANDARD
 70
     0
  3

 62
   256
 51
90.0
 52
90.0
 71
     2
 49
0.5
 62
   256
  6
BYLAYER
 49
-0.5
 62
   256
  6
BYLAYER
  0
ACDBPLACEHOLDER
  5
5
102
{ACAD_REACTORS
330
6
102
}
330
6
  0
XRECORD
  5
176
102
{ACAD_REACTORS
330
174
102
}
330
174
100
AcDbXrecord
340
175
  0
XRECORD
  5
178
102
{ACAD_REACTORS
330
174
102
}
330
174
100
AcDbXrecord
340
177
  0
DICTIONARYVAR
  5
173
102
{ACAD_REACTORS
330
C9
102
}
330
C9
100
DictionaryVariables
280
     0
  1
0
  0
DICTIONARY
  5
179
330
F
100
AcDbDictionary
280
     1
281
     1
  3
ACAD_XREC_ROUNDTRIP
360
17A
  0
DICTIONARY
  5
17B
330
A
100
AcDbDictionary
280
     1
281
     1
  3
ACAD_XREC_ROUNDTRIP
360
17C
  0
XRECORD
  5
17A
102
{ACAD_REACTORS
330
179
102
}
330
179
100
AcDbXrecord
102
SHADEPLOT
 70
     0
102
SHADEPLOTRESLEVEL
 70
     2
102
SHADEPLOTCUSTOMDPI
 70
   300
  0
XRECORD
  5
17C
102
{ACAD_REACTORS
330
17B
102
}
330
17B
100
AcDbXrecord
102
SHADEPLOT
 70
     0
102
SHADEPLOTRESLEVEL
 70
     2
102
SHADEPLOTCUSTOMDPI
 70
   300
  0
ENDSEC
  0
EOF
