  0
SECTION
  2
HEADER
  9
$ACADVER
  1
AC1015
  9
$ACADMAINTVER
 70
     6
  9
$DWGCODEPAGE
  3
ANSI_1252
  9
$INSBASE
 10
0.0
 20
0.0
 30
0.0
  9
$EXTMIN
 10
-0.0002668632995793
 20
-0.1344732475907549
 30
-0.0000000000112498
  9
$EXTMAX
 10
13.38616880401322
 20
9.456383933261066
 30
0.0000000000002956
  9
$LIMMIN
 10
0.0
 20
0.0
  9
$LIMMAX
 10
17.4993
 20
13.3328
  9
$ORTHOMODE
 70
     1
  9
$REGENMODE
 70
     1
  9
$FILLMODE
 70
     1
  9
$QTEXTMODE
 70
     0
  9
$MIRRTEXT
 70
     1
  9
$LTSCALE
 40
0.5
  9
$ATTMODE
 70
     1
  9
$TEXTSIZE
 40
0.149994
  9
$TRACEWID
 40
0.05
  9
$TEXTSTYLE
  7
STANDARD
  9
$CLAYER
  8
0
  9
$CELTYPE
  6
BYLAYER
  9
$CECOLOR
 62
   256
  9
$CELTSCALE
 40
1.0
  9
$DISPSILH
 70
     0
  9
$DIMSCALE
 40
0.0
  9
$DIMASZ
 40
0.1875
  9
$DIMEXO
 40
0.0625
  9
$DIMDLI
 40
0.375
  9
$DIMRND
 40
0.0
  9
$DIMDLE
 40
0.0
  9
$DIMEXE
 40
0.078125
  9
$DIMTP
 40
0.0
  9
$DIMTM
 40
0.0
  9
$DIMTXT
 40
0.125
  9
$DIMCEN
 40
-0.0625
  9
$DIMTSZ
 40
0.0
  9
$DIMTOL
 70
     0
  9
$DIMLIM
 70
     0
  9
$DIMTIH
 70
     1
  9
$DIMTOH
 70
     1
  9
$DIMSE1
 70
     0
  9
$DIMSE2
 70
     0
  9
$DIMTAD
 70
     0
  9
$DIMZIN
 70
     0
  9
$DIMBLK
  1

  9
$DIMASO
 70
     0
  9
$DIMSHO
 70
     0
  9
$DIMPOST
  1

  9
$DIMAPOST
  1

  9
$DIMALT
 70
     0
  9
$DIMALTD
 70
     2
  9
$DIMALTF
 40
25.4
  9
$DIMLFAC
 40
1.0
  9
$DIMTOFL
 70
     1
  9
$DIMTVP
 40
0.0
  9
$DIMTIX
 70
     0
  9
$DIMSOXD
 70
     0
  9
$DIMSAH
 70
     0
  9
$DIMBLK1
  1

  9
$DIMBLK2
  1

  9
$DIMSTYLE
  2
STANDARD
  9
$DIMCLRD
 70
     0
  9
$DIMCLRE
 70
     0
  9
$DIMCLRT
 70
     0
  9
$DIMTFAC
 40
1.0
  9
$DIMGAP
 40
0.125
  9
$DIMJUST
 70
     0
  9
$DIMSD1
 70
     0
  9
$DIMSD2
 70
     0
  9
$DIMTOLJ
 70
     1
  9
$DIMTZIN
 70
     0
  9
$DIMALTZ
 70
     0
  9
$DIMALTTZ
 70
     0
  9
$DIMUPT
 70
     1
  9
$DIMDEC
 70
     5
  9
$DIMTDEC
 70
     4
  9
$DIMALTU
 70
     2
  9
$DIMALTTD
 70
     2
  9
$DIMTXSTY
  7
STANDARD
  9
$DIMAUNIT
 70
     0
  9
$DIMADEC
 70
     0
  9
$DIMALTRND
 40
0.0
  9
$DIMAZIN
 70
     0
  9
$DIMDSEP
 70
    46
  9
$DIMATFIT
 70
     3
  9
$DIMFRAC
 70
     2
  9
$DIMLDRBLK
  1

  9
$DIMLUNIT
 70
     5
  9
$DIMLWD
 70
    -2
  9
$DIMLWE
 70
    -2
  9
$DIMTMOVE
 70
     0
  9
$LUNITS
 70
     5
  9
$LUPREC
 70
     4
  9
$SKETCHINC
 40
0.1
  9
$FILLETRAD
 40
0.0
  9
$AUNITS
 70
     0
  9
$AUPREC
 70
     0
  9
$MENU
  1
acad
  9
$ELEVATION
 40
0.0
  9
$PELEVATION
 40
0.0
  9
$THICKNESS
 40
0.0
  9
$LIMCHECK
 70
     0
  9
$CHAMFERA
 40
0.0
  9
$CHAMFERB
 40
0.0
  9
$CHAMFERC
 40
0.0
  9
$CHAMFERD
 40
0.0
  9
$SKPOLY
 70
     0
  9
$TDCREATE
 40
2448958.706114815
  9
$TDUCREATE
 40
2448959.039448148
  9
$TDUPDATE
 40
2453809.932005567
  9
$TDUUPDATE
 40
2453810.265338901
  9
$TDINDWG
 40
0.688078588
  9
$TDUSRTIMER
 40
0.688078588
  9
$USRTIMER
 70
     1
  9
$ANGBASE
 50
0.0
  9
$ANGDIR
 70
     0
  9
$PDMODE
 70
     0
  9
$PDSIZE
 40
0.0
  9
$PLINEWID
 40
0.0
  9
$SPLFRAME
 70
     0
  9
$SPLINETYPE
 70
     6
  9
$SPLINESEGS
 70
     8
  9
$HANDSEED
  5
17B
  9
$SURFTAB1
 70
     6
  9
$SURFTAB2
 70
     6
  9
$SURFTYPE
 70
     6
  9
$SURFU
 70
     6
  9
$SURFV
 70
     6
  9
$UCSBASE
  2

  9
$UCSNAME
  2

  9
$UCSORG
 10
0.0
 20
0.0
 30
0.0
  9
$UCSXDIR
 10
1.0
 20
0.0
 30
0.0
  9
$UCSYDIR
 10
0.0
 20
1.0
 30
0.0
  9
$UCSORTHOREF
  2

  9
$UCSORTHOVIEW
 70
     0
  9
$UCSORGTOP
 10
0.0
 20
0.0
 30
0.0
  9
$UCSORGBOTTOM
 10
0.0
 20
0.0
 30
0.0
  9
$UCSORGLEFT
 10
0.0
 20
0.0
 30
0.0
  9
$UCSORGRIGHT
 10
0.0
 20
0.0
 30
0.0
  9
$UCSORGFRONT
 10
0.0
 20
0.0
 30
0.0
  9
$UCSORGBACK
 10
0.0
 20
0.0
 30
0.0
  9
$PUCSBASE
  2

  9
$PUCSNAME
  2

  9
$PUCSORG
 10
0.0
 20
0.0
 30
0.0
  9
$PUCSXDIR
 10
1.0
 20
0.0
 30
0.0
  9
$PUCSYDIR
 10
0.0
 20
1.0
 30
0.0
  9
$PUCSORTHOREF
  2

  9
$PUCSORTHOVIEW
 70
     0
  9
$PUCSORGTOP
 10
0.0
 20
0.0
 30
0.0
  9
$PUCSORGBOTTOM
 10
0.0
 20
0.0
 30
0.0
  9
$PUCSORGLEFT
 10
0.0
 20
0.0
 30
0.0
  9
$PUCSORGRIGHT
 10
0.0
 20
0.0
 30
0.0
  9
$PUCSORGFRONT
 10
0.0
 20
0.0
 30
0.0
  9
$PUCSORGBACK
 10
0.0
 20
0.0
 30
0.0
  9
$USERI1
 70
     0
  9
$USERI2
 70
     0
  9
$USERI3
 70
     0
  9
$USERI4
 70
     0
  9
$USERI5
 70
     0
  9
$USERR1
 40
0.0
  9
$USERR2
 40
0.0
  9
$USERR3
 40
0.0
  9
$USERR4
 40
0.0
  9
$USERR5
 40
0.0
  9
$WORLDVIEW
 70
     1
  9
$SHADEDGE
 70
     3
  9
$SHADEDIF
 70
    70
  9
$TILEMODE
 70
     1
  9
$MAXACTVP
 70
    16
  9
$PINSBASE
 10
0.0
 20
0.0
 30
0.0
  9
$PLIMCHECK
 70
     0
  9
$PEXTMIN
 10
1.000000000000000E+20
 20
1.000000000000000E+20
 30
1.000000000000000E+20
  9
$PEXTMAX
 10
-1.000000000000000E+20
 20
-1.000000000000000E+20
 30
-1.000000000000000E+20
  9
$PLIMMIN
 10
0.0
 20
0.0
  9
$PLIMMAX
 10
12.0
 20
9.0
  9
$UNITMODE
 70
     0
  9
$VISRETAIN
 70
     0
  9
$PLINEGEN
 70
     0
  9
$PSLTSCALE
 70
     0
  9
$TREEDEPTH
 70
  3020
  9
$CMLSTYLE
  2
STANDARD
  9
$CMLJUST
 70
     0
  9
$CMLSCALE
 40
1.0
  9
$PROXYGRAPHICS
 70
     1
  9
$MEASUREMENT
 70
     0
  9
$CELWEIGHT
370
    -1
  9
$ENDCAPS
280
     0
  9
$JOINSTYLE
280
     0
  9
$LWDISPLAY
290
     0
  9
$INSUNITS
 70
     0
  9
$HYPERLINKBASE
  1

  9
$STYLESHEET
  1

  9
$XEDIT
290
     1
  9
$CEPSNTYPE
380
     0
  9
$PSTYLEMODE
290
     1
  9
$FINGERPRINTGUID
  2
{32EFF5A6-2217-4724-B9AE-8A20D1323BC9}
  9
$VERSIONGUID
  2
{D7612A88-26F1-4720-8764-280E9C9181D5}
  9
$EXTNAMES
290
     1
  9
$PSVPSCALE
 40
0.0
  9
$OLESTARTUP
290
     0
  0
ENDSEC
  0
SECTION
  2
CLASSES
  0
CLASS
  1
DICTIONARYVAR
  2
AcDbDictionaryVar
  3
AutoCAD 2000
 90
        0
280
     0
281
     0
  0
CLASS
  1
LWPOLYLINE
  2
AcDbPolyline
  3
AutoCAD 2000
 90
        0
280
     0
281
     1
  0
CLASS
  1
HATCH
  2
AcDbHatch
  3
AutoCAD 2000
 90
        0
280
     0
281
     1
  0
CLASS
  1
ACDBDICTIONARYWDFLT
  2
AcDbDictionaryWithDefault
  3
AutoCAD 2000
 90
        0
280
     0
281
     0
  0
CLASS
  1
ACDBPLACEHOLDER
  2
AcDbPlaceHolder
  3
ObjectDBX Classes
 90
        0
280
     0
281
     0
  0
CLASS
  1
LAYOUT
  2
AcDbLayout
  3
ObjectDBX Classes
 90
        0
280
     0
281
     0
  0
ENDSEC
  0
SECTION
  2
TABLES
  0
TABLE
  2
VPORT
  5
19
330
0
100
AcDbSymbolTable
 70
     2
  0
VPORT
  5
170
330
19
100
AcDbSymbolTableRecord
100
AcDbViewportTableRecord
  2
*Active
 70
     0
 10
0.0
 20
0.0
 11
1.0
 21
1.0
 12
8.749516568350213
 22
6.599163376204622
 13
0.0
 23
0.0
 14
0.063
 24
0.063
 15
0.25
 25
0.25
 16
0.0
 26
0.0
 36
1.0
 17
0.0
 27
0.0
 37
0.0
 40
13.69298173777384
 41
1.840336134453781
 42
50.0
 43
0.0
 44
0.0
 50
0.0
 51
0.0
 71
     0
 72
   100
 73
     1
 74
     1
 75
     0
 76
     0
 77
     0
 78
     0
281
     0
 65
     1
110
0.0
120
0.0
130
0.0
111
1.0
121
0.0
131
0.0
112
0.0
122
1.0
132
0.0
 79
     0
146
0.0
  0
ENDTAB
  0
TABLE
  2
LTYPE
  5
14
330
0
100
AcDbSymbolTable
 70
     1
  0
LTYPE
  5
15
330
14
100
AcDbSymbolTableRecord
100
AcDbLinetypeTableRecord
  2
BYBLOCK
 70
     0
  3

 72
    65
 73
     0
 40
0.0
  0
LTYPE
  5
16
330
14
100
AcDbSymbolTableRecord
100
AcDbLinetypeTableRecord
  2
BYLAYER
 70
     0
  3

 72
    65
 73
     0
 40
0.0
  0
LTYPE
  5
8
330
14
100
AcDbSymbolTableRecord
100
AcDbLinetypeTableRecord
  2
CONTINUOUS
 70
     0
  3
Solid line
 72
    65
 73
     0
 40
0.0
  0
ENDTAB
  0
TABLE
  2
LAYER
  5
10
330
0
100
AcDbSymbolTable
 70
     1
  0
LAYER
  5
4
330
10
100
AcDbSymbolTableRecord
100
AcDbLayerTableRecord
  2
0
 70
     0
 62
     7
  6
CONTINUOUS
370
    -3
390
5
  0
ENDTAB
  0
TABLE
  2
STYLE
  5
11
330
0
100
AcDbSymbolTable
 70
     1
  0
STYLE
  5
12
330
11
100
AcDbSymbolTableRecord
100
AcDbTextStyleTableRecord
  2
STANDARD
 70
     0
 40
0.0
 41
1.0
 50
0.0
 71
     0
 42
0.149994
  3
TXT
  4

  0
ENDTAB
  0
TABLE
  2
VIEW
  5
17
330
0
100
AcDbSymbolTable
 70
     0
  0
ENDTAB
  0
TABLE
  2
UCS
  5
18
330
0
100
AcDbSymbolTable
 70
     0
  0
ENDTAB
  0
TABLE
  2
APPID
  5
1B
330
0
100
AcDbSymbolTable
 70
     1
  0
APPID
  5
1C
330
1B
100
AcDbSymbolTableRecord
100
AcDbRegAppTableRecord
  2
ACAD
 70
     0
  0
ENDTAB
  0
TABLE
  2
DIMSTYLE
  5
1D
330
0
100
AcDbSymbolTable
 70
     1
100
AcDbDimStyleTable
  0
DIMSTYLE
105
24
330
1D
100
AcDbSymbolTableRecord
100
AcDbDimStyleTableRecord
  2
STANDARD
 70
     0
  3

  4

340
12
  0
ENDTAB
  0
TABLE
  2
BLOCK_RECORD
  5
1
330
0
100
AcDbSymbolTable
 70
     1
  0
BLOCK_RECORD
  5
2
330
1
100
AcDbSymbolTableRecord
100
AcDbBlockTableRecord
  2
*MODEL_SPACE
340
A
  0
BLOCK_RECORD
  5
C
330
1
100
AcDbSymbolTableRecord
100
AcDbBlockTableRecord
  2
*PAPER_SPACE
340
F
  0
ENDTAB
  0
ENDSEC
  0
SECTION
  2
BLOCKS
  0
BLOCK
  5
3
330
2
100
AcDbEntity
  8
0
100
AcDbBlockBegin
  2
*MODEL_SPACE
 70
     0
 10
0.0
 20
0.0
 30
0.0
  3
*MODEL_SPACE
  1

  4

  0
ENDBLK
  5
9
330
2
100
AcDbEntity
  8
0
100
AcDbBlockEnd
  0
BLOCK
  5
D
330
C
100
AcDbEntity
 67
     1
  8
0
100
AcDbBlockBegin
  2
*PAPER_SPACE
 70
     0
 10
0.0
 20
0.0
 30
0.0
  3
*PAPER_SPACE
  1

  4

  0
ENDBLK
  5
E
330
C
100
AcDbEntity
 67
     1
  8
0
100
AcDbBlockEnd
  0
ENDSEC
  0
SECTION
  2
ENTITIES
  0
LINE
  5
D2
330
2
100
AcDbEntity
  8
0
100
AcDbLine
 10
4.419956591370843
 20
2.46863086944849
 30
0.0
 11
4.419956591370845
 21
0.2271232764117723
 31
0.0
  0
CIRCLE
  5
D3
330
2
100
AcDbEntity
  8
0
100
AcDbCircle
 10
6.826088816320347
 20
2.531130869448491
 30
0.0
 40
0.5
  0
CIRCLE
  5
D4
330
2
100
AcDbEntity
  8
0
100
AcDbCircle
 10
6.826088816320347
 20
2.531130869448491
 30
0.0
 40
0.5781
  0
LINE
  5
D5
330
2
100
AcDbEntity
  8
0
100
AcDbLine
 10
4.294956591370843
 20
2.468563094397997
 30
0.0
 11
4.294956591370842
 21
0.1039535685276896
 31
0.0
  0
LINE
  5
D6
330
2
100
AcDbEntity
  8
0
100
AcDbLine
 10
9.482356591370843
 20
-0.0587136784932039
 30
0.0
 11
9.482356591370843
 21
4.093698644498988
 31
0.0
  0
LINE
  5
D7
330
2
100
AcDbEntity
  8
0
100
AcDbLine
 10
4.169833948566738
 20
5.120834651004462
 30
0.0
 11
4.169956591370843
 21
-0.0587814535436939
 31
0.0
  0
LINE
  5
D8
330
2
100
AcDbEntity
  8
0
100
AcDbLine
 10
9.357356591370843
 20
2.468563094397997
 30
0.0
 11
9.357356591370845
 21
0.1039535685276896
 31
0.0
  0
LINE
  5
D9
330
2
100
AcDbEntity
  8
0
100
AcDbLine
 10
9.232356591370843
 20
2.46863086944849
 30
0.0
 11
9.232356591370841
 21
0.2271232764117723
 31
0.0
  0
LINE
  5
DA
330
2
100
AcDbEntity
  8
0
100
AcDbLine
 10
9.482233945819534
 20
5.121018449668788
 30
0.0
 11
9.482356591370843
 21
-0.0587814535436939
 31
0.0
  0
CIRCLE
  5
DB
330
2
100
AcDbEntity
  8
0
100
AcDbCircle
 10
6.826088816320347
 20
2.531130869448491
 30
0.0
 40
0.6875
  0
LINE
  5
DC
330
2
100
AcDbEntity
  8
0
100
AcDbLine
 10
6.764800732782298
 20
0.1132389167873189
 30
0.0
 11
4.482461430613673
 21
0.1132389167873189
 31
0.0
  0
LINE
  5
DD
330
2
100
AcDbEntity
  8
0
100
AcDbLine
 10
4.369529644613662
 20
0.0019623754888762
 30
0.0
 11
6.764800732782295
 21
0.0020830365472762
 31
0.0
  0
LINE
  5
DE
330
2
100
AcDbEntity
  8
0
100
AcDbLine
 10
4.232456591370843
 20
-0.1212814535436939
 30
0.0
 11
9.419856591370843
 21
-0.1212136784932039
 31
0.0
  0
LINE
  5
DF
330
2
100
AcDbEntity
  8
0
100
AcDbLine
 10
5.332775768445646
 20
0.9510901709099588
 30
0.0
 11
4.369529644613662
 21
0.0019623754888762
 31
0.0
  0
ARC
  5
E0
330
2
100
AcDbEntity
  8
0
100
AcDbCircle
 10
4.232456591370843
 20
-0.0587814535436939
 30
0.0
 40
0.0625
100
AcDbArc
 50
179.9999999999999
 51
269.9999999999999
  0
LINE
  5
E1
330
2
100
AcDbEntity
  8
0
100
AcDbLine
 10
5.244776751569908
 20
1.039866141920721
 30
0.0
 11
4.294956591370842
 21
0.1039535685276896
 31
0.0
  0
ARC
  5
E2
330
2
100
AcDbEntity
  8
0
100
AcDbCircle
 10
4.740443115645416
 20
0.4496688173392194
 30
0.0
 40
0.0625192006788431
100
AcDbArc
 50
313.3233590349993
 51
136.1634374084532
  0
LINE
  5
E3
330
2
100
AcDbEntity
  8
0
100
AcDbLine
 10
4.169956591370843
 20
1.248022054613685
 30
0.0
 11
4.294956591370843
 21
1.248022054613685
 31
0.0
  0
LINE
  5
E4
330
2
100
AcDbEntity
  8
0
100
AcDbLine
 10
4.169956591370843
 20
1.498022054613685
 30
0.0
 11
4.294956591370843
 21
1.498022054613685
 31
0.0
  0
CIRCLE
  5
E5
330
2
100
AcDbEntity
  8
0
100
AcDbCircle
 10
5.544906591370843
 20
1.249761351394051
 30
0.0
 40
0.171875
  0
CIRCLE
  5
E6
330
2
100
AcDbEntity
  8
0
100
AcDbCircle
 10
5.544906591370843
 20
1.249761351394051
 30
0.0
 40
0.296875
  0
ARC
  5
E7
330
2
100
AcDbEntity
  8
0
100
AcDbCircle
 10
5.289876613101673
 20
0.9965688793821119
 30
0.0
 40
0.0625192006788431
100
AcDbArc
 50
313.3281383880444
 51
136.1682167614983
  0
CIRCLE
  5
E8
330
2
100
AcDbEntity
  8
0
100
AcDbCircle
 10
5.544906591370843
 20
1.249761351394051
 30
0.0
 40
0.09375
  0
LINE
  5
E9
330
2
100
AcDbEntity
  8
0
100
AcDbLine
 10
6.764800732782295
 20
-0.121219778247748
 30
0.0
 11
6.764800732782295
 21
1.846368121618096
 31
0.0
  0
LINE
  5
EA
330
2
100
AcDbEntity
  8
0
100
AcDbLine
 10
6.887376899858396
 20
-0.121219778247748
 30
0.0
 11
6.887376899858392
 21
1.846368121618096
 31
0.0
  0
LINE
  5
EB
330
2
100
AcDbEntity
  8
0
100
AcDbLine
 10
8.31953741429604
 20
0.9510901709099588
 30
0.0
 11
9.282783538128024
 21
0.0019623754888762
 31
0.0
  0
LINE
  5
EC
330
2
100
AcDbEntity
  8
0
100
AcDbLine
 10
9.282783538128024
 20
0.0019623754888762
 30
0.0
 11
6.887512449959392
 21
0.0020830365472762
 31
0.0
  0
ARC
  5
ED
330
2
100
AcDbEntity
  8
0
100
AcDbCircle
 10
9.419856591370843
 20
-0.0587136784932039
 30
0.0
 40
0.0625
100
AcDbArc
 50
270.0
 51
0.0
  0
ARC
  5
EE
330
2
100
AcDbEntity
  8
0
100
AcDbCircle
 10
9.419856591370843
 20
-0.0587814535436939
 30
0.0
 40
0.0625
100
AcDbArc
 50
270.0000000000001
 51
0.0000000000000833
  0
LINE
  5
EF
330
2
100
AcDbEntity
  8
0
100
AcDbLine
 10
6.887512449959388
 20
0.1132389167873189
 30
0.0
 11
9.169851752128015
 21
0.1132389167873189
 31
0.0
  0
LINE
  5
F0
330
2
100
AcDbEntity
  8
0
100
AcDbLine
 10
8.407536431171778
 20
1.039866141920721
 30
0.0
 11
9.357356591370845
 21
0.1039535685276896
 31
0.0
  0
CIRCLE
  5
F1
330
2
100
AcDbEntity
  8
0
100
AcDbCircle
 10
8.107406591370843
 20
1.249761351394051
 30
0.0
 40
0.171875
  0
CIRCLE
  5
F2
330
2
100
AcDbEntity
  8
0
100
AcDbCircle
 10
8.107406591370843
 20
1.249761351394051
 30
0.0
 40
0.296875
  0
ARC
  5
F3
330
2
100
AcDbEntity
  8
0
100
AcDbCircle
 10
8.362436569640014
 20
0.9965688793821119
 30
0.0
 40
0.0625192006788431
100
AcDbArc
 50
43.83178323850176
 51
226.6718616119557
  0
CIRCLE
  5
F4
330
2
100
AcDbEntity
  8
0
100
AcDbCircle
 10
8.107406591370843
 20
1.249761351394051
 30
0.0
 40
0.09375
  0
ARC
  5
F5
330
2
100
AcDbEntity
  8
0
100
AcDbCircle
 10
8.91187006709627
 20
0.4496688173392194
 30
0.0
 40
0.0625192006788431
100
AcDbArc
 50
43.83656259154687
 51
226.6766409650007
  0
LINE
  5
F6
330
2
100
AcDbEntity
  8
0
100
AcDbLine
 10
9.482356591370843
 20
1.248022054613685
 30
0.0
 11
9.357356591370843
 21
1.248022054613685
 31
0.0
  0
LINE
  5
F7
330
2
100
AcDbEntity
  8
0
100
AcDbLine
 10
9.482356591370843
 20
1.498022054613685
 30
0.0
 11
9.357356591370843
 21
1.498022054613685
 31
0.0
  0
LINE
  5
F8
330
2
100
AcDbEntity
  8
0
100
AcDbLine
 10
4.232330988750182
 20
5.183337610680856
 30
0.0
 11
9.41973098614314
 21
5.183515489852232
 31
0.0
  0
LINE
  5
F9
330
2
100
AcDbEntity
  8
0
100
AcDbLine
 10
4.369409878167118
 20
5.060100273010256
 30
0.0
 11
6.764680969363967
 21
5.06009304227453
 31
0.0
  0
LINE
  5
FA
330
2
100
AcDbEntity
  8
0
100
AcDbLine
 10
6.764686233255565
 20
4.948937162159125
 30
0.0
 11
4.482346933646111
 21
4.948829079827873
 31
0.0
  0
LINE
  5
FB
330
2
100
AcDbEntity
  8
0
100
AcDbLine
 10
5.244706135054172
 20
4.022237955894831
 30
0.0
 11
4.294841654897101
 21
4.958105548608502
 31
0.0
  0
LINE
  5
FC
330
2
100
AcDbEntity
  8
0
100
AcDbLine
 10
5.332700947761362
 20
4.111018094082529
 30
0.0
 11
4.369409878167118
 21
5.060100273010256
 31
0.0
  0
LINE
  5
FD
330
2
100
AcDbEntity
  8
0
100
AcDbLine
 10
4.294953633212426
 20
2.593496025389614
 30
0.0
 11
4.294841654897101
 21
4.958105548608502
 31
0.0
  0
LINE
  5
FE
330
2
100
AcDbEntity
  8
0
100
AcDbLine
 10
4.419953636281816
 20
2.593434169832146
 30
0.0
 11
4.41984748757468
 21
4.834941760355476
 31
0.0
  0
LINE
  5
FF
330
2
100
AcDbEntity
  8
0
100
AcDbLine
 10
6.141435957420924
 20
2.468627167151364
 30
0.0
 11
4.294956591370843
 21
2.468563094397997
 31
0.0
  0
LINE
  5
100
330
2
100
AcDbEntity
  8
0
100
AcDbLine
 10
6.141435281472192
 20
2.59362716709824
 30
0.0
 11
4.294953633212426
 21
2.593496025389614
 31
0.0
  0
LINE
  5
101
330
2
100
AcDbEntity
  8
0
100
AcDbLine
 10
4.169907672465854
 20
3.564031144592716
 30
0.0
 11
4.294907672325692
 21
3.564037064085665
 31
0.0
  0
LINE
  5
102
330
2
100
AcDbEntity
  8
0
100
AcDbLine
 10
4.169895833479956
 20
3.814031144312394
 30
0.0
 11
4.294895833339794
 21
3.814037063805343
 31
0.0
  0
CIRCLE
  5
103
330
2
100
AcDbEntity
  8
0
100
AcDbCircle
 10
5.544845914304275
 20
3.812356959588619
 30
0.0
 40
0.296875
  0
CIRCLE
  5
104
330
2
100
AcDbEntity
  8
0
100
AcDbCircle
 10
5.544845914304275
 20
3.812356959588619
 30
0.0
 40
0.171875
  0
ARC
  5
105
330
2
100
AcDbEntity
  8
0
100
AcDbCircle
 10
5.289803946152645
 20
4.065537354131389
 30
0.0
 40
0.0625192006788431
100
AcDbArc
 50
223.8344965342055
 51
46.67457490765939
  0
CIRCLE
  5
106
330
2
100
AcDbEntity
  8
0
100
AcDbCircle
 10
5.544845914304275
 20
3.812356959588619
 30
0.0
 40
0.09375
  0
ARC
  5
107
330
2
100
AcDbEntity
  8
0
100
AcDbCircle
 10
4.740531916400906
 20
4.612564746940758
 30
0.0
 40
0.0625192006788431
100
AcDbArc
 50
223.8341181833308
 51
46.6741965567847
  0
ARC
  5
108
330
2
100
AcDbEntity
  8
0
100
AcDbCircle
 10
4.232333948496657
 20
5.120837610750937
 30
0.0
 40
0.0625
100
AcDbArc
 50
90.00271329570379
 51
180.0027132957038
  0
LINE
  5
109
330
2
100
AcDbEntity
  8
0
100
AcDbLine
 10
9.232353630885708
 20
2.59366206557509
 30
0.0
 11
9.232247482178568
 21
4.835169656098421
 31
0.0
  0
LINE
  5
10A
330
2
100
AcDbEntity
  8
0
100
AcDbLine
 10
9.357353627535995
 20
2.593735760118456
 30
0.0
 11
9.35724164922067
 21
4.958345283337343
 31
0.0
  0
LINE
  5
10B
330
2
100
AcDbEntity
  8
0
100
AcDbLine
 10
8.319462590262722
 20
4.111159534998554
 30
0.0
 11
9.282663766172284
 21
5.060332944784492
 31
0.0
  0
LINE
  5
10C
330
2
100
AcDbEntity
  8
0
100
AcDbLine
 10
8.407465811109663
 20
4.022387731363815
 30
0.0
 11
9.35724164922067
 21
4.958345283337343
 31
0.0
  0
LINE
  5
10D
330
2
100
AcDbEntity
  8
0
100
AcDbLine
 10
6.887251297181482
 20
5.183401661641351
 30
0.0
 11
6.887344474163077
 21
3.215813763981749
 31
0.0
  0
LINE
  5
10E
330
2
100
AcDbEntity
  8
0
100
AcDbLine
 10
6.764675130242825
 20
5.183395856931298
 30
0.0
 11
6.764768307224424
 21
3.215807959271695
 31
0.0
  0
LINE
  5
10F
330
2
100
AcDbEntity
  8
0
100
AcDbLine
 10
9.357356591370843
 20
2.468563094397997
 30
0.0
 11
7.510742013201805
 21
2.46863086944849
 31
0.0
  0
LINE
  5
110
330
2
100
AcDbEntity
  8
0
100
AcDbLine
 10
9.357353627535995
 20
2.593735760118456
 30
0.0
 11
7.510742013201805
 21
2.593630869448489
 31
0.0
  0
CIRCLE
  5
111
330
2
100
AcDbEntity
  8
0
100
AcDbCircle
 10
8.107345911430961
 20
3.812478309194074
 30
0.0
 40
0.171875
  0
CIRCLE
  5
112
330
2
100
AcDbEntity
  8
0
100
AcDbCircle
 10
8.107345911430961
 20
3.812478309194074
 30
0.0
 40
0.296875
  0
CIRCLE
  5
113
330
2
100
AcDbEntity
  8
0
100
AcDbCircle
 10
8.107345911430961
 20
3.812478309194074
 30
0.0
 40
0.09375
  0
ARC
  5
114
330
2
100
AcDbEntity
  8
0
100
AcDbCircle
 10
8.362363899245747
 20
4.065682858107375
 30
0.0
 40
0.0625192006788431
100
AcDbArc
 50
133.3308516837481
 51
316.1709300572019
  0
LINE
  5
115
330
2
100
AcDbEntity
  8
0
100
AcDbLine
 10
9.482307666509099
 20
3.564282718307456
 30
0.0
 11
9.357307666649261
 21
3.564276798814507
 31
0.0
  0
LINE
  5
116
330
2
100
AcDbEntity
  8
0
100
AcDbLine
 10
9.482295827523201
 20
3.814282718027132
 30
0.0
 11
9.357295827663362
 21
3.814276798534183
 31
0.0
  0
LINE
  5
117
330
2
100
AcDbEntity
  8
0
100
AcDbLine
 10
6.88739795029506
 20
4.948942973288282
 30
0.0
 11
9.169737249904516
 21
4.949051055619534
 31
0.0
  0
LINE
  5
118
330
2
100
AcDbEntity
  8
0
100
AcDbLine
 10
9.282663766172284
 20
5.060332944784492
 30
0.0
 11
6.887392686403469
 21
5.060098853403686
 31
0.0
  0
ARC
  5
119
330
2
100
AcDbEntity
  8
0
100
AcDbCircle
 10
8.91178126634078
 20
4.612564746940758
 30
0.0
 40
0.0625192006788431
100
AcDbArc
 50
133.3258034432153
 51
316.1658818166692
  0
ARC
  5
11A
330
2
100
AcDbEntity
  8
0
100
AcDbCircle
 10
9.419733945889615
 20
5.121015489922313
 30
0.0
 40
0.0625
100
AcDbArc
 50
0.0027132957037133
 51
90.00271329570369
  0
ARC
  5
11B
330
2
100
AcDbEntity
  8
0
100
AcDbCircle
 10
9.419733942680063
 20
5.121083264972728
 30
0.0
 40
0.0625
100
AcDbArc
 50
0.0027132957036299
 51
90.0027132957036
  0
LINE
  5
11C
330
2
100
AcDbEntity
  8
0
100
AcDbLine
 10
0.0
 20
5.062400000000001
 30
0.0
 11
0.0
 21
-0.0000000000000009
 31
0.0
  0
LINE
  5
11D
330
2
100
AcDbEntity
  8
0
100
AcDbLine
 10
0.125
 20
5.077744079567998
 30
0.0
 11
0.125
 21
-0.0153919872109913
 31
0.0
  0
LINE
  5
11E
330
2
100
AcDbEntity
  8
0
100
AcDbLine
 10
0.9844389858995939
 20
5.18324248103585
 30
0.0
 11
0.9844389858995943
 21
-0.121219778247748
 31
0.0
  0
LINE
  5
11F
330
2
100
AcDbEntity
  8
0
100
AcDbLine
 10
0.9844389858995939
 20
0.003780221752252
 30
0.0
 11
0.125
 21
0.1096080127890078
 31
0.0
  0
LINE
  5
120
330
2
100
AcDbEntity
  8
0
100
AcDbLine
 10
0.9844389858995943
 20
-0.121219778247748
 30
0.0
 11
0.0
 21
0.0
 31
0.0
  0
LINE
  5
121
330
2
100
AcDbEntity
  8
0
100
AcDbLine
 10
0.9844389858995957
 20
1.259538388890817
 30
0.0
 11
0.8536808187610276
 21
1.259538388890818
 31
0.0
  0
LINE
  5
122
330
2
100
AcDbEntity
  8
0
100
AcDbLine
 10
0.9844389858995957
 20
1.498022054613685
 30
0.0
 11
0.8536808187610276
 21
1.498022054613686
 31
0.0
  0
LINE
  5
123
330
2
100
AcDbEntity
  8
0
100
AcDbLine
 10
0.9844389858995943
 20
0.617688333987183
 30
0.0
 11
0.125
 21
1.039477898480756
 31
0.0
  0
LINE
  5
124
330
2
100
AcDbEntity
  8
0
100
AcDbLine
 10
0.9844389858995943
 20
1.843630872789187
 30
0.0
 11
0.1250000000000004
 21
1.843630872789187
 31
0.0
  0
LINE
  5
125
330
2
100
AcDbEntity
  8
0
100
AcDbLine
 10
0.9844389858995943
 20
1.953030873421383
 30
0.0
 11
0.0
 21
2.031130874041948
 31
0.0
  0
ARC
  5
126
330
2
100
AcDbEntity
  8
0
100
AcDbCircle
 10
0.8536808187610276
 20
1.378780221752252
 30
0.0
 40
0.1192418328614338
100
AcDbArc
 50
90.00000000000003
 51
270.0
  0
LINE
  5
127
330
2
100
AcDbEntity
  8
0
100
AcDbLine
 10
0.9844389858995943
 20
4.444334368800919
 30
0.0
 11
0.125
 21
4.022544804307347
 31
0.0
  0
LINE
  5
128
330
2
100
AcDbEntity
  8
0
100
AcDbLine
 10
0.9844389858995943
 20
2.588215858851382
 30
0.0
 11
0.1250000000000018
 21
2.588215858851381
 31
0.0
  0
LINE
  5
129
330
2
100
AcDbEntity
  8
0
100
AcDbLine
 10
0.9844389858995943
 20
2.463215858851383
 30
0.0
 11
0.1250000000000018
 21
2.463215858851382
 31
0.0
  0
LINE
  5
12A
330
2
100
AcDbEntity
  8
0
100
AcDbLine
 10
0.9844389858995957
 20
3.802484313897284
 30
0.0
 11
0.8536808187610276
 21
3.802484313897284
 31
0.0
  0
LINE
  5
12B
330
2
100
AcDbEntity
  8
0
100
AcDbLine
 10
0.9844389858995957
 20
3.564000648174416
 30
0.0
 11
0.8536808187610276
 21
3.564000648174416
 31
0.0
  0
LINE
  5
12C
330
2
100
AcDbEntity
  8
0
100
AcDbLine
 10
0.9844389858995943
 20
3.218391829998915
 30
0.0
 11
0.1250000000000004
 21
3.218391829998915
 31
0.0
  0
LINE
  5
12D
330
2
100
AcDbEntity
  8
0
100
AcDbLine
 10
0.9844389858995943
 20
3.108991829366719
 30
0.0
 11
0.0
 21
3.030891828746154
 31
0.0
  0
ARC
  5
12E
330
2
100
AcDbEntity
  8
0
100
AcDbCircle
 10
0.8536808187610276
 20
3.68324248103585
 30
0.0
 40
0.1192418328614338
100
AcDbArc
 50
90.00000000000003
 51
270.0
  0
LINE
  5
12F
330
2
100
AcDbEntity
  8
0
100
AcDbLine
 10
0.9844389858995939
 20
5.183242481035848
 30
0.0
 11
0.0
 21
5.062400000000001
 31
0.0
  0
LINE
  5
130
330
2
100
AcDbEntity
  8
0
100
AcDbLine
 10
0.9844389858995939
 20
5.058242481035848
 30
0.0
 11
0.125
 21
4.952744079567997
 31
0.0
  0
LINE
  5
131
330
2
100
AcDbEntity
  8
0
100
AcDbLine
 10
13.25996528089692
 20
2.463282278400862
 30
0.0
 11
13.25996528089692
 21
1.546419399795382
 31
0.0
  0
LINE
  5
132
330
2
100
AcDbEntity
  8
0
100
AcDbLine
 10
13.38496528089692
 20
5.062399999999999
 30
0.0
 11
13.38496528089692
 21
0.0000000000000009
 31
0.0
  0
LINE
  5
133
330
2
100
AcDbEntity
  8
0
100
AcDbLine
 10
12.40052629499733
 20
5.183242481035848
 30
0.0
 11
12.40052629499733
 21
-0.1212197782477471
 31
0.0
  0
LINE
  5
134
330
2
100
AcDbEntity
  8
0
100
AcDbLine
 10
12.40052629499733
 20
0.0037802217522529
 30
0.0
 11
13.25996528089692
 21
0.1096080127890087
 31
0.0
  0
LINE
  5
135
330
2
100
AcDbEntity
  8
0
100
AcDbLine
 10
12.40052629499733
 20
-0.1212197782477471
 30
0.0
 11
13.38496528089692
 21
0.0000000000000009
 31
0.0
  0
LINE
  5
136
330
2
100
AcDbEntity
  8
0
100
AcDbLine
 10
13.16621528089692
 20
1.077669399795382
 30
0.0
 11
13.16621528089692
 21
1.421419399795382
 31
0.0
  0
LINE
  5
137
330
2
100
AcDbEntity
  8
0
100
AcDbLine
 10
13.00996528089692
 20
0.9526693997953819
 30
0.0
 11
13.00996528089692
 21
1.546419399795382
 31
0.0
  0
LINE
  5
138
330
2
100
AcDbEntity
  8
0
100
AcDbLine
 10
13.16621528089692
 20
1.077669399795382
 30
0.0
 11
13.25996528089692
 21
1.155794399795382
 31
0.0
  0
LINE
  5
139
330
2
100
AcDbEntity
  8
0
100
AcDbLine
 10
13.25996528089692
 20
0.9526693997953819
 30
0.0
 11
13.25996528089692
 21
0.1096080127890087
 31
0.0
  0
LINE
  5
13A
330
2
100
AcDbEntity
  8
0
100
AcDbLine
 10
13.00996528089692
 20
1.077669399795382
 30
0.0
 11
13.16621528089692
 21
1.077669399795382
 31
0.0
  0
LINE
  5
13B
330
2
100
AcDbEntity
  8
0
100
AcDbLine
 10
13.00996528089692
 20
0.9526693997953819
 30
0.0
 11
13.25996528089692
 21
0.9526693997953819
 31
0.0
  0
LINE
  5
13C
330
2
100
AcDbEntity
  8
0
100
AcDbLine
 10
12.40052629499733
 20
1.952791837312502
 30
0.0
 11
13.38496528089692
 21
2.030891837933067
 31
0.0
  0
LINE
  5
13D
330
2
100
AcDbEntity
  8
0
100
AcDbLine
 10
13.25996528089692
 20
1.343294399795382
 30
0.0
 11
13.38496528089692
 21
1.343294399795382
 31
0.0
  0
LINE
  5
13E
330
2
100
AcDbEntity
  8
0
100
AcDbLine
 10
13.25996528089692
 20
1.155794399795382
 30
0.0
 11
13.38496528089692
 21
1.155794399795382
 31
0.0
  0
LINE
  5
13F
330
2
100
AcDbEntity
  8
0
100
AcDbLine
 10
13.16621528089692
 20
1.421419399795382
 30
0.0
 11
13.25996528089692
 21
1.343294399795382
 31
0.0
  0
LINE
  5
140
330
2
100
AcDbEntity
  8
0
100
AcDbLine
 10
13.25996528089692
 20
1.155794399795384
 30
0.0
 11
13.25996528089692
 21
1.343294399795382
 31
0.0
  0
LINE
  5
141
330
2
100
AcDbEntity
  8
0
100
AcDbLine
 10
13.00996528089692
 20
1.421419399795382
 30
0.0
 11
13.16621528089692
 21
1.421419399795382
 31
0.0
  0
LINE
  5
142
330
2
100
AcDbEntity
  8
0
100
AcDbLine
 10
13.00996528089692
 20
1.546419399795382
 30
0.0
 11
13.25996528089692
 21
1.546419399795382
 31
0.0
  0
LINE
  5
143
330
2
100
AcDbEntity
  8
0
100
AcDbLine
 10
12.40052629499733
 20
1.883464105993305
 30
0.0
 11
13.25996528089692
 21
1.883464105993301
 31
0.0
  0
LINE
  5
144
330
2
100
AcDbEntity
  8
0
100
AcDbLine
 10
13.25996528089692
 20
4.952744079567995
 30
0.0
 11
13.25996528089692
 21
4.109353302992719
 31
0.0
  0
LINE
  5
145
330
2
100
AcDbEntity
  8
0
100
AcDbLine
 10
13.25996528089692
 20
3.51560331539543
 30
0.0
 11
13.25996528089692
 21
2.588282278400861
 31
0.0
  0
LINE
  5
146
330
2
100
AcDbEntity
  8
0
100
AcDbLine
 10
12.40052629499733
 20
3.109230865475599
 30
0.0
 11
13.38496528089692
 21
3.031130864855034
 31
0.0
  0
LINE
  5
147
330
2
100
AcDbEntity
  8
0
100
AcDbLine
 10
12.40052629499733
 20
2.588282278400861
 30
0.0
 11
13.25996528089692
 21
2.58828227840086
 31
0.0
  0
LINE
  5
148
330
2
100
AcDbEntity
  8
0
100
AcDbLine
 10
12.40052629499733
 20
2.463282278400862
 30
0.0
 11
13.25996528089692
 21
2.463282278400861
 31
0.0
  0
LINE
  5
149
330
2
100
AcDbEntity
  8
0
100
AcDbLine
 10
12.40052629499733
 20
3.179068733105654
 30
0.0
 11
13.25996528089692
 21
3.179068733105657
 31
0.0
  0
LINE
  5
14A
330
2
100
AcDbEntity
  8
0
100
AcDbLine
 10
13.25996528089692
 20
3.906228302992719
 30
0.0
 11
13.38496528089692
 21
3.906228302992719
 31
0.0
  0
LINE
  5
14B
330
2
100
AcDbEntity
  8
0
100
AcDbLine
 10
13.25996528089692
 20
3.718728302992719
 30
0.0
 11
13.38496528089692
 21
3.718728302992719
 31
0.0
  0
LINE
  5
14C
330
2
100
AcDbEntity
  8
0
100
AcDbLine
 10
13.16621528089692
 20
3.984353302992719
 30
0.0
 11
13.16621528089692
 21
3.640603302992719
 31
0.0
  0
LINE
  5
14D
330
2
100
AcDbEntity
  8
0
100
AcDbLine
 10
13.16621528089692
 20
3.640603302992719
 30
0.0
 11
13.25996528089692
 21
3.718728302992719
 31
0.0
  0
LINE
  5
14E
330
2
100
AcDbEntity
  8
0
100
AcDbLine
 10
13.00996528089692
 20
4.109353302992719
 30
0.0
 11
13.00996528089692
 21
3.515603302992719
 31
0.0
  0
LINE
  5
14F
330
2
100
AcDbEntity
  8
0
100
AcDbLine
 10
13.00996528089692
 20
3.640603302992719
 30
0.0
 11
13.16621528089692
 21
3.640603302992719
 31
0.0
  0
LINE
  5
150
330
2
100
AcDbEntity
  8
0
100
AcDbLine
 10
13.00996528089692
 20
3.515603302992719
 30
0.0
 11
13.25996528089692
 21
3.515603302992719
 31
0.0
  0
LINE
  5
151
330
2
100
AcDbEntity
  8
0
100
AcDbLine
 10
13.16621528089692
 20
3.984353302992719
 30
0.0
 11
13.25996528089692
 21
3.906228302992719
 31
0.0
  0
LINE
  5
152
330
2
100
AcDbEntity
  8
0
100
AcDbLine
 10
13.25996528089692
 20
3.906228302992717
 30
0.0
 11
13.25996528089692
 21
3.718728302992719
 31
0.0
  0
LINE
  5
153
330
2
100
AcDbEntity
  8
0
100
AcDbLine
 10
13.00996528089692
 20
3.984353302992719
 30
0.0
 11
13.16621528089692
 21
3.984353302992719
 31
0.0
  0
LINE
  5
154
330
2
100
AcDbEntity
  8
0
100
AcDbLine
 10
13.00996528089692
 20
4.109353302992719
 30
0.0
 11
13.25996528089692
 21
4.109353302992719
 31
0.0
  0
LINE
  5
155
330
2
100
AcDbEntity
  8
0
100
AcDbLine
 10
12.40052629499733
 20
5.183242481035848
 30
0.0
 11
13.38496528089692
 21
5.062399999999999
 31
0.0
  0
LINE
  5
156
330
2
100
AcDbEntity
  8
0
100
AcDbLine
 10
12.40052629499733
 20
5.058242481035847
 30
0.0
 11
13.25996528089692
 21
4.952744079567995
 31
0.0
  0
LINE
  5
16B
330
2
100
AcDbEntity
  8
0
100
AcDbLine
 10
4.290676429602589
 20
7.553173878656391
 30
0.0
 11
9.353076429602588
 21
7.553173878656391
 31
0.0
  0
LINE
  5
16C
330
2
100
AcDbEntity
  8
0
100
AcDbLine
 10
4.169833948566738
 20
8.537612864555985
 30
0.0
 11
9.474296207850337
 21
8.537612864555985
 31
0.0
  0
LINE
  5
16D
330
2
100
AcDbEntity
  8
0
100
AcDbLine
 10
4.169833948566738
 20
8.537612864555985
 30
0.0
 11
4.290676429602589
 21
7.553173878656391
 31
0.0
  0
LINE
  5
16E
330
2
100
AcDbEntity
  8
0
100
AcDbLine
 10
9.474296207850337
 20
8.537612864555985
 30
0.0
 11
9.353076429602588
 21
7.553173878656391
 31
0.0
  0
ENDSEC
  0
SECTION
  2
OBJECTS
  0
DICTIONARY
  5
7
330
0
100
AcDbDictionary
281
     1
  3
ACAD_COLOR
350
173
  3
ACAD_GROUP
350
1F
  3
ACAD_LAYOUT
350
B
  3
ACAD_MATERIAL
350
175
  3
ACAD_MLINESTYLE
350
20
  3
ACAD_PLOTSETTINGS
350
21
  3
ACAD_PLOTSTYLENAME
350
6
  3
ACDBHEADERROUNDTRIPXREC
350
172
  3
AcDbVariableDictionary
350
C6
  0
DICTIONARY
  5
173
102
{ACAD_REACTORS
330
7
102
}
330
7
100
AcDbDictionary
281
     1
  0
DICTIONARY
  5
1F
102
{ACAD_REACTORS
330
7
102
}
330
7
100
AcDbDictionary
281
     1
  0
DICTIONARY
  5
B
102
{ACAD_REACTORS
330
7
102
}
330
7
100
AcDbDictionary
281
     1
  3
Layout1
350
F
  3
Model
350
A
  0
DICTIONARY
  5
175
102
{ACAD_REACTORS
330
7
102
}
330
7
100
AcDbDictionary
281
     1
  0
DICTIONARY
  5
20
102
{ACAD_REACTORS
330
7
102
}
330
7
100
AcDbDictionary
281
     1
  3
STANDARD
350
23
  0
DICTIONARY
  5
21
102
{ACAD_REACTORS
330
7
102
}
330
7
100
AcDbDictionary
281
     1
  0
ACDBDICTIONARYWDFLT
  5
6
102
{ACAD_REACTORS
330
7
102
}
330
7
100
AcDbDictionary
281
     1
  3
Normal
350
5
100
AcDbDictionaryWithDefault
340
5
  0
DICTIONARY
  5
172
102
{ACAD_REACTORS
330
7
102
}
330
7
100
AcDbDictionary
281
     1
  3
COLORDICT
350
174
  3
MATERIALDICT
350
176
  0
DICTIONARY
  5
C6
102
{ACAD_REACTORS
330
7
102
}
330
7
100
AcDbDictionary
281
     1
  3
HIDETEXT
350
171
  0
LAYOUT
  5
F
102
{ACAD_REACTORS
330
B
102
}
102
{ACAD_XDICTIONARY
360
177
102
}
330
B
100
AcDbPlotSettings
  1

  2
X:\Program Files\AutoCAD2002\plotters\DWF ePlot (optimized for plotting).pc3
  4

  6

 40
0.0
 41
0.0
 42
0.0
 43
0.0
 44
0.0
 45
0.0
 46
0.0
 47
0.0
 48
0.0
 49
0.0
140
0.0
141
0.0
142
1.0
143
1.0
 70
   688
 72
     0
 73
     0
 74
     5
  7

 75
    16
147
1.0
148
0.0
149
0.0
100
AcDbLayout
  1
Layout1
 70
     0
 71
     1
 10
0.0
 20
0.0
 11
12.0
 21
9.0
 12
0.0
 22
0.0
 32
0.0
 14
1.000000000000000E+20
 24
1.000000000000000E+20
 34
1.000000000000000E+20
 15
-1.000000000000000E+20
 25
-1.000000000000000E+20
 35
-1.000000000000000E+20
146
0.0
 13
0.0
 23
0.0
 33
0.0
 16
1.0
 26
0.0
 36
0.0
 17
0.0
 27
1.0
 37
0.0
 76
     0
330
C
  0
LAYOUT
  5
A
102
{ACAD_REACTORS
330
B
102
}
102
{ACAD_XDICTIONARY
360
179
102
}
330
B
100
AcDbPlotSettings
  1

  2
X:\Program Files\AutoCAD2002\plotters\DWF ePlot (optimized for plotting).pc3
  4

  6

 40
0.0
 41
0.0
 42
0.0
 43
0.0
 44
0.0
 45
0.0
 46
0.0
 47
0.0
 48
0.0
 49
0.0
140
0.0
141
0.0
142
1.0
143
1.0
 70
  1712
 72
     0
 73
     0
 74
     0
  7

 75
     0
147
1.0
148
0.0
149
0.0
100
AcDbLayout
  1
Model
 70
     1
 71
     0
 10
0.0
 20
0.0
 11
12.0
 21
9.0
 12
0.0
 22
0.0
 32
0.0
 14
0.0
 24
0.0
 34
0.0
 15
0.0
 25
0.0
 35
0.0
146
0.0
 13
0.0
 23
0.0
 33
0.0
 16
1.0
 26
0.0
 36
0.0
 17
0.0
 27
1.0
 37
0.0
 76
     0
330
2
  0
MLINESTYLE
  5
23
102
{ACAD_REACTORS
330
20
102
}
330
20
100
AcDbMlineStyle
  2
STANDARD
 70
     0
  3

 62
   256
 51
90.0
 52
90.0
 71
     2
 49
0.5
 62
   256
  6
BYLAYER
 49
-0.5
 62
   256
  6
BYLAYER
  0
ACDBPLACEHOLDER
  5
5
102
{ACAD_REACTORS
330
6
102
}
330
6
  0
XRECORD
  5
174
102
{ACAD_REACTORS
330
172
102
}
330
172
100
AcDbXrecord
340
173
  0
XRECORD
  5
176
102
{ACAD_REACTORS
330
172
102
}
330
172
100
AcDbXrecord
340
175
  0
DICTIONARYVAR
  5
171
102
{ACAD_REACTORS
330
C6
102
}
330
C6
100
DictionaryVariables
280
     0
  1
0
  0
DICTIONARY
  5
177
330
F
100
AcDbDictionary
280
     1
281
     1
  3
ACAD_XREC_ROUNDTRIP
360
178
  0
DICTIONARY
  5
179
330
A
100
AcDbDictionary
280
     1
281
     1
  3
ACAD_XREC_ROUNDTRIP
360
17A
  0
XRECORD
  5
178
102
{ACAD_REACTORS
330
177
102
}
330
177
100
AcDbXrecord
102
SHADEPLOT
 70
     0
102
SHADEPLOTRESLEVEL
 70
     2
102
SHADEPLOTCUSTOMDPI
 70
   300
  0
XRECORD
  5
17A
102
{ACAD_REACTORS
330
179
102
}
330
179
100
AcDbXrecord
102
SHADEPLOT
 70
     0
102
SHADEPLOTRESLEVEL
 70
     2
102
SHADEPLOTCUSTOMDPI
 70
   300
  0
ENDSEC
  0
EOF
