  0
SECTION
  2
HEADER
  9
$ACADVER
  1
AC1015
  9
$ACADMAINTVER
 70
     6
  9
$DWGCODEPAGE
  3
ANSI_1252
  9
$INSBASE
 10
0.0
 20
0.0
 30
0.0
  9
$EXTMIN
 10
-0.15625
 20
-0.0084147970571974
 30
0.0
  9
$EXTMAX
 10
7.563944762776575
 20
7.267732302184069
 30
0.0
  9
$LIMMIN
 10
0.0
 20
0.0
  9
$LIMMAX
 10
21.0
 20
16.0
  9
$ORTHOMODE
 70
     1
  9
$REGENMODE
 70
     1
  9
$FILLMODE
 70
     1
  9
$QTEXTMODE
 70
     0
  9
$MIRRTEXT
 70
     1
  9
$LTSCALE
 40
0.5
  9
$ATTMODE
 70
     1
  9
$TEXTSIZE
 40
0.1875
  9
$TRACEWID
 40
0.05
  9
$TEXTSTYLE
  7
STANDARD
  9
$CLAYER
  8
0
  9
$CELTYPE
  6
BYLAYER
  9
$CECOLOR
 62
   256
  9
$CELTSCALE
 40
1.0
  9
$DISPSILH
 70
     0
  9
$DIMSCALE
 40
2.0
  9
$DIMASZ
 40
0.125
  9
$DIMEXO
 40
0.062
  9
$DIMDLI
 40
0.375
  9
$DIMRND
 40
0.0
  9
$DIMDLE
 40
0.0
  9
$DIMEXE
 40
0.08
  9
$DIMTP
 40
0.0
  9
$DIMTM
 40
0.0
  9
$DIMTXT
 40
0.09
  9
$DIMCEN
 40
-0.06
  9
$DIMTSZ
 40
0.0
  9
$DIMTOL
 70
     0
  9
$DIMLIM
 70
     0
  9
$DIMTIH
 70
     1
  9
$DIMTOH
 70
     1
  9
$DIMSE1
 70
     0
  9
$DIMSE2
 70
     0
  9
$DIMTAD
 70
     0
  9
$DIMZIN
 70
     0
  9
$DIMBLK
  1

  9
$DIMASO
 70
     0
  9
$DIMSHO
 70
     0
  9
$DIMPOST
  1

  9
$DIMAPOST
  1

  9
$DIMALT
 70
     0
  9
$DIMALTD
 70
     2
  9
$DIMALTF
 40
25.4
  9
$DIMLFAC
 40
1.0
  9
$DIMTOFL
 70
     0
  9
$DIMTVP
 40
0.0
  9
$DIMTIX
 70
     0
  9
$DIMSOXD
 70
     0
  9
$DIMSAH
 70
     0
  9
$DIMBLK1
  1

  9
$DIMBLK2
  1

  9
$DIMSTYLE
  2
STANDARD
  9
$DIMCLRD
 70
     0
  9
$DIMCLRE
 70
     0
  9
$DIMCLRT
 70
     0
  9
$DIMTFAC
 40
1.0
  9
$DIMGAP
 40
0.09375
  9
$DIMJUST
 70
     0
  9
$DIMSD1
 70
     0
  9
$DIMSD2
 70
     0
  9
$DIMTOLJ
 70
     1
  9
$DIMTZIN
 70
     0
  9
$DIMALTZ
 70
     0
  9
$DIMALTTZ
 70
     0
  9
$DIMUPT
 70
     0
  9
$DIMDEC
 70
     5
  9
$DIMTDEC
 70
     5
  9
$DIMALTU
 70
     5
  9
$DIMALTTD
 70
     2
  9
$DIMTXSTY
  7
STANDARD
  9
$DIMAUNIT
 70
     0
  9
$DIMADEC
 70
     0
  9
$DIMALTRND
 40
0.0
  9
$DIMAZIN
 70
     0
  9
$DIMDSEP
 70
    46
  9
$DIMATFIT
 70
     3
  9
$DIMFRAC
 70
     2
  9
$DIMLDRBLK
  1

  9
$DIMLUNIT
 70
     5
  9
$DIMLWD
 70
    -2
  9
$DIMLWE
 70
    -2
  9
$DIMTMOVE
 70
     2
  9
$LUNITS
 70
     5
  9
$LUPREC
 70
     5
  9
$SKETCHINC
 40
0.1
  9
$FILLETRAD
 40
0.0
  9
$AUNITS
 70
     0
  9
$AUPREC
 70
     0
  9
$MENU
  1
acad
  9
$ELEVATION
 40
0.0
  9
$PELEVATION
 40
0.0
  9
$THICKNESS
 40
0.0
  9
$LIMCHECK
 70
     0
  9
$CHAMFERA
 40
0.1875
  9
$CHAMFERB
 40
0.1875
  9
$CHAMFERC
 40
0.0
  9
$CHAMFERD
 40
0.0
  9
$SKPOLY
 70
     0
  9
$TDCREATE
 40
2450256.99671875
  9
$TDUCREATE
 40
2450257.330052083
  9
$TDUPDATE
 40
2453809.933040741
  9
$TDUUPDATE
 40
2453810.266374074
  9
$TDINDWG
 40
0.3149637963
  9
$TDUSRTIMER
 40
0.3149637963
  9
$USRTIMER
 70
     1
  9
$ANGBASE
 50
0.0
  9
$ANGDIR
 70
     0
  9
$PDMODE
 70
     0
  9
$PDSIZE
 40
0.0
  9
$PLINEWID
 40
0.0
  9
$SPLFRAME
 70
     0
  9
$SPLINETYPE
 70
     6
  9
$SPLINESEGS
 70
     8
  9
$HANDSEED
  5
F0
  9
$SURFTAB1
 70
     6
  9
$SURFTAB2
 70
     6
  9
$SURFTYPE
 70
     6
  9
$SURFU
 70
     6
  9
$SURFV
 70
     6
  9
$UCSBASE
  2

  9
$UCSNAME
  2

  9
$UCSORG
 10
0.0
 20
0.0
 30
0.0
  9
$UCSXDIR
 10
1.0
 20
0.0
 30
0.0
  9
$UCSYDIR
 10
0.0
 20
1.0
 30
0.0
  9
$UCSORTHOREF
  2

  9
$UCSORTHOVIEW
 70
     0
  9
$UCSORGTOP
 10
0.0
 20
0.0
 30
0.0
  9
$UCSORGBOTTOM
 10
0.0
 20
0.0
 30
0.0
  9
$UCSORGLEFT
 10
0.0
 20
0.0
 30
0.0
  9
$UCSORGRIGHT
 10
0.0
 20
0.0
 30
0.0
  9
$UCSORGFRONT
 10
0.0
 20
0.0
 30
0.0
  9
$UCSORGBACK
 10
0.0
 20
0.0
 30
0.0
  9
$PUCSBASE
  2

  9
$PUCSNAME
  2

  9
$PUCSORG
 10
0.0
 20
0.0
 30
0.0
  9
$PUCSXDIR
 10
1.0
 20
0.0
 30
0.0
  9
$PUCSYDIR
 10
0.0
 20
1.0
 30
0.0
  9
$PUCSORTHOREF
  2

  9
$PUCSORTHOVIEW
 70
     0
  9
$PUCSORGTOP
 10
0.0
 20
0.0
 30
0.0
  9
$PUCSORGBOTTOM
 10
0.0
 20
0.0
 30
0.0
  9
$PUCSORGLEFT
 10
0.0
 20
0.0
 30
0.0
  9
$PUCSORGRIGHT
 10
0.0
 20
0.0
 30
0.0
  9
$PUCSORGFRONT
 10
0.0
 20
0.0
 30
0.0
  9
$PUCSORGBACK
 10
0.0
 20
0.0
 30
0.0
  9
$USERI1
 70
     0
  9
$USERI2
 70
     0
  9
$USERI3
 70
     0
  9
$USERI4
 70
     0
  9
$USERI5
 70
     0
  9
$USERR1
 40
0.0
  9
$USERR2
 40
0.0
  9
$USERR3
 40
0.0
  9
$USERR4
 40
0.0
  9
$USERR5
 40
0.0
  9
$WORLDVIEW
 70
     1
  9
$SHADEDGE
 70
     3
  9
$SHADEDIF
 70
    70
  9
$TILEMODE
 70
     1
  9
$MAXACTVP
 70
    16
  9
$PINSBASE
 10
0.0
 20
0.0
 30
0.0
  9
$PLIMCHECK
 70
     0
  9
$PEXTMIN
 10
1.000000000000000E+20
 20
1.000000000000000E+20
 30
1.000000000000000E+20
  9
$PEXTMAX
 10
-1.000000000000000E+20
 20
-1.000000000000000E+20
 30
-1.000000000000000E+20
  9
$PLIMMIN
 10
0.0
 20
0.0
  9
$PLIMMAX
 10
12.0
 20
9.0
  9
$UNITMODE
 70
     0
  9
$VISRETAIN
 70
     0
  9
$PLINEGEN
 70
     0
  9
$PSLTSCALE
 70
     0
  9
$TREEDEPTH
 70
  3020
  9
$CMLSTYLE
  2
STANDARD
  9
$CMLJUST
 70
     0
  9
$CMLSCALE
 40
1.0
  9
$PROXYGRAPHICS
 70
     1
  9
$MEASUREMENT
 70
     0
  9
$CELWEIGHT
370
    -1
  9
$ENDCAPS
280
     0
  9
$JOINSTYLE
280
     0
  9
$LWDISPLAY
290
     0
  9
$INSUNITS
 70
     0
  9
$HYPERLINKBASE
  1

  9
$STYLESHEET
  1

  9
$XEDIT
290
     1
  9
$CEPSNTYPE
380
     0
  9
$PSTYLEMODE
290
     1
  9
$FINGERPRINTGUID
  2
{585EB1A1-94EA-48FD-9498-F36D525622E0}
  9
$VERSIONGUID
  2
{4C694D63-871F-47FC-84EA-D82F9EAF57AC}
  9
$EXTNAMES
290
     1
  9
$PSVPSCALE
 40
0.0
  9
$OLESTARTUP
290
     0
  0
ENDSEC
  0
SECTION
  2
CLASSES
  0
CLASS
  1
DICTIONARYVAR
  2
AcDbDictionaryVar
  3
AutoCAD 2000
 90
        0
280
     0
281
     0
  0
CLASS
  1
LWPOLYLINE
  2
AcDbPolyline
  3
AutoCAD 2000
 90
        0
280
     0
281
     1
  0
CLASS
  1
HATCH
  2
AcDbHatch
  3
AutoCAD 2000
 90
        0
280
     0
281
     1
  0
CLASS
  1
ACDBDICTIONARYWDFLT
  2
AcDbDictionaryWithDefault
  3
AutoCAD 2000
 90
        0
280
     0
281
     0
  0
CLASS
  1
ACDBPLACEHOLDER
  2
AcDbPlaceHolder
  3
ObjectDBX Classes
 90
        0
280
     0
281
     0
  0
CLASS
  1
LAYOUT
  2
AcDbLayout
  3
ObjectDBX Classes
 90
        0
280
     0
281
     0
  0
ENDSEC
  0
SECTION
  2
TABLES
  0
TABLE
  2
VPORT
  5
19
330
0
100
AcDbSymbolTable
 70
     3
  0
VPORT
  5
E5
330
19
100
AcDbSymbolTableRecord
100
AcDbViewportTableRecord
  2
*Active
 70
     0
 10
0.0
 20
0.0
 11
1.0
 21
1.0
 12
11.16654921196359
 22
4.897986444936469
 13
0.0
 23
0.0
 14
0.0625
 24
0.0625
 15
0.25
 25
0.25
 16
0.0
 26
0.0
 36
1.0
 17
0.0
 27
0.0
 37
0.0
 40
16.2542901075083
 41
2.088339222614841
 42
50.0
 43
0.0
 44
0.0
 50
0.0
 51
0.0
 71
     0
 72
   100
 73
     1
 74
     1
 75
     0
 76
     0
 77
     0
 78
     0
281
     0
 65
     1
110
0.0
120
0.0
130
0.0
111
1.0
121
0.0
131
0.0
112
0.0
122
1.0
132
0.0
 79
     0
146
0.0
  0
ENDTAB
  0
TABLE
  2
LTYPE
  5
14
330
0
100
AcDbSymbolTable
 70
     1
  0
LTYPE
  5
15
330
14
100
AcDbSymbolTableRecord
100
AcDbLinetypeTableRecord
  2
BYBLOCK
 70
     0
  3

 72
    65
 73
     0
 40
0.0
  0
LTYPE
  5
16
330
14
100
AcDbSymbolTableRecord
100
AcDbLinetypeTableRecord
  2
BYLAYER
 70
     0
  3

 72
    65
 73
     0
 40
0.0
  0
LTYPE
  5
8
330
14
100
AcDbSymbolTableRecord
100
AcDbLinetypeTableRecord
  2
CONTINUOUS
 70
     0
  3
Solid line
 72
    65
 73
     0
 40
0.0
  0
ENDTAB
  0
TABLE
  2
LAYER
  5
10
330
0
100
AcDbSymbolTable
 70
     2
  0
LAYER
  5
4
330
10
100
AcDbSymbolTableRecord
100
AcDbLayerTableRecord
  2
0
 70
     0
 62
     7
  6
CONTINUOUS
370
    -3
390
5
  0
LAYER
  5
44
330
10
100
AcDbSymbolTableRecord
100
AcDbLayerTableRecord
  2
OBJECT
 70
     0
 62
     7
  6
CONTINUOUS
370
    -3
390
5
  0
ENDTAB
  0
TABLE
  2
STYLE
  5
11
330
0
100
AcDbSymbolTable
 70
     1
  0
STYLE
  5
12
330
11
100
AcDbSymbolTableRecord
100
AcDbTextStyleTableRecord
  2
STANDARD
 70
     0
 40
0.0
 41
1.0
 50
0.0
 71
     0
 42
0.1875
  3
TXT
  4

  0
ENDTAB
  0
TABLE
  2
VIEW
  5
17
330
0
100
AcDbSymbolTable
 70
     0
  0
ENDTAB
  0
TABLE
  2
UCS
  5
18
330
0
100
AcDbSymbolTable
 70
     0
  0
ENDTAB
  0
TABLE
  2
APPID
  5
1B
330
0
100
AcDbSymbolTable
 70
     1
  0
APPID
  5
1C
330
1B
100
AcDbSymbolTableRecord
100
AcDbRegAppTableRecord
  2
ACAD
 70
     0
  0
ENDTAB
  0
TABLE
  2
DIMSTYLE
  5
1D
330
0
100
AcDbSymbolTable
 70
     1
100
AcDbDimStyleTable
  0
DIMSTYLE
105
23
330
1D
100
AcDbSymbolTableRecord
100
AcDbDimStyleTableRecord
  2
STANDARD
 70
     0
  3

  4

340
12
  0
ENDTAB
  0
TABLE
  2
BLOCK_RECORD
  5
1
330
0
100
AcDbSymbolTable
 70
     2
  0
BLOCK_RECORD
  5
2
330
1
100
AcDbSymbolTableRecord
100
AcDbBlockTableRecord
  2
*MODEL_SPACE
340
A
  0
BLOCK_RECORD
  5
C
330
1
100
AcDbSymbolTableRecord
100
AcDbBlockTableRecord
  2
*PAPER_SPACE
340
F
  0
BLOCK_RECORD
  5
27
330
1
100
AcDbSymbolTableRecord
100
AcDbBlockTableRecord
  2
Cps7-f
340
0
  0
ENDTAB
  0
ENDSEC
  0
SECTION
  2
BLOCKS
  0
BLOCK
  5
3
330
2
100
AcDbEntity
  8
0
100
AcDbBlockBegin
  2
*MODEL_SPACE
 70
     0
 10
0.0
 20
0.0
 30
0.0
  3
*MODEL_SPACE
  1

  4

  0
ENDBLK
  5
9
330
2
100
AcDbEntity
  8
0
100
AcDbBlockEnd
  0
BLOCK
  5
D
330
C
100
AcDbEntity
 67
     1
  8
0
100
AcDbBlockBegin
  2
*PAPER_SPACE
 70
     0
 10
0.0
 20
0.0
 30
0.0
  3
*PAPER_SPACE
  1

  4

  0
ENDBLK
  5
E
330
C
100
AcDbEntity
 67
     1
  8
0
100
AcDbBlockEnd
  0
BLOCK
  5
2C
330
27
100
AcDbEntity
  8
0
100
AcDbBlockBegin
  2
Cps7-f
 70
     0
 10
0.0
 20
0.0
 30
0.0
  3
Cps7-f
  1

  4

  0
LINE
  5
28
330
27
100
AcDbEntity
  8
0
100
AcDbLine
 10
-3.468749999999998
 20
0.0000000000000004
 30
0.0
 11
3.468749999999998
 21
-0.0000000000000004
 31
0.0
  0
LINE
  5
29
330
27
100
AcDbEntity
  8
0
100
AcDbLine
 10
-3.624999999999998
 20
1.234438985899594
 30
0.0
 11
3.624999999999998
 21
1.234438985899593
 31
0.0
  0
LINE
  5
2A
330
27
100
AcDbEntity
  8
0
100
AcDbLine
 10
-3.624999999999998
 20
1.234438985899594
 30
0.0
 11
-3.468749999999998
 21
0.0000000000000004
 31
0.0
  0
LINE
  5
2B
330
27
100
AcDbEntity
  8
0
100
AcDbLine
 10
3.624999999999995
 20
1.234438985899593
 30
0.0
 11
3.468749999999998
 21
-0.0000000000000004
 31
0.0
  0
ENDBLK
  5
2D
330
27
100
AcDbEntity
  8
0
100
AcDbBlockEnd
  0
ENDSEC
  0
SECTION
  2
ENTITIES
  0
LINE
  5
97
330
2
100
AcDbEntity
  8
OBJECT
100
AcDbLine
 10
3.987241947876633
 20
7.020147223776493
 30
0.0
 11
7.238427806195872
 21
7.020301186750781
 31
0.0
  0
LINE
  5
98
330
2
100
AcDbEntity
  8
OBJECT
100
AcDbLine
 10
7.351307763753856
 20
7.131537195272704
 30
0.0
 11
3.987236683985042
 21
7.131303103891898
 31
0.0
  0
ARC
  5
99
330
2
100
AcDbEntity
  8
OBJECT
100
AcDbCircle
 10
3.925932813901919
 20
3.629601079423826
 30
0.0
 40
0.6875
100
AcDbArc
 50
5.215908570453973
 51
84.88821655286994
  0
LINE
  5
9A
330
2
100
AcDbEntity
  8
OBJECT
100
AcDbLine
 10
0.3633749863317555
 20
7.254541861169067
 30
0.0
 11
7.48837498051516
 21
7.254787515390858
 31
0.0
  0
LINE
  5
9B
330
2
100
AcDbEntity
  8
OBJECT
100
AcDbLine
 10
3.98735644754096
 20
0.2390497470979738
 30
0.0
 11
7.238495749709586
 21
0.2390497470979738
 31
0.0
  0
LINE
  5
9C
330
2
100
AcDbEntity
  8
OBJECT
100
AcDbLine
 10
7.351427535709596
 20
0.1277732057995311
 30
0.0
 11
3.987356447540964
 21
0.127893866857931
 31
0.0
  0
LINE
  5
9D
330
2
100
AcDbEntity
  8
OBJECT
100
AcDbLine
 10
7.233627678981399
 20
0.0045418611690677
 30
0.0
 11
0.3635005889524152
 21
0.0045293767669618
 31
0.0
  0
LINE
  5
9E
330
2
100
AcDbEntity
  8
OBJECT
100
AcDbLine
 10
0.3635005889524152
 20
0.0045293767669618
 30
0.0
 11
7.488500588952415
 21
0.004597151817451
 31
0.0
  0
CIRCLE
  5
9F
330
2
100
AcDbEntity
  8
OBJECT
100
AcDbCircle
 10
3.925932813901919
 20
3.629601079423826
 30
0.0
 40
0.5
  0
CIRCLE
  5
A0
330
2
100
AcDbEntity
  8
OBJECT
100
AcDbCircle
 10
3.925932813901919
 20
3.629601079423826
 30
0.0
 40
0.5781
  0
ARC
  5
A1
330
2
100
AcDbEntity
  8
OBJECT
100
AcDbCircle
 10
3.925932813901919
 20
3.629601079423826
 30
0.0
 40
0.6875
100
AcDbArc
 50
275.1144964603752
 51
354.7840914295458
  0
LINE
  5
A2
330
2
100
AcDbEntity
  8
OBJECT
100
AcDbLine
 10
0.5510005889524152
 20
3.567101079423825
 30
0.0
 11
0.5510005889524188
 21
0.3529341067224271
 31
0.0
  0
LINE
  5
A3
330
2
100
AcDbEntity
  8
OBJECT
100
AcDbLine
 10
0.4260005889524152
 20
3.56703330437333
 30
0.0
 11
0.4260005889524152
 21
0.2297643988383444
 31
0.0
  0
LINE
  5
A4
330
2
100
AcDbEntity
  8
OBJECT
100
AcDbLine
 10
0.3008779461483109
 20
7.192038901492674
 30
0.0
 11
0.3010005889524152
 21
0.0670293767669618
 31
0.0
  0
ARC
  5
A5
330
2
100
AcDbEntity
  8
OBJECT
100
AcDbCircle
 10
3.925932813901919
 20
3.629601079423826
 30
0.0
 40
0.6875
100
AcDbArc
 50
185.2162184003845
 51
264.8855035396244
  0
LINE
  5
A6
330
2
100
AcDbEntity
  8
OBJECT
100
AcDbLine
 10
1.463819766027217
 20
1.076901001220614
 30
0.0
 11
0.5005736421952343
 21
0.1277732057995311
 31
0.0
  0
LINE
  5
A7
330
2
100
AcDbEntity
  8
OBJECT
100
AcDbLine
 10
1.375820749151481
 20
1.165676972231375
 30
0.0
 11
0.4260005889524152
 21
0.2297643988383444
 31
0.0
  0
LINE
  5
A8
330
2
100
AcDbEntity
  8
OBJECT
100
AcDbLine
 10
0.5005736421952343
 20
0.1277732057995311
 30
0.0
 11
3.864644730363867
 21
0.127893866857931
 31
0.0
  0
LINE
  5
A9
330
2
100
AcDbEntity
  8
OBJECT
100
AcDbLine
 10
3.864644730363871
 20
0.2390497470979738
 30
0.0
 11
0.6135054281952457
 21
0.2390497470979755
 31
0.0
  0
ARC
  5
AA
330
2
100
AcDbEntity
  8
OBJECT
100
AcDbCircle
 10
0.3635005889524152
 20
0.0670293767669618
 30
0.0
 40
0.0625
100
AcDbArc
 50
179.9999999999999
 51
269.9999999999999
  0
ARC
  5
AB
330
2
100
AcDbEntity
  8
OBJECT
100
AcDbCircle
 10
0.8714871132269881
 20
0.5754796476498743
 30
0.0
 40
0.0625192006788431
100
AcDbArc
 50
313.3233590349993
 51
136.1634374084532
  0
LINE
  5
AC
330
2
100
AcDbEntity
  8
OBJECT
100
AcDbLine
 10
0.3010005889524152
 20
2.346492264589019
 30
0.0
 11
0.4260005889524152
 21
2.346492264589019
 31
0.0
  0
LINE
  5
AD
330
2
100
AcDbEntity
  8
OBJECT
100
AcDbLine
 10
0.3010005889524152
 20
2.596492264589019
 30
0.0
 11
0.4260005889524152
 21
2.596492264589019
 31
0.0
  0
LINE
  5
AE
330
2
100
AcDbEntity
  8
OBJECT
100
AcDbLine
 10
3.864644730363867
 20
0.127893866857931
 30
0.0
 11
3.864644730363867
 21
2.94483833159343
 31
0.0
  0
LINE
  5
AF
330
2
100
AcDbEntity
  8
OBJECT
100
AcDbLine
 10
3.987356447540964
 20
0.127893866857931
 30
0.0
 11
3.987220897439964
 21
2.94483833159343
 31
0.0
  0
CIRCLE
  5
B0
330
2
100
AcDbEntity
  8
OBJECT
100
AcDbCircle
 10
1.675950588952415
 20
1.375572181704706
 30
0.0
 40
0.09375
  0
CIRCLE
  5
B1
330
2
100
AcDbEntity
  8
OBJECT
100
AcDbCircle
 10
1.675950588952415
 20
1.375572181704706
 30
0.0
 40
0.296875
  0
CIRCLE
  5
B2
330
2
100
AcDbEntity
  8
OBJECT
100
AcDbCircle
 10
1.675950588952415
 20
1.375572181704706
 30
0.0
 40
0.171875
  0
ARC
  5
B3
330
2
100
AcDbEntity
  8
OBJECT
100
AcDbCircle
 10
1.420920610683246
 20
1.122379709692767
 30
0.0
 40
0.0625192006788431
100
AcDbArc
 50
313.3281383880444
 51
136.1682167614983
  0
LINE
  5
B4
330
2
100
AcDbEntity
  8
OBJECT
100
AcDbLine
 10
1.375750132635744
 20
6.093442206383043
 30
0.0
 11
0.4258856524786723
 21
7.029309799096713
 31
0.0
  0
LINE
  5
B5
330
2
100
AcDbEntity
  8
OBJECT
100
AcDbLine
 10
1.463744945342934
 20
6.18222234457074
 30
0.0
 11
0.5004538757486892
 21
7.131304523498467
 31
0.0
  0
LINE
  5
B6
330
2
100
AcDbEntity
  8
OBJECT
100
AcDbLine
 10
3.241279279053763
 20
3.692097377073574
 30
0.0
 11
0.4259976307939983
 21
3.691966235364949
 31
0.0
  0
LINE
  5
B7
330
2
100
AcDbEntity
  8
OBJECT
100
AcDbLine
 10
3.241279955002497
 20
3.567097377126698
 30
0.0
 11
0.4260005889524152
 21
3.56703330437333
 31
0.0
  0
LINE
  5
B8
330
2
100
AcDbEntity
  8
OBJECT
100
AcDbLine
 10
3.864530230837138
 20
7.020141412647337
 30
0.0
 11
0.6134374942827041
 21
7.019987454082918
 31
0.0
  0
LINE
  5
B9
330
2
100
AcDbEntity
  8
OBJECT
100
AcDbLine
 10
0.5004538757486892
 20
7.131304523498467
 30
0.0
 11
3.86452496694554
 21
7.131297292762741
 31
0.0
  0
LINE
  5
BA
330
2
100
AcDbEntity
  8
OBJECT
100
AcDbLine
 10
0.5509976338633884
 20
3.69190437980748
 30
0.0
 11
0.5508454182684546
 21
6.906191398905134
 31
0.0
  0
LINE
  5
BB
330
2
100
AcDbEntity
  8
OBJECT
100
AcDbLine
 10
0.4259976307939983
 20
3.691966235364949
 30
0.0
 11
0.4258856524786723
 21
7.029309799096713
 31
0.0
  0
LINE
  5
BC
330
2
100
AcDbEntity
  8
OBJECT
100
AcDbLine
 10
0.3009516700474262
 20
4.662501354568049
 30
0.0
 11
0.4259516699072645
 21
4.662507274060999
 31
0.0
  0
LINE
  5
BD
330
2
100
AcDbEntity
  8
OBJECT
100
AcDbLine
 10
0.3009398310615279
 20
4.912501354287728
 30
0.0
 11
0.4259398309213662
 21
4.912507273780677
 31
0.0
  0
ARC
  5
BE
330
2
100
AcDbEntity
  8
OBJECT
100
AcDbCircle
 10
0.8715759139824784
 20
6.683768997428969
 30
0.0
 40
0.0625192006788431
100
AcDbArc
 50
223.8341181833308
 51
46.6741965567847
  0
ARC
  5
BF
330
2
100
AcDbEntity
  8
OBJECT
100
AcDbCircle
 10
0.36337794607823
 20
7.192041861239148
 30
0.0
 40
0.0625
100
AcDbArc
 50
90.00271329570379
 51
180.0027132957038
  0
LINE
  5
C0
330
2
100
AcDbEntity
  8
OBJECT
100
AcDbLine
 10
3.987236683985042
 20
7.131303103891898
 30
0.0
 11
3.98718847174465
 21
4.314283973957083
 31
0.0
  0
LINE
  5
C1
330
2
100
AcDbEntity
  8
OBJECT
100
AcDbLine
 10
3.86452496694554
 20
7.131297292762741
 30
0.0
 11
3.864612304805996
 21
4.31427816924703
 31
0.0
  0
ARC
  5
C2
330
2
100
AcDbEntity
  8
OBJECT
100
AcDbCircle
 10
3.925932813901919
 20
3.629601079423826
 30
0.0
 40
0.6875
100
AcDbArc
 50
95.11720980680482
 51
174.784401263769
  0
CIRCLE
  5
C3
330
2
100
AcDbEntity
  8
OBJECT
100
AcDbCircle
 10
1.675889911885846
 20
5.88356121007683
 30
0.0
 40
0.09375
  0
CIRCLE
  5
C4
330
2
100
AcDbEntity
  8
OBJECT
100
AcDbCircle
 10
1.675889911885846
 20
5.88356121007683
 30
0.0
 40
0.171875
  0
CIRCLE
  5
C5
330
2
100
AcDbEntity
  8
OBJECT
100
AcDbCircle
 10
1.675889911885846
 20
5.88356121007683
 30
0.0
 40
0.296875
  0
ARC
  5
C6
330
2
100
AcDbEntity
  8
OBJECT
100
AcDbCircle
 10
1.420847943734217
 20
6.1367416046196
 30
0.0
 40
0.0625192006788431
100
AcDbArc
 50
223.8344965342055
 51
46.67457490765939
  0
LINE
  5
C7
330
2
100
AcDbEntity
  8
OBJECT
100
AcDbLine
 10
7.301000588952415
 20
3.567101079423825
 30
0.0
 11
7.301000588952411
 21
0.3529341067224289
 31
0.0
  0
LINE
  5
C8
330
2
100
AcDbEntity
  8
OBJECT
100
AcDbLine
 10
7.426000588952415
 20
3.56703330437333
 30
0.0
 11
7.426000588952417
 21
0.2297643988383444
 31
0.0
  0
LINE
  5
C9
330
2
100
AcDbEntity
  8
OBJECT
100
AcDbLine
 10
7.550877943401106
 20
7.192222700156999
 30
0.0
 11
7.551000588952415
 21
0.067097151817451
 31
0.0
  0
LINE
  5
CA
330
2
100
AcDbEntity
  8
OBJECT
100
AcDbLine
 10
7.551000588952415
 20
1.03975653148213
 30
0.0
 11
7.551000588952415
 21
5.192168854474322
 31
0.0
  0
LINE
  5
CB
330
2
100
AcDbEntity
  8
OBJECT
100
AcDbLine
 10
7.551000588952415
 20
2.596492264589019
 30
0.0
 11
7.426000588952415
 21
2.596492264589019
 31
0.0
  0
LINE
  5
CC
330
2
100
AcDbEntity
  8
OBJECT
100
AcDbLine
 10
7.551000588952415
 20
2.346492264589019
 30
0.0
 11
7.426000588952415
 21
2.346492264589019
 31
0.0
  0
ARC
  5
CD
330
2
100
AcDbEntity
  8
OBJECT
100
AcDbCircle
 10
7.488500588952415
 20
0.0670293767669618
 30
0.0
 40
0.0625
100
AcDbArc
 50
270.0000000000001
 51
0.0000000000000835
  0
ARC
  5
CE
330
2
100
AcDbEntity
  8
OBJECT
100
AcDbCircle
 10
7.488500588952415
 20
0.067097151817451
 30
0.0
 40
0.0625
100
AcDbArc
 50
270.0
 51
0.0
  0
LINE
  5
CF
330
2
100
AcDbEntity
  8
OBJECT
100
AcDbLine
 10
6.388181411877612
 20
1.076901001220614
 30
0.0
 11
7.351427535709596
 21
0.1277732057995311
 31
0.0
  0
LINE
  5
D0
330
2
100
AcDbEntity
  8
OBJECT
100
AcDbLine
 10
6.47618042875335
 20
1.165676972231375
 30
0.0
 11
7.426000588952417
 21
0.2297643988383444
 31
0.0
  0
ARC
  5
D1
330
2
100
AcDbEntity
  8
OBJECT
100
AcDbCircle
 10
6.431080567221586
 20
1.122379709692767
 30
0.0
 40
0.0625192006788431
100
AcDbArc
 50
43.83178323850176
 51
226.6718616119557
  0
CIRCLE
  5
D2
330
2
100
AcDbEntity
  8
OBJECT
100
AcDbCircle
 10
6.176050588952415
 20
1.375572181704706
 30
0.0
 40
0.296875
  0
CIRCLE
  5
D3
330
2
100
AcDbEntity
  8
OBJECT
100
AcDbCircle
 10
6.176050588952415
 20
1.375572181704706
 30
0.0
 40
0.171875
  0
CIRCLE
  5
D4
330
2
100
AcDbEntity
  8
OBJECT
100
AcDbCircle
 10
6.176050588952415
 20
1.375572181704706
 30
0.0
 40
0.09375
  0
ARC
  5
D5
330
2
100
AcDbEntity
  8
OBJECT
100
AcDbCircle
 10
6.980514064677842
 20
0.5754796476498743
 30
0.0
 40
0.0625192006788431
100
AcDbArc
 50
43.83656259154687
 51
226.6766409650007
  0
ARC
  5
D6
330
2
100
AcDbEntity
  8
OBJECT
100
AcDbCircle
 10
7.488377943471186
 20
7.192219740410525
 30
0.0
 40
0.0625
100
AcDbArc
 50
0.0027132957037133
 51
90.00271329570366
  0
ARC
  5
D7
330
2
100
AcDbEntity
  8
OBJECT
100
AcDbCircle
 10
7.488377940261635
 20
7.192287515460939
 30
0.0
 40
0.0625
100
AcDbArc
 50
0.0027132957036298
 51
90.0027132957036
  0
LINE
  5
D8
330
2
100
AcDbEntity
  8
OBJECT
100
AcDbLine
 10
7.550939825104773
 20
4.912752928002466
 30
0.0
 11
7.425939825244934
 21
4.912747008509517
 31
0.0
  0
LINE
  5
D9
330
2
100
AcDbEntity
  8
OBJECT
100
AcDbLine
 10
7.550951664090671
 20
4.66275292828279
 30
0.0
 11
7.425951664230833
 21
4.66274700878984
 31
0.0
  0
LINE
  5
DA
330
2
100
AcDbEntity
  8
OBJECT
100
AcDbLine
 10
7.30099762846728
 20
3.692132275550424
 30
0.0
 11
7.300845417171336
 21
6.906328514162309
 31
0.0
  0
LINE
  5
DB
330
2
100
AcDbEntity
  8
OBJECT
100
AcDbLine
 10
7.425997625117566
 20
3.692205970093789
 30
0.0
 11
7.425885646802242
 21
7.029549533825555
 31
0.0
  0
LINE
  5
DC
330
2
100
AcDbEntity
  8
OBJECT
100
AcDbLine
 10
7.426000588952415
 20
3.56703330437333
 30
0.0
 11
4.610586010783377
 21
3.567101079423825
 31
0.0
  0
LINE
  5
DD
330
2
100
AcDbEntity
  8
OBJECT
100
AcDbLine
 10
7.425997625117566
 20
3.692205970093789
 30
0.0
 11
4.610586010783377
 21
3.692101079423823
 31
0.0
  0
LINE
  5
DE
330
2
100
AcDbEntity
  8
OBJECT
100
AcDbLine
 10
6.388106587844294
 20
6.182363785486765
 30
0.0
 11
7.351307763753856
 21
7.131537195272704
 31
0.0
  0
LINE
  5
DF
330
2
100
AcDbEntity
  8
OBJECT
100
AcDbLine
 10
6.476109808691235
 20
6.093591981852026
 30
0.0
 11
7.425885646802242
 21
7.029549533825555
 31
0.0
  0
ARC
  5
E0
330
2
100
AcDbEntity
  8
OBJECT
100
AcDbCircle
 10
6.431007896827318
 20
6.136887108595587
 30
0.0
 40
0.0625192006788431
100
AcDbArc
 50
133.3308516837481
 51
316.1709300572019
  0
CIRCLE
  5
E1
330
2
100
AcDbEntity
  8
OBJECT
100
AcDbCircle
 10
6.175989909012533
 20
5.883682559682286
 30
0.0
 40
0.296875
  0
CIRCLE
  5
E2
330
2
100
AcDbEntity
  8
OBJECT
100
AcDbCircle
 10
6.175989909012533
 20
5.883682559682286
 30
0.0
 40
0.171875
  0
CIRCLE
  5
E3
330
2
100
AcDbEntity
  8
OBJECT
100
AcDbCircle
 10
6.175989909012533
 20
5.883682559682286
 30
0.0
 40
0.09375
  0
ARC
  5
E4
330
2
100
AcDbEntity
  8
OBJECT
100
AcDbCircle
 10
6.980425263922352
 20
6.683768997428969
 30
0.0
 40
0.0625192006788431
100
AcDbArc
 50
133.3258034432153
 51
316.1658818166692
  0
ENDSEC
  0
SECTION
  2
OBJECTS
  0
DICTIONARY
  5
7
330
0
100
AcDbDictionary
281
     1
  3
ACAD_COLOR
350
E8
  3
ACAD_GROUP
350
1F
  3
ACAD_LAYOUT
350
B
  3
ACAD_MATERIAL
350
EA
  3
ACAD_MLINESTYLE
350
20
  3
ACAD_PLOTSETTINGS
350
21
  3
ACAD_PLOTSTYLENAME
350
6
  3
ACDBHEADERROUNDTRIPXREC
350
E7
  3
AcDbVariableDictionary
350
30
  0
DICTIONARY
  5
E8
102
{ACAD_REACTORS
330
7
102
}
330
7
100
AcDbDictionary
281
     1
  0
DICTIONARY
  5
1F
102
{ACAD_REACTORS
330
7
102
}
330
7
100
AcDbDictionary
281
     1
  0
DICTIONARY
  5
B
102
{ACAD_REACTORS
330
7
102
}
330
7
100
AcDbDictionary
281
     1
  3
Layout1
350
F
  3
Model
350
A
  0
DICTIONARY
  5
EA
102
{ACAD_REACTORS
330
7
102
}
330
7
100
AcDbDictionary
281
     1
  0
DICTIONARY
  5
20
102
{ACAD_REACTORS
330
7
102
}
330
7
100
AcDbDictionary
281
     1
  3
STANDARD
350
22
  0
DICTIONARY
  5
21
102
{ACAD_REACTORS
330
7
102
}
330
7
100
AcDbDictionary
281
     1
  0
ACDBDICTIONARYWDFLT
  5
6
102
{ACAD_REACTORS
330
7
102
}
330
7
100
AcDbDictionary
281
     1
  3
Normal
350
5
100
AcDbDictionaryWithDefault
340
5
  0
DICTIONARY
  5
E7
102
{ACAD_REACTORS
330
7
102
}
330
7
100
AcDbDictionary
281
     1
  3
COLORDICT
350
E9
  3
MATERIALDICT
350
EB
  0
DICTIONARY
  5
30
102
{ACAD_REACTORS
330
7
102
}
330
7
100
AcDbDictionary
281
     1
  3
HIDETEXT
350
E6
  0
LAYOUT
  5
F
102
{ACAD_REACTORS
330
B
102
}
102
{ACAD_XDICTIONARY
360
EC
102
}
330
B
100
AcDbPlotSettings
  1

  2
CANON BJC-6000
  4

  6

 40
0.0
 41
0.0
 42
0.0
 43
0.0
 44
0.0
 45
0.0
 46
0.0
 47
0.0
 48
0.0
 49
0.0
140
0.0
141
0.0
142
1.0
143
1.0
 70
   688
 72
     0
 73
     0
 74
     5
  7

 75
    16
147
1.0
148
0.0
149
0.0
100
AcDbLayout
  1
Layout1
 70
     0
 71
     1
 10
0.0
 20
0.0
 11
12.0
 21
9.0
 12
0.0
 22
0.0
 32
0.0
 14
1.000000000000000E+20
 24
1.000000000000000E+20
 34
1.000000000000000E+20
 15
-1.000000000000000E+20
 25
-1.000000000000000E+20
 35
-1.000000000000000E+20
146
0.0
 13
0.0
 23
0.0
 33
0.0
 16
1.0
 26
0.0
 36
0.0
 17
0.0
 27
1.0
 37
0.0
 76
     0
330
C
  0
LAYOUT
  5
A
102
{ACAD_REACTORS
330
B
102
}
102
{ACAD_XDICTIONARY
360
EE
102
}
330
B
100
AcDbPlotSettings
  1

  2
CANON BJC-6000
  4

  6

 40
0.0
 41
0.0
 42
0.0
 43
0.0
 44
0.0
 45
0.0
 46
0.0
 47
0.0
 48
0.0
 49
0.0
140
0.0
141
0.0
142
1.0
143
1.0
 70
  1712
 72
     0
 73
     0
 74
     0
  7

 75
     0
147
1.0
148
0.0
149
0.0
100
AcDbLayout
  1
Model
 70
     1
 71
     0
 10
0.0
 20
0.0
 11
12.0
 21
9.0
 12
0.0
 22
0.0
 32
0.0
 14
0.0
 24
0.0
 34
0.0
 15
0.0
 25
0.0
 35
0.0
146
0.0
 13
0.0
 23
0.0
 33
0.0
 16
1.0
 26
0.0
 36
0.0
 17
0.0
 27
1.0
 37
0.0
 76
     0
330
2
  0
MLINESTYLE
  5
22
102
{ACAD_REACTORS
330
20
102
}
330
20
100
AcDbMlineStyle
  2
STANDARD
 70
     0
  3

 62
   256
 51
90.0
 52
90.0
 71
     2
 49
0.5
 62
   256
  6
BYLAYER
 49
-0.5
 62
   256
  6
BYLAYER
  0
ACDBPLACEHOLDER
  5
5
102
{ACAD_REACTORS
330
6
102
}
330
6
  0
XRECORD
  5
E9
102
{ACAD_REACTORS
330
E7
102
}
330
E7
100
AcDbXrecord
340
E8
  0
XRECORD
  5
EB
102
{ACAD_REACTORS
330
E7
102
}
330
E7
100
AcDbXrecord
340
EA
  0
DICTIONARYVAR
  5
E6
102
{ACAD_REACTORS
330
30
102
}
330
30
100
DictionaryVariables
280
     0
  1
0
  0
DICTIONARY
  5
EC
330
F
100
AcDbDictionary
280
     1
281
     1
  3
ACAD_XREC_ROUNDTRIP
360
ED
  0
DICTIONARY
  5
EE
330
A
100
AcDbDictionary
280
     1
281
     1
  3
ACAD_XREC_ROUNDTRIP
360
EF
  0
XRECORD
  5
ED
102
{ACAD_REACTORS
330
EC
102
}
330
EC
100
AcDbXrecord
102
SHADEPLOT
 70
     0
102
SHADEPLOTRESLEVEL
 70
     2
102
SHADEPLOTCUSTOMDPI
 70
   300
  0
XRECORD
  5
EF
102
{ACAD_REACTORS
330
EE
102
}
330
EE
100
AcDbXrecord
102
SHADEPLOT
 70
     0
102
SHADEPLOTRESLEVEL
 70
     2
102
SHADEPLOTCUSTOMDPI
 70
   300
  0
ENDSEC
  0
EOF
