  0
SECTION
  2
HEADER
  9
$ACADVER
  1
AC1015
  9
$ACADMAINTVER
 70
     6
  9
$DWGCODEPAGE
  3
ANSI_1252
  9
$INSBASE
 10
0.0
 20
0.0
 30
0.0
  9
$EXTMIN
 10
-8.611452389768616
 20
-0.0130312692217842
 30
-0.0015258207003583
  9
$EXTMAX
 10
8.384714624788614
 20
12.17506090321234
 30
0.0000000349246037
  9
$LIMMIN
 10
0.0
 20
0.0
  9
$LIMMAX
 10
21.0
 20
16.0
  9
$ORTHOMODE
 70
     1
  9
$REGENMODE
 70
     1
  9
$FILLMODE
 70
     1
  9
$QTEXTMODE
 70
     0
  9
$MIRRTEXT
 70
     1
  9
$LTSCALE
 40
0.5
  9
$ATTMODE
 70
     1
  9
$TEXTSIZE
 40
0.1875
  9
$TRACEWID
 40
0.05
  9
$TEXTSTYLE
  7
STANDARD
  9
$CLAYER
  8
0
  9
$CELTYPE
  6
BYLAYER
  9
$CECOLOR
 62
   256
  9
$CELTSCALE
 40
1.0
  9
$DISPSILH
 70
     0
  9
$DIMSCALE
 40
2.0
  9
$DIMASZ
 40
0.125
  9
$DIMEXO
 40
0.062
  9
$DIMDLI
 40
0.375
  9
$DIMRND
 40
0.0
  9
$DIMDLE
 40
0.0
  9
$DIMEXE
 40
0.08
  9
$DIMTP
 40
0.0
  9
$DIMTM
 40
0.0
  9
$DIMTXT
 40
0.09
  9
$DIMCEN
 40
-0.06
  9
$DIMTSZ
 40
0.0
  9
$DIMTOL
 70
     0
  9
$DIMLIM
 70
     0
  9
$DIMTIH
 70
     1
  9
$DIMTOH
 70
     1
  9
$DIMSE1
 70
     0
  9
$DIMSE2
 70
     0
  9
$DIMTAD
 70
     0
  9
$DIMZIN
 70
     0
  9
$DIMBLK
  1

  9
$DIMASO
 70
     0
  9
$DIMSHO
 70
     0
  9
$DIMPOST
  1

  9
$DIMAPOST
  1

  9
$DIMALT
 70
     0
  9
$DIMALTD
 70
     2
  9
$DIMALTF
 40
25.4
  9
$DIMLFAC
 40
1.0
  9
$DIMTOFL
 70
     0
  9
$DIMTVP
 40
0.0
  9
$DIMTIX
 70
     0
  9
$DIMSOXD
 70
     0
  9
$DIMSAH
 70
     0
  9
$DIMBLK1
  1

  9
$DIMBLK2
  1

  9
$DIMSTYLE
  2
STANDARD
  9
$DIMCLRD
 70
     0
  9
$DIMCLRE
 70
     0
  9
$DIMCLRT
 70
     0
  9
$DIMTFAC
 40
1.0
  9
$DIMGAP
 40
0.09375
  9
$DIMJUST
 70
     0
  9
$DIMSD1
 70
     0
  9
$DIMSD2
 70
     0
  9
$DIMTOLJ
 70
     1
  9
$DIMTZIN
 70
     0
  9
$DIMALTZ
 70
     0
  9
$DIMALTTZ
 70
     0
  9
$DIMUPT
 70
     0
  9
$DIMDEC
 70
     5
  9
$DIMTDEC
 70
     5
  9
$DIMALTU
 70
     5
  9
$DIMALTTD
 70
     2
  9
$DIMTXSTY
  7
STANDARD
  9
$DIMAUNIT
 70
     0
  9
$DIMADEC
 70
     0
  9
$DIMALTRND
 40
0.0
  9
$DIMAZIN
 70
     0
  9
$DIMDSEP
 70
    46
  9
$DIMATFIT
 70
     3
  9
$DIMFRAC
 70
     2
  9
$DIMLDRBLK
  1

  9
$DIMLUNIT
 70
     5
  9
$DIMLWD
 70
    -2
  9
$DIMLWE
 70
    -2
  9
$DIMTMOVE
 70
     2
  9
$LUNITS
 70
     5
  9
$LUPREC
 70
     5
  9
$SKETCHINC
 40
0.1
  9
$FILLETRAD
 40
0.0
  9
$AUNITS
 70
     0
  9
$AUPREC
 70
     0
  9
$MENU
  1
acad
  9
$ELEVATION
 40
0.0
  9
$PELEVATION
 40
0.0
  9
$THICKNESS
 40
0.0
  9
$LIMCHECK
 70
     0
  9
$CHAMFERA
 40
0.1875
  9
$CHAMFERB
 40
0.1875
  9
$CHAMFERC
 40
0.0
  9
$CHAMFERD
 40
0.0
  9
$SKPOLY
 70
     0
  9
$TDCREATE
 40
2450256.913385417
  9
$TDUCREATE
 40
2450257.24671875
  9
$TDUPDATE
 40
2454193.824562801
  9
$TDUUPDATE
 40
2454194.157896134
  9
$TDINDWG
 40
0.3232647917
  9
$TDUSRTIMER
 40
0.3232647917
  9
$USRTIMER
 70
     1
  9
$ANGBASE
 50
0.0
  9
$ANGDIR
 70
     0
  9
$PDMODE
 70
     0
  9
$PDSIZE
 40
0.0
  9
$PLINEWID
 40
0.0
  9
$SPLFRAME
 70
     0
  9
$SPLINETYPE
 70
     6
  9
$SPLINESEGS
 70
     8
  9
$HANDSEED
  5
306
  9
$SURFTAB1
 70
     6
  9
$SURFTAB2
 70
     6
  9
$SURFTYPE
 70
     6
  9
$SURFU
 70
     6
  9
$SURFV
 70
     6
  9
$UCSBASE
  2

  9
$UCSNAME
  2

  9
$UCSORG
 10
0.0
 20
0.0
 30
0.0
  9
$UCSXDIR
 10
1.0
 20
0.0
 30
0.0
  9
$UCSYDIR
 10
0.0
 20
1.0
 30
0.0
  9
$UCSORTHOREF
  2

  9
$UCSORTHOVIEW
 70
     0
  9
$UCSORGTOP
 10
0.0
 20
0.0
 30
0.0
  9
$UCSORGBOTTOM
 10
0.0
 20
0.0
 30
0.0
  9
$UCSORGLEFT
 10
0.0
 20
0.0
 30
0.0
  9
$UCSORGRIGHT
 10
0.0
 20
0.0
 30
0.0
  9
$UCSORGFRONT
 10
0.0
 20
0.0
 30
0.0
  9
$UCSORGBACK
 10
0.0
 20
0.0
 30
0.0
  9
$PUCSBASE
  2

  9
$PUCSNAME
  2

  9
$PUCSORG
 10
0.0
 20
0.0
 30
0.0
  9
$PUCSXDIR
 10
1.0
 20
0.0
 30
0.0
  9
$PUCSYDIR
 10
0.0
 20
1.0
 30
0.0
  9
$PUCSORTHOREF
  2

  9
$PUCSORTHOVIEW
 70
     0
  9
$PUCSORGTOP
 10
0.0
 20
0.0
 30
0.0
  9
$PUCSORGBOTTOM
 10
0.0
 20
0.0
 30
0.0
  9
$PUCSORGLEFT
 10
0.0
 20
0.0
 30
0.0
  9
$PUCSORGRIGHT
 10
0.0
 20
0.0
 30
0.0
  9
$PUCSORGFRONT
 10
0.0
 20
0.0
 30
0.0
  9
$PUCSORGBACK
 10
0.0
 20
0.0
 30
0.0
  9
$USERI1
 70
     0
  9
$USERI2
 70
     0
  9
$USERI3
 70
     0
  9
$USERI4
 70
     0
  9
$USERI5
 70
     0
  9
$USERR1
 40
0.0
  9
$USERR2
 40
0.0
  9
$USERR3
 40
0.0
  9
$USERR4
 40
0.0
  9
$USERR5
 40
0.0
  9
$WORLDVIEW
 70
     1
  9
$SHADEDGE
 70
     3
  9
$SHADEDIF
 70
    70
  9
$TILEMODE
 70
     1
  9
$MAXACTVP
 70
    16
  9
$PINSBASE
 10
0.0
 20
0.0
 30
0.0
  9
$PLIMCHECK
 70
     0
  9
$PEXTMIN
 10
1.000000000000000E+20
 20
1.000000000000000E+20
 30
1.000000000000000E+20
  9
$PEXTMAX
 10
-1.000000000000000E+20
 20
-1.000000000000000E+20
 30
-1.000000000000000E+20
  9
$PLIMMIN
 10
0.0
 20
0.0
  9
$PLIMMAX
 10
12.0
 20
9.0
  9
$UNITMODE
 70
     0
  9
$VISRETAIN
 70
     0
  9
$PLINEGEN
 70
     0
  9
$PSLTSCALE
 70
     0
  9
$TREEDEPTH
 70
  3020
  9
$CMLSTYLE
  2
STANDARD
  9
$CMLJUST
 70
     0
  9
$CMLSCALE
 40
1.0
  9
$PROXYGRAPHICS
 70
     1
  9
$MEASUREMENT
 70
     0
  9
$CELWEIGHT
370
    -1
  9
$ENDCAPS
280
     0
  9
$JOINSTYLE
280
     0
  9
$LWDISPLAY
290
     0
  9
$INSUNITS
 70
     0
  9
$HYPERLINKBASE
  1

  9
$STYLESHEET
  1

  9
$XEDIT
290
     1
  9
$CEPSNTYPE
380
     0
  9
$PSTYLEMODE
290
     1
  9
$FINGERPRINTGUID
  2
{5D154FD1-8120-4755-A750-588C18EEC269}
  9
$VERSIONGUID
  2
{4BB7BDDB-A74D-4E0F-B6B6-2F9C4D949CB4}
  9
$EXTNAMES
290
     1
  9
$PSVPSCALE
 40
0.0
  9
$OLESTARTUP
290
     0
  0
ENDSEC
  0
SECTION
  2
CLASSES
  0
CLASS
  1
DICTIONARYVAR
  2
AcDbDictionaryVar
  3
AutoCAD 2000
 90
        0
280
     0
281
     0
  0
CLASS
  1
LWPOLYLINE
  2
AcDbPolyline
  3
AutoCAD 2000
 90
        0
280
     0
281
     1
  0
CLASS
  1
HATCH
  2
AcDbHatch
  3
AutoCAD 2000
 90
        0
280
     0
281
     1
  0
CLASS
  1
ACDBDICTIONARYWDFLT
  2
AcDbDictionaryWithDefault
  3
AutoCAD 2000
 90
        0
280
     0
281
     0
  0
CLASS
  1
ACDBPLACEHOLDER
  2
AcDbPlaceHolder
  3
ObjectDBX Classes
 90
        0
280
     0
281
     0
  0
CLASS
  1
LAYOUT
  2
AcDbLayout
  3
ObjectDBX Classes
 90
        0
280
     0
281
     0
  0
CLASS
  1
LONG_TRANSACTION
  2
AcDbLongTransaction
  3
AutoCAD 2000
 90
   -65536
280
     1
281
     0
  0
CLASS
  1
LWPOLYLINE
  2
AcDbPolyline
  3
AutoCAD 2000
 90
        0
280
     0
281
     1
  0
CLASS
  1
HATCH
  2
AcDbHatch
  3
AutoCAD 2000
 90
        0
280
     0
281
     1
  0
CLASS
  1
XRECORD
  2
AcDbXrecord
  3
AutoCAD 2000
 90
        0
280
     0
281
     0
  0
CLASS
  1
LONG_TRANSACTION
  2
AcDbLongTransaction
  3
AutoCAD 2000
 90
   -65536
280
     1
281
     0
  0
CLASS
  1
LWPOLYLINE
  2
AcDbPolyline
  3
AutoCAD 2000
 90
        0
280
     0
281
     1
  0
CLASS
  1
HATCH
  2
AcDbHatch
  3
AutoCAD 2000
 90
        0
280
     0
281
     1
  0
CLASS
  1
XRECORD
  2
AcDbXrecord
  3
AutoCAD 2000
 90
        0
280
     0
281
     0
  0
CLASS
  1
TABLESTYLE
  2
AcDbTableStyle
  3
ObjectDBX Classes
 90
     2047
280
     1
281
     0
  0
ENDSEC
  0
SECTION
  2
TABLES
  0
TABLE
  2
VPORT
  5
1D
330
0
100
AcDbSymbolTable
 70
     2
  0
VPORT
  5
2FD
330
1D
100
AcDbSymbolTableRecord
100
AcDbViewportTableRecord
  2
*Active
 70
     0
 10
0.0
 20
0.0
 11
1.0
 21
1.0
 12
1.145619612944874
 22
6.083182795620321
 13
0.0
 23
0.0
 14
0.0625
 24
0.0625
 15
0.25
 25
0.25
 16
0.0
 26
0.0
 36
1.0
 17
0.0
 27
0.0
 37
0.0
 40
17.97730238282453
 41
1.658444022770399
 42
50.0
 43
0.0
 44
0.0
 50
0.0
 51
0.0
 71
     0
 72
   100
 73
     1
 74
     1
 75
     0
 76
     0
 77
     0
 78
     0
281
     0
 65
     1
110
0.0
120
0.0
130
0.0
111
1.0
121
0.0
131
0.0
112
0.0
122
1.0
132
0.0
 79
     0
146
0.0
  0
ENDTAB
  0
TABLE
  2
LTYPE
  5
18
330
0
100
AcDbSymbolTable
 70
     2
  0
LTYPE
  5
19
330
18
100
AcDbSymbolTableRecord
100
AcDbLinetypeTableRecord
  2
BYBLOCK
 70
     0
  3

 72
    65
 73
     0
 40
0.0
  0
LTYPE
  5
1A
330
18
100
AcDbSymbolTableRecord
100
AcDbLinetypeTableRecord
  2
BYLAYER
 70
     0
  3

 72
    65
 73
     0
 40
0.0
  0
LTYPE
  5
A
330
18
100
AcDbSymbolTableRecord
100
AcDbLinetypeTableRecord
  2
CONTINUOUS
 70
     0
  3
Solid line
 72
    65
 73
     0
 40
0.0
  0
LTYPE
  5
186
330
18
100
AcDbSymbolTableRecord
100
AcDbLinetypeTableRecord
  2
HIDDEN
 70
     0
  3
Hidden __ __ __ __ __ __ __ __ __ __ __ __ __ _
 72
    65
 73
     2
 40
0.375
 49
0.25
 74
     0
 49
-0.125
 74
     0
  0
ENDTAB
  0
TABLE
  2
LAYER
  5
14
102
{ACAD_XDICTIONARY
360
181
102
}
330
0
100
AcDbSymbolTable
 70
     1
  0
LAYER
  5
6
330
14
100
AcDbSymbolTableRecord
100
AcDbLayerTableRecord
  2
0
 70
     0
 62
     7
  6
CONTINUOUS
370
    -3
390
7
  0
ENDTAB
  0
TABLE
  2
STYLE
  5
15
330
0
100
AcDbSymbolTable
 70
     2
  0
STYLE
  5
16
330
15
100
AcDbSymbolTableRecord
100
AcDbTextStyleTableRecord
  2
STANDARD
 70
     0
 40
0.0
 41
1.0
 50
0.0
 71
     0
 42
0.1875
  3
TXT
  4

  0
STYLE
  5
185
330
15
100
AcDbSymbolTableRecord
100
AcDbTextStyleTableRecord
  2

 70
     1
 40
0.0
 41
1.0
 50
0.0
 71
     0
 42
0.1875
  3
ltypeshp.shx
  4

  0
ENDTAB
  0
TABLE
  2
VIEW
  5
1B
330
0
100
AcDbSymbolTable
 70
     0
  0
ENDTAB
  0
TABLE
  2
UCS
  5
1C
330
0
100
AcDbSymbolTable
 70
     0
  0
ENDTAB
  0
TABLE
  2
APPID
  5
1F
330
0
100
AcDbSymbolTable
 70
     1
  0
APPID
  5
20
330
1F
100
AcDbSymbolTableRecord
100
AcDbRegAppTableRecord
  2
ACAD
 70
     0
  0
ENDTAB
  0
TABLE
  2
DIMSTYLE
  5
21
330
0
100
AcDbSymbolTable
 70
     1
100
AcDbDimStyleTable
  0
DIMSTYLE
105
28
330
21
100
AcDbSymbolTableRecord
100
AcDbDimStyleTableRecord
  2
STANDARD
 70
     0
  3

  4

340
16
  0
ENDTAB
  0
TABLE
  2
BLOCK_RECORD
  5
1
330
0
100
AcDbSymbolTable
 70
     1
  0
BLOCK_RECORD
  5
2
330
1
100
AcDbSymbolTableRecord
100
AcDbBlockTableRecord
  2
*MODEL_SPACE
340
C
  0
BLOCK_RECORD
  5
E
330
1
100
AcDbSymbolTableRecord
100
AcDbBlockTableRecord
  2
*PAPER_SPACE
340
13
  0
BLOCK_RECORD
  5
16C
330
1
100
AcDbSymbolTableRecord
100
AcDbBlockTableRecord
  2
Cps7-f
340
0
102
{BLKREFS
331
178
102
}
  0
ENDTAB
  0
ENDSEC
  0
SECTION
  2
BLOCKS
  0
BLOCK
  5
5
330
2
100
AcDbEntity
  8
0
100
AcDbBlockBegin
  2
*MODEL_SPACE
 70
     0
 10
0.0
 20
0.0
 30
0.0
  3
*MODEL_SPACE
  1

  4

  0
ENDBLK
  5
B
330
2
100
AcDbEntity
  8
0
100
AcDbBlockEnd
  0
BLOCK
  5
11
330
E
100
AcDbEntity
 67
     1
  8
0
100
AcDbBlockBegin
  2
*PAPER_SPACE
 70
     0
 10
0.0
 20
0.0
 30
0.0
  3
*PAPER_SPACE
  1

  4

  0
ENDBLK
  5
12
330
E
100
AcDbEntity
 67
     1
  8
0
100
AcDbBlockEnd
  0
BLOCK
  5
171
330
16C
100
AcDbEntity
  8
0
100
AcDbBlockBegin
  2
Cps7-f
 70
     0
 10
0.0
 20
0.0
 30
0.0
  3
Cps7-f
  1

  4

  0
LINE
  5
16D
330
16C
100
AcDbEntity
  8
0
100
AcDbLine
 10
-3.468749999999998
 20
0.0000000000000004
 30
0.0
 11
3.468749999999998
 21
-0.0000000000000004
 31
0.0
  0
LINE
  5
16E
330
16C
100
AcDbEntity
  8
0
100
AcDbLine
 10
-3.624999999999998
 20
1.234438985899594
 30
0.0
 11
3.624999999999998
 21
1.234438985899593
 31
0.0
  0
LINE
  5
16F
330
16C
100
AcDbEntity
  8
0
100
AcDbLine
 10
-3.624999999999998
 20
1.234438985899594
 30
0.0
 11
-3.468749999999998
 21
0.0000000000000004
 31
0.0
  0
LINE
  5
170
330
16C
100
AcDbEntity
  8
0
100
AcDbLine
 10
3.624999999999995
 20
1.234438985899593
 30
0.0
 11
3.468749999999998
 21
-0.0000000000000004
 31
0.0
  0
ENDBLK
  5
172
330
16C
100
AcDbEntity
  8
0
100
AcDbBlockEnd
  0
ENDSEC
  0
SECTION
  2
ENTITIES
  0
ARC
  5
DA
330
2
100
AcDbEntity
  8
0
100
AcDbCircle
 10
-0.0000677750504963
 20
3.62503781513162
 30
0.0
 40
0.6875
100
AcDbArc
 50
275.1144964603752
 51
354.7840914295458
  0
CIRCLE
  5
DB
330
2
100
AcDbEntity
  8
0
100
AcDbCircle
 10
-0.0000677750504963
 20
3.62503781513162
 30
0.0
 40
0.5781
  0
CIRCLE
  5
DC
330
2
100
AcDbEntity
  8
0
100
AcDbCircle
 10
-0.0000677750504963
 20
3.62503781513162
 30
0.0
 40
0.5
  0
ARC
  5
DD
330
2
100
AcDbEntity
  8
0
100
AcDbCircle
 10
-0.0000677750504963
 20
3.62503781513162
 30
0.0
 40
0.6875
100
AcDbArc
 50
185.2162184003845
 51
264.8855035396244
  0
LINE
  5
DE
330
2
100
AcDbEntity
  8
0
100
AcDbLine
 10
3.625
 20
1.035193267189924
 30
0.0
 11
3.625
 21
5.187605590182116
 31
0.0
  0
LINE
  5
DF
330
2
100
AcDbEntity
  8
0
100
AcDbLine
 10
3.624877354448691
 20
7.187659435864793
 30
0.0
 11
3.625
 21
0.0625338875252446
 31
0.0
  0
LINE
  5
E0
330
2
100
AcDbEntity
  8
0
100
AcDbLine
 10
3.5
 20
3.562470040081124
 30
0.0
 11
3.500000000000002
 21
0.225201134546138
 31
0.0
  0
LINE
  5
E1
330
2
100
AcDbEntity
  8
0
100
AcDbLine
 10
3.375
 20
3.562537815131618
 30
0.0
 11
3.374999999999996
 21
0.3483708424302225
 31
0.0
  0
LINE
  5
E2
330
2
100
AcDbEntity
  8
0
100
AcDbLine
 10
-3.625122642804104
 20
7.187475637200468
 30
0.0
 11
-3.625
 21
0.0624661124747554
 31
0.0
  0
LINE
  5
E3
330
2
100
AcDbEntity
  8
0
100
AcDbLine
 10
-3.5
 20
3.562470040081124
 30
0.0
 11
-3.5
 21
0.225201134546138
 31
0.0
  0
LINE
  5
E4
330
2
100
AcDbEntity
  8
0
100
AcDbLine
 10
-3.375
 20
3.562537815131618
 30
0.0
 11
-3.374999999999996
 21
0.3483708424302208
 31
0.0
  0
LINE
  5
E5
330
2
100
AcDbEntity
  8
0
100
AcDbLine
 10
-3.5625
 20
-0.0000338875252446
 30
0.0
 11
3.5625
 21
0.0000338875252446
 31
0.0
  0
LINE
  5
E6
330
2
100
AcDbEntity
  8
0
100
AcDbLine
 10
-0.061355858588545
 20
0.2344864828057673
 30
0.0
 11
-3.31249516075717
 21
0.2344864828057691
 31
0.0
  0
LINE
  5
E7
330
2
100
AcDbEntity
  8
0
100
AcDbLine
 10
-3.425426946757181
 20
0.1232099415073247
 30
0.0
 11
-0.0613558585885485
 21
0.1233306025657246
 31
0.0
  0
LINE
  5
E8
330
2
100
AcDbEntity
  8
0
100
AcDbLine
 10
3.307627090028984
 20
-0.0000214031231387
 30
0.0
 11
-3.5625
 21
-0.0000338875252446
 31
0.0
  0
LINE
  5
E9
330
2
100
AcDbEntity
  8
0
100
AcDbLine
 10
-2.550179839800935
 20
1.161113707939169
 30
0.0
 11
-3.5
 21
0.225201134546138
 31
0.0
  0
LINE
  5
EA
330
2
100
AcDbEntity
  8
0
100
AcDbLine
 10
-2.462180822925198
 20
1.072337736928407
 30
0.0
 11
-3.425426946757181
 21
0.1232099415073247
 31
0.0
  0
ARC
  5
EB
330
2
100
AcDbEntity
  8
0
100
AcDbCircle
 10
-3.5625
 20
0.0624661124747554
 30
0.0
 40
0.0625
100
AcDbArc
 50
179.9999999999999
 51
269.9999999999999
  0
ARC
  5
EC
330
2
100
AcDbEntity
  8
0
100
AcDbCircle
 10
-3.054513475725427
 20
0.5709163833576678
 30
0.0
 40
0.0625192006788431
100
AcDbArc
 50
313.3233590349993
 51
136.1634374084532
  0
LINE
  5
ED
330
2
100
AcDbEntity
  8
0
100
AcDbLine
 10
-3.625
 20
2.341929000296813
 30
0.0
 11
-3.5
 21
2.341929000296813
 31
0.0
  0
LINE
  5
EE
330
2
100
AcDbEntity
  8
0
100
AcDbLine
 10
-3.625
 20
2.591929000296813
 30
0.0
 11
-3.5
 21
2.591929000296813
 31
0.0
  0
CIRCLE
  5
EF
330
2
100
AcDbEntity
  8
0
100
AcDbCircle
 10
-2.25005
 20
1.3710089174125
 30
0.0
 40
0.171875
  0
CIRCLE
  5
F0
330
2
100
AcDbEntity
  8
0
100
AcDbCircle
 10
-2.25005
 20
1.3710089174125
 30
0.0
 40
0.296875
  0
ARC
  5
F1
330
2
100
AcDbEntity
  8
0
100
AcDbCircle
 10
-2.505079978269169
 20
1.11781644540056
 30
0.0
 40
0.0625192006788431
100
AcDbArc
 50
313.3281383880444
 51
136.1682167614983
  0
CIRCLE
  5
F2
330
2
100
AcDbEntity
  8
0
100
AcDbCircle
 10
-2.25005
 20
1.3710089174125
 30
0.0
 40
0.09375
  0
LINE
  5
F3
330
2
100
AcDbEntity
  8
0
100
AcDbLine
 10
2.550179839800935
 20
1.161113707939169
 30
0.0
 11
3.500000000000002
 21
0.225201134546138
 31
0.0
  0
LINE
  5
F4
330
2
100
AcDbEntity
  8
0
100
AcDbLine
 10
2.462180822925197
 20
1.072337736928407
 30
0.0
 11
3.425426946757181
 21
0.1232099415073247
 31
0.0
  0
LINE
  5
F5
330
2
100
AcDbEntity
  8
0
100
AcDbLine
 10
0.0613558585885485
 20
0.1233306025657246
 30
0.0
 11
0.0612203084875489
 21
2.940275067301224
 31
0.0
  0
LINE
  5
F6
330
2
100
AcDbEntity
  8
0
100
AcDbLine
 10
-0.0613558585885485
 20
0.1233306025657246
 30
0.0
 11
-0.0613558585885485
 21
2.940275067301224
 31
0.0
  0
LINE
  5
F7
330
2
100
AcDbEntity
  8
0
100
AcDbLine
 10
3.425426946757181
 20
0.1232099415073247
 30
0.0
 11
0.0613558585885485
 21
0.1233306025657246
 31
0.0
  0
LINE
  5
F8
330
2
100
AcDbEntity
  8
0
100
AcDbLine
 10
0.061355858588545
 20
0.2344864828057673
 30
0.0
 11
3.312495160757171
 21
0.2344864828057673
 31
0.0
  0
ARC
  5
F9
330
2
100
AcDbEntity
  8
0
100
AcDbCircle
 10
3.5625
 20
0.0625338875252446
 30
0.0
 40
0.0625
100
AcDbArc
 50
270.0
 51
0.0
  0
ARC
  5
FA
330
2
100
AcDbEntity
  8
0
100
AcDbCircle
 10
3.5625
 20
0.0624661124747554
 30
0.0
 40
0.0625
100
AcDbArc
 50
270.0000000000001
 51
0.0000000000000833
  0
ARC
  5
FB
330
2
100
AcDbEntity
  8
0
100
AcDbCircle
 10
3.054513475725427
 20
0.5709163833576678
 30
0.0
 40
0.0625192006788431
100
AcDbArc
 50
43.83656259154687
 51
226.6766409650007
  0
CIRCLE
  5
FC
330
2
100
AcDbEntity
  8
0
100
AcDbCircle
 10
2.25005
 20
1.3710089174125
 30
0.0
 40
0.171875
  0
CIRCLE
  5
FD
330
2
100
AcDbEntity
  8
0
100
AcDbCircle
 10
2.25005
 20
1.3710089174125
 30
0.0
 40
0.296875
  0
ARC
  5
FE
330
2
100
AcDbEntity
  8
0
100
AcDbCircle
 10
2.505079978269171
 20
1.11781644540056
 30
0.0
 40
0.0625192006788431
100
AcDbArc
 50
43.83178323850176
 51
226.6718616119557
  0
CIRCLE
  5
FF
330
2
100
AcDbEntity
  8
0
100
AcDbCircle
 10
2.25005
 20
1.3710089174125
 30
0.0
 40
0.09375
  0
LINE
  5
100
330
2
100
AcDbEntity
  8
0
100
AcDbLine
 10
3.625
 20
2.341929000296813
 30
0.0
 11
3.5
 21
2.341929000296813
 31
0.0
  0
LINE
  5
101
330
2
100
AcDbEntity
  8
0
100
AcDbLine
 10
3.625
 20
2.591929000296813
 30
0.0
 11
3.5
 21
2.591929000296813
 31
0.0
  0
ARC
  5
102
330
2
100
AcDbEntity
  8
0
100
AcDbCircle
 10
-0.0000677750504963
 20
3.62503781513162
 30
0.0
 40
0.6875
100
AcDbArc
 50
95.11720980680482
 51
174.784401263769
  0
LINE
  5
103
330
2
100
AcDbEntity
  8
0
100
AcDbLine
 10
-3.56262560262066
 20
7.249978596876861
 30
0.0
 11
3.562374391562745
 21
7.250224251098652
 31
0.0
  0
LINE
  5
104
330
2
100
AcDbEntity
  8
0
100
AcDbLine
 10
-3.425546713203726
 20
7.126741259206261
 30
0.0
 11
-0.061475622006876
 21
7.126734028470535
 31
0.0
  0
LINE
  5
105
330
2
100
AcDbEntity
  8
0
100
AcDbLine
 10
-0.0614703581152778
 20
7.015578148355131
 30
0.0
 11
-3.312563094669711
 21
7.015424189790712
 31
0.0
  0
CIRCLE
  5
106
330
2
100
AcDbEntity
  8
0
100
AcDbCircle
 10
-2.250110677066569
 20
5.878997945784624
 30
0.0
 40
0.296875
  0
LINE
  5
107
330
2
100
AcDbEntity
  8
0
100
AcDbLine
 10
-3.500002958158417
 20
3.687402971072743
 30
0.0
 11
-3.500114936473743
 21
7.024746534804507
 31
0.0
  0
LINE
  5
108
330
2
100
AcDbEntity
  8
0
100
AcDbLine
 10
-3.375002955089027
 20
3.687341115515274
 30
0.0
 11
-3.375155170683961
 21
6.901628134612928
 31
0.0
  0
LINE
  5
109
330
2
100
AcDbEntity
  8
0
100
AcDbLine
 10
-0.6847206339499188
 20
3.562534112834491
 30
0.0
 11
-3.5
 21
3.562470040081124
 31
0.0
  0
LINE
  5
10A
330
2
100
AcDbEntity
  8
0
100
AcDbLine
 10
-0.6847213098986522
 20
3.687534112781368
 30
0.0
 11
-3.500002958158417
 21
3.687402971072743
 31
0.0
  0
LINE
  5
10B
330
2
100
AcDbEntity
  8
0
100
AcDbLine
 10
-3.625048918904989
 20
4.657938090275843
 30
0.0
 11
-3.500048919045151
 21
4.657944009768793
 31
0.0
  0
LINE
  5
10C
330
2
100
AcDbEntity
  8
0
100
AcDbLine
 10
-3.625060757890887
 20
4.907938089995522
 30
0.0
 11
-3.500060758031049
 21
4.907944009488471
 31
0.0
  0
LINE
  5
10D
330
2
100
AcDbEntity
  8
0
100
AcDbLine
 10
-2.462255643609481
 20
6.177659080278534
 30
0.0
 11
-3.425546713203726
 21
7.126741259206261
 31
0.0
  0
LINE
  5
10E
330
2
100
AcDbEntity
  8
0
100
AcDbLine
 10
-2.550250456316672
 20
6.088878942090837
 30
0.0
 11
-3.500114936473743
 21
7.024746534804507
 31
0.0
  0
ARC
  5
10F
330
2
100
AcDbEntity
  8
0
100
AcDbCircle
 10
-3.054424674969937
 20
6.679205733136763
 30
0.0
 40
0.0625192006788431
100
AcDbArc
 50
223.8341181833308
 51
46.6741965567847
  0
ARC
  5
110
330
2
100
AcDbEntity
  8
0
100
AcDbCircle
 10
-3.562622642874185
 20
7.187478596946942
 30
0.0
 40
0.0625
100
AcDbArc
 50
90.00271329570379
 51
180.0027132957038
  0
CIRCLE
  5
111
330
2
100
AcDbEntity
  8
0
100
AcDbCircle
 10
-2.250110677066569
 20
5.878997945784624
 30
0.0
 40
0.171875
  0
CIRCLE
  5
112
330
2
100
AcDbEntity
  8
0
100
AcDbCircle
 10
-2.250110677066569
 20
5.878997945784624
 30
0.0
 40
0.09375
  0
ARC
  5
113
330
2
100
AcDbEntity
  8
0
100
AcDbCircle
 10
-2.505152645218198
 20
6.132178340327394
 30
0.0
 40
0.0625192006788431
100
AcDbArc
 50
223.8344965342055
 51
46.67457490765939
  0
CIRCLE
  5
114
330
2
100
AcDbEntity
  8
0
100
AcDbCircle
 10
2.249989320060118
 20
5.87911929539008
 30
0.0
 40
0.296875
  0
LINE
  5
115
330
2
100
AcDbEntity
  8
0
100
AcDbLine
 10
-0.061475622006876
 20
7.126734028470535
 30
0.0
 11
-0.0613882841464193
 21
4.309714904954824
 31
0.0
  0
LINE
  5
116
330
2
100
AcDbEntity
  8
0
100
AcDbLine
 10
0.0612360950326263
 20
7.126739839599692
 30
0.0
 11
0.0611878827922343
 21
4.309720709664877
 31
0.0
  0
LINE
  5
117
330
2
100
AcDbEntity
  8
0
100
AcDbLine
 10
3.499997036165151
 20
3.687642705801583
 30
0.0
 11
3.499885057849827
 21
7.024986269533349
 31
0.0
  0
LINE
  5
118
330
2
100
AcDbEntity
  8
0
100
AcDbLine
 10
3.374997039514865
 20
3.687569011258217
 30
0.0
 11
3.374844828218921
 21
6.901765249870103
 31
0.0
  0
LINE
  5
119
330
2
100
AcDbEntity
  8
0
100
AcDbLine
 10
3.499997036165151
 20
3.687642705801583
 30
0.0
 11
0.6845854218309615
 21
3.687537815131616
 31
0.0
  0
LINE
  5
11A
330
2
100
AcDbEntity
  8
0
100
AcDbLine
 10
3.5
 20
3.562470040081124
 30
0.0
 11
0.6845854218309615
 21
3.562537815131618
 31
0.0
  0
ARC
  5
11B
330
2
100
AcDbEntity
  8
0
100
AcDbCircle
 10
-0.0000677750504963
 20
3.62503781513162
 30
0.0
 40
0.6875
100
AcDbArc
 50
5.215908570453975
 51
84.88821655286994
  0
LINE
  5
11C
330
2
100
AcDbEntity
  8
0
100
AcDbLine
 10
3.624951075138256
 20
4.658189663990584
 30
0.0
 11
3.499951075278418
 21
4.658183744497634
 31
0.0
  0
LINE
  5
11D
330
2
100
AcDbEntity
  8
0
100
AcDbLine
 10
3.624939236152358
 20
4.90818966371026
 30
0.0
 11
3.499939236292519
 21
4.908183744217311
 31
0.0
  0
LINE
  5
11E
330
2
100
AcDbEntity
  8
0
100
AcDbLine
 10
3.425307174801441
 20
7.126973930980498
 30
0.0
 11
0.0612360950326263
 21
7.126739839599692
 31
0.0
  0
LINE
  5
11F
330
2
100
AcDbEntity
  8
0
100
AcDbLine
 10
0.0612413589242173
 20
7.015583959484287
 30
0.0
 11
3.312427217243457
 21
7.015737922458575
 31
0.0
  0
LINE
  5
120
330
2
100
AcDbEntity
  8
0
100
AcDbLine
 10
2.55010921973882
 20
6.08902871755982
 30
0.0
 11
3.499885057849827
 21
7.024986269533349
 31
0.0
  0
LINE
  5
121
330
2
100
AcDbEntity
  8
0
100
AcDbLine
 10
2.462105998891879
 20
6.177800521194559
 30
0.0
 11
3.425307174801441
 21
7.126973930980498
 31
0.0
  0
CIRCLE
  5
122
330
2
100
AcDbEntity
  8
0
100
AcDbCircle
 10
2.249989320060118
 20
5.87911929539008
 30
0.0
 40
0.171875
  0
CIRCLE
  5
123
330
2
100
AcDbEntity
  8
0
100
AcDbCircle
 10
2.249989320060118
 20
5.87911929539008
 30
0.0
 40
0.09375
  0
ARC
  5
124
330
2
100
AcDbEntity
  8
0
100
AcDbCircle
 10
2.505007307874903
 20
6.132323844303381
 30
0.0
 40
0.0625192006788431
100
AcDbArc
 50
133.3308516837481
 51
316.1709300572019
  0
ARC
  5
125
330
2
100
AcDbEntity
  8
0
100
AcDbCircle
 10
3.054424674969937
 20
6.679205733136763
 30
0.0
 40
0.0625192006788431
100
AcDbArc
 50
133.3258034432153
 51
316.1658818166692
  0
ARC
  5
126
330
2
100
AcDbEntity
  8
0
100
AcDbCircle
 10
3.56237735130922
 20
7.187724251168733
 30
0.0
 40
0.0625
100
AcDbArc
 50
0.0027132957036299
 51
90.0027132957036
  0
ARC
  5
127
330
2
100
AcDbEntity
  8
0
100
AcDbCircle
 10
3.562377354518771
 20
7.187656476118319
 30
0.0
 40
0.0625
100
AcDbArc
 50
0.0027132957037133
 51
90.00271329570369
  0
INSERT
  5
178
330
2
100
AcDbEntity
  8
0
100
AcDbBlockReference
  2
Cps7-f
 10
-0.0001226428041061
 20
10.93999872344192
 30
0.0
  0
LINE
  5
22D
330
2
100
AcDbEntity
  8
0
100
AcDbLine
 10
-7.374523346993708
 20
7.249978596876861
 30
0.0
 11
-7.374523346993708
 21
-0.0000214031231378
 31
0.0
  0
LINE
  5
22E
330
2
100
AcDbEntity
  8
0
  6
HIDDEN
100
AcDbLine
 10
-8.483962332893302
 20
6.988792036273013
 30
0.0
 11
-8.483962332893302
 21
0.2615903623356015
 31
0.0
  0
LINE
  5
22F
330
2
100
AcDbEntity
  8
0
100
AcDbLine
 10
-8.608962332893302
 20
7.093728596876861
 30
0.0
 11
-8.608962332893302
 21
0.1562285968768622
 31
0.0
  0
LINE
  5
23E
330
2
100
AcDbEntity
  8
0
  6
HIDDEN
100
AcDbLine
 10
-7.374523346993708
 20
3.066771450680264
 30
0.0
 11
-8.483962332893302
 21
3.154788267088708
 31
0.0
  0
LINE
  5
23F
330
2
100
AcDbEntity
  8
0
  6
HIDDEN
100
AcDbLine
 10
-7.374523346993708
 20
0.8615799925832439
 30
0.0
 11
-8.483962332893302
 21
1.406062840548265
 31
0.0
  0
LINE
  5
240
330
2
100
AcDbEntity
  8
0
100
AcDbLine
 10
-7.374523346993708
 20
-0.0000214031231378
 30
0.0
 11
-8.608962332893302
 21
0.1562285968768622
 31
0.0
  0
LINE
  5
241
330
2
100
AcDbEntity
  8
0
  6
HIDDEN
100
AcDbLine
 10
-7.374523346993708
 20
0.1251803425474298
 30
0.0
 11
-8.483962332893302
 21
0.2615903623356015
 31
0.0
  0
LINE
  5
242
330
2
100
AcDbEntity
  8
0
  6
HIDDEN
100
AcDbLine
 10
-7.374523346993708
 20
2.937537818472316
 30
0.0
 11
-8.483962332893302
 21
2.937537818472313
 31
0.0
  0
ARC
  5
243
330
2
100
AcDbEntity
  8
0
100
AcDbCircle
 10
-7.505281514132275
 20
2.37893716743538
 30
0.0
 40
0.1192418328614338
100
AcDbArc
 50
90.0
 51
270.0
  0
LINE
  5
244
330
2
100
AcDbEntity
  8
0
100
AcDbLine
 10
-7.374523346993705
 20
2.259695334573945
 30
0.0
 11
-7.505281514132275
 21
2.259695334573946
 31
0.0
  0
LINE
  5
245
330
2
100
AcDbEntity
  8
0
100
AcDbLine
 10
-7.374523346993705
 20
2.498179000296813
 30
0.0
 11
-7.505281514132275
 21
2.498179000296814
 31
0.0
  0
ARC
  5
246
330
2
100
AcDbEntity
  8
0
100
AcDbCircle
 10
-7.505281514132275
 20
4.870899426718978
 30
0.0
 40
0.1192418328614338
100
AcDbArc
 50
90.0
 51
270.0
  0
LINE
  5
247
330
2
100
AcDbEntity
  8
0
  6
HIDDEN
100
AcDbLine
 10
-7.374523346993708
 20
4.312298775682045
 30
0.0
 11
-8.483962332893302
 21
4.312298775682043
 31
0.0
  0
LINE
  5
248
330
2
100
AcDbEntity
  8
0
  6
HIDDEN
100
AcDbLine
 10
-7.374523346993708
 20
3.55712280453451
 30
0.0
 11
-8.483962332893302
 21
3.557122804534508
 31
0.0
  0
LINE
  5
249
330
2
100
AcDbEntity
  8
0
  6
HIDDEN
100
AcDbLine
 10
-7.374523346993708
 20
3.682122804534512
 30
0.0
 11
-8.483962332893302
 21
3.682122804534505
 31
0.0
  0
LINE
  5
24A
330
2
100
AcDbEntity
  8
0
  6
HIDDEN
100
AcDbLine
 10
-7.374523346993708
 20
4.183065143474092
 30
0.0
 11
-8.483962332893302
 21
4.095048327065651
 31
0.0
  0
LINE
  5
24B
330
2
100
AcDbEntity
  8
0
100
AcDbLine
 10
-7.374523346993705
 20
4.751657593857544
 30
0.0
 11
-7.505281514132275
 21
4.751657593857544
 31
0.0
  0
LINE
  5
24C
330
2
100
AcDbEntity
  8
0
  6
HIDDEN
100
AcDbLine
 10
-7.374523346993708
 20
6.388377201170483
 30
0.0
 11
-8.483962332893302
 21
5.843894353205462
 31
0.0
  0
LINE
  5
24D
330
2
100
AcDbEntity
  8
0
100
AcDbLine
 10
-7.374523346993705
 20
4.990141259580412
 30
0.0
 11
-7.505281514132275
 21
4.990141259580412
 31
0.0
  0
LINE
  5
286
330
2
100
AcDbEntity
  8
0
  6
HIDDEN
100
AcDbLine
 10
-7.374523346993708
 20
7.125202056061188
 30
0.0
 11
-8.483962332893302
 21
6.988792036273013
 31
0.0
  0
LINE
  5
287
330
2
100
AcDbEntity
  8
0
100
AcDbLine
 10
-7.374523346993708
 20
7.249978596876861
 30
0.0
 11
-8.608962332893302
 21
7.093728596876861
 31
0.0
  0
LINE
  5
2C4
330
2
100
AcDbEntity
  8
0
100
AcDbLine
 10
8.258333759910745
 20
3.56285916518987
 30
0.0
 11
8.258333759910752
 21
1.704130908702616
 31
0.0
  0
LINE
  5
2C5
330
2
100
AcDbEntity
  8
0
100
AcDbLine
 10
8.383333759910745
 20
5.760505419058376
 30
0.0
 11
8.383333759910745
 21
1.501005908702616
 31
0.0
  0
LINE
  5
2C6
330
2
100
AcDbEntity
  8
0
100
AcDbLine
 10
7.148894774011151
 20
7.249978596876861
 30
0.0
 11
7.148894774011158
 21
0.0057077562375003
 31
0.0
  0
LINE
  5
2C7
330
2
100
AcDbEntity
  8
0
100
AcDbLine
 10
8.383333759910745
 20
1.313505908702616
 30
0.0
 11
8.383333759910745
 21
0.1619577562375012
 31
0.0
  0
LINE
  5
2C8
330
2
100
AcDbEntity
  8
0
100
AcDbLine
 10
7.148894774011158
 20
0.1268914863482795
 30
0.0
 11
8.258333759910745
 21
0.2673195216962423
 31
0.0
  0
LINE
  5
2C9
330
2
100
AcDbEntity
  8
0
100
AcDbLine
 10
7.148894774011158
 20
0.0057077562375003
 30
0.0
 11
8.383333759910745
 21
0.1619577562375012
 31
0.0
  0
LINE
  5
2CA
330
2
100
AcDbEntity
  8
0
100
AcDbLine
 10
7.148894774011158
 20
0.1268914863482795
 30
0.0
 11
7.148894774011158
 21
0.0057077562375003
 31
0.0
  0
LINE
  5
2CB
330
2
100
AcDbEntity
  8
0
100
AcDbLine
 10
8.258333759910752
 20
1.313505908702617
 30
0.0
 11
8.258333759910752
 21
1.501005908702616
 31
0.0
  0
LINE
  5
2CC
330
2
100
AcDbEntity
  8
0
100
AcDbLine
 10
8.383333759910745
 20
1.501005908702616
 30
0.0
 11
8.383333759910745
 21
1.313505908702616
 31
0.0
  0
LINE
  5
2CD
330
2
100
AcDbEntity
  8
0
100
AcDbLine
 10
8.164583759910745
 20
1.235380908702616
 30
0.0
 11
8.164583759910752
 21
1.579130908702616
 31
0.0
  0
LINE
  5
2CE
330
2
100
AcDbEntity
  8
0
100
AcDbLine
 10
8.008333759910752
 20
1.110380908702616
 30
0.0
 11
8.008333759910752
 21
1.704130908702616
 31
0.0
  0
LINE
  5
2CF
330
2
100
AcDbEntity
  8
0
100
AcDbLine
 10
8.258333759910752
 20
1.110380908702616
 30
0.0
 11
8.258333759910745
 21
0.2673195216962423
 31
0.0
  0
LINE
  5
2D0
330
2
100
AcDbEntity
  8
0
100
AcDbLine
 10
8.008333759910752
 20
1.235380908702616
 30
0.0
 11
8.164583759910759
 21
1.235380908702616
 31
0.0
  0
LINE
  5
2D1
330
2
100
AcDbEntity
  8
0
100
AcDbLine
 10
8.008333759910752
 20
1.110380908702616
 30
0.0
 11
8.258333759910752
 21
1.110380908702616
 31
0.0
  0
LINE
  5
2D2
330
2
100
AcDbEntity
  8
0
100
AcDbLine
 10
8.258333759910752
 20
1.313505908702616
 30
0.0
 11
8.383333759910745
 21
1.313505908702616
 31
0.0
  0
LINE
  5
2D3
330
2
100
AcDbEntity
  8
0
100
AcDbLine
 10
8.164583759910752
 20
1.235380908702616
 30
0.0
 11
8.258333759910752
 21
1.313505908702616
 31
0.0
  0
LINE
  5
2D4
330
2
100
AcDbEntity
  8
0
100
AcDbLine
 10
8.008333759910752
 20
1.579130908702616
 30
0.0
 11
8.164583759910759
 21
1.579130908702616
 31
0.0
  0
LINE
  5
2D5
330
2
100
AcDbEntity
  8
0
100
AcDbLine
 10
8.008333759910752
 20
1.704130908702616
 30
0.0
 11
8.258333759910752
 21
1.704130908702616
 31
0.0
  0
LINE
  5
2D6
330
2
100
AcDbEntity
  8
0
100
AcDbLine
 10
8.008333759910752
 20
1.704130908702616
 30
0.0
 11
8.008333759910752
 21
1.579130908702616
 31
0.0
  0
LINE
  5
2D7
330
2
100
AcDbEntity
  8
0
100
AcDbLine
 10
8.258333759910752
 20
1.501005908702616
 30
0.0
 11
8.383333759910745
 21
1.501005908702616
 31
0.0
  0
LINE
  5
2D8
330
2
100
AcDbEntity
  8
0
100
AcDbLine
 10
8.164583759910759
 20
1.579130908702616
 30
0.0
 11
8.258333759910752
 21
1.501005908702616
 31
0.0
  0
LINE
  5
2D9
330
2
100
AcDbEntity
  8
0
100
AcDbLine
 10
8.258333759910745
 20
5.557380431461088
 30
0.0
 11
8.258333759910745
 21
3.68785916518987
 31
0.0
  0
LINE
  5
2DA
330
2
100
AcDbEntity
  8
0
100
AcDbLine
 10
7.148894774011158
 20
3.052368724101514
 30
0.0
 11
8.258333759910752
 21
3.140385540509953
 31
0.0
  0
LINE
  5
2DB
330
2
100
AcDbEntity
  8
0
100
AcDbLine
 10
7.148894774011158
 20
2.983040992782314
 30
0.0
 11
8.258333759910745
 21
2.983040992782311
 31
0.0
  0
LINE
  5
2DC
330
2
100
AcDbEntity
  8
0
100
AcDbLine
 10
7.148894774011158
 20
3.687859165189868
 30
0.0
 11
8.258333759910745
 21
3.68785916518987
 31
0.0
  0
LINE
  5
2DD
330
2
100
AcDbEntity
  8
0
100
AcDbLine
 10
7.148894774011158
 20
3.56285916518987
 30
0.0
 11
8.258333759910745
 21
3.56285916518987
 31
0.0
  0
LINE
  5
2DE
330
2
100
AcDbEntity
  8
0
100
AcDbLine
 10
7.148894774011151
 20
3.687859165189868
 30
0.0
 11
7.148894774011158
 21
3.56285916518987
 31
0.0
  0
LINE
  5
2DF
330
2
100
AcDbEntity
  8
0
100
AcDbLine
 10
7.148894774011151
 20
4.20880775226461
 30
0.0
 11
8.258333759910752
 21
4.120790935856167
 31
0.0
  0
LINE
  5
2E0
330
2
100
AcDbEntity
  8
0
100
AcDbLine
 10
7.148894774011158
 20
4.278645619894665
 30
0.0
 11
8.258333759910745
 21
4.278645619894668
 31
0.0
  0
LINE
  5
2E1
330
2
100
AcDbEntity
  8
0
100
AcDbLine
 10
8.258333759910745
 20
6.994521195633652
 30
0.0
 11
8.258333759910752
 21
6.151130419058376
 31
0.0
  0
LINE
  5
2E2
330
2
100
AcDbEntity
  8
0
100
AcDbLine
 10
8.383333759910745
 20
5.948005419058376
 30
0.0
 11
8.383333759910745
 21
7.09372859687686
 31
0.0
  0
LINE
  5
2E3
330
2
100
AcDbEntity
  8
0
100
AcDbLine
 10
8.258333759910752
 20
5.948005419058374
 30
0.0
 11
8.258333759910752
 21
5.760505419058376
 31
0.0
  0
LINE
  5
2E4
330
2
100
AcDbEntity
  8
0
100
AcDbLine
 10
8.383333759910745
 20
5.760505419058376
 30
0.0
 11
8.383333759910745
 21
5.948005419058376
 31
0.0
  0
LINE
  5
2E5
330
2
100
AcDbEntity
  8
0
100
AcDbLine
 10
8.164583759910745
 20
6.026130419058376
 30
0.0
 11
8.164583759910752
 21
5.682380419058376
 31
0.0
  0
LINE
  5
2E6
330
2
100
AcDbEntity
  8
0
100
AcDbLine
 10
8.008333759910752
 20
6.151130419058376
 30
0.0
 11
8.008333759910752
 21
5.557380419058376
 31
0.0
  0
LINE
  5
2E7
330
2
100
AcDbEntity
  8
0
100
AcDbLine
 10
8.008333759910752
 20
5.682380419058376
 30
0.0
 11
8.164583759910759
 21
5.682380419058376
 31
0.0
  0
LINE
  5
2E8
330
2
100
AcDbEntity
  8
0
100
AcDbLine
 10
8.008333759910752
 20
5.557380419058376
 30
0.0
 11
8.258333759910752
 21
5.557380419058376
 31
0.0
  0
LINE
  5
2E9
330
2
100
AcDbEntity
  8
0
100
AcDbLine
 10
8.008333759910752
 20
5.682380419058376
 30
0.0
 11
8.008333759910752
 21
5.557380419058376
 31
0.0
  0
LINE
  5
2EA
330
2
100
AcDbEntity
  8
0
100
AcDbLine
 10
8.258333759910752
 20
5.760505419058376
 30
0.0
 11
8.383333759910745
 21
5.760505419058376
 31
0.0
  0
LINE
  5
2EB
330
2
100
AcDbEntity
  8
0
100
AcDbLine
 10
8.164583759910759
 20
5.682380419058376
 30
0.0
 11
8.258333759910752
 21
5.760505419058376
 31
0.0
  0
LINE
  5
2EC
330
2
100
AcDbEntity
  8
0
100
AcDbLine
 10
8.008333759910752
 20
6.026130419058376
 30
0.0
 11
8.164583759910759
 21
6.026130419058376
 31
0.0
  0
LINE
  5
2ED
330
2
100
AcDbEntity
  8
0
100
AcDbLine
 10
8.008333759910752
 20
6.151130419058376
 30
0.0
 11
8.258333759910752
 21
6.151130419058376
 31
0.0
  0
LINE
  5
2EE
330
2
100
AcDbEntity
  8
0
100
AcDbLine
 10
8.258333759910752
 20
5.948005419058376
 30
0.0
 11
8.383333759910745
 21
5.948005419058376
 31
0.0
  0
LINE
  5
2EF
330
2
100
AcDbEntity
  8
0
100
AcDbLine
 10
8.164583759910752
 20
6.026130419058376
 30
0.0
 11
8.258333759910752
 21
5.948005419058376
 31
0.0
  0
LINE
  5
2F0
330
2
100
AcDbEntity
  8
0
100
AcDbLine
 10
7.148894774011158
 20
7.12879486676608
 30
0.0
 11
8.258333759910745
 21
6.988366831418118
 31
0.0
  0
LINE
  5
2F1
330
2
100
AcDbEntity
  8
0
100
AcDbLine
 10
7.148894774011158
 20
7.24997859687686
 30
0.0
 11
8.383333759910745
 21
7.09372859687686
 31
0.0
  0
ARC
  5
2F2
330
2
100
AcDbEntity
  8
0
100
AcDbCircle
 10
7.293306253906501
 20
4.870899426718978
 30
0.0
 40
0.1192418328614338
100
AcDbArc
 50
270.0
 51
90.0
  0
LINE
  5
2F3
330
2
100
AcDbEntity
  8
0
100
AcDbLine
 10
7.162548086767931
 20
4.751657593857544
 30
0.0
 11
7.293306253906501
 21
4.751657593857544
 31
0.0
  0
LINE
  5
2F4
330
2
100
AcDbEntity
  8
0
100
AcDbLine
 10
7.162548086767931
 20
4.990141259580412
 30
0.0
 11
7.293306253906501
 21
4.990141259580412
 31
0.0
  0
ARC
  5
2F5
330
2
100
AcDbEntity
  8
0
100
AcDbCircle
 10
7.293306253906501
 20
2.37893716743538
 30
0.0
 40
0.1192418328614338
100
AcDbArc
 50
270.0
 51
90.0
  0
LINE
  5
2F6
330
2
100
AcDbEntity
  8
0
100
AcDbLine
 10
7.162548086767931
 20
2.259695334573945
 30
0.0
 11
7.293306253906501
 21
2.259695334573946
 31
0.0
  0
LINE
  5
2F7
330
2
100
AcDbEntity
  8
0
100
AcDbLine
 10
7.162548086767931
 20
2.498179000296813
 30
0.0
 11
7.293306253906501
 21
2.498179000296814
 31
0.0
  0
ENDSEC
  0
SECTION
  2
OBJECTS
  0
DICTIONARY
  5
9
330
0
100
AcDbDictionary
281
     1
  3
ACAD_COLOR
350
17C
  3
ACAD_GROUP
350
23
  3
ACAD_LAYOUT
350
D
  3
ACAD_MATERIAL
350
17B
  3
ACAD_MLINESTYLE
350
24
  3
ACAD_PLOTSETTINGS
350
25
  3
ACAD_PLOTSTYLENAME
350
8
  3
ACAD_TABLESTYLE
350
17D
  3
ACDBHEADERROUNDTRIPXREC
350
2FF
  3
AcDbVariableDictionary
350
CE
  0
DICTIONARY
  5
181
330
14
100
AcDbDictionary
280
     1
281
     1
  3
ACAD_LAYERFILTERS
360
183
  3
ACLYDICTIONARY
360
182
  0
DICTIONARY
  5
17C
102
{ACAD_REACTORS
330
9
102
}
330
9
100
AcDbDictionary
281
     1
  0
DICTIONARY
  5
23
102
{ACAD_REACTORS
330
9
102
}
330
9
100
AcDbDictionary
281
     1
  0
DICTIONARY
  5
D
102
{ACAD_REACTORS
330
9
102
}
330
9
100
AcDbDictionary
281
     1
  3
Layout1
350
13
  3
Model
350
C
  0
DICTIONARY
  5
17B
102
{ACAD_REACTORS
330
9
102
}
330
9
100
AcDbDictionary
281
     1
  0
DICTIONARY
  5
24
102
{ACAD_REACTORS
330
9
102
}
330
9
100
AcDbDictionary
281
     1
  3
STANDARD
350
27
  0
DICTIONARY
  5
25
102
{ACAD_REACTORS
330
9
102
}
330
9
100
AcDbDictionary
281
     1
  0
ACDBDICTIONARYWDFLT
  5
8
102
{ACAD_REACTORS
330
9
102
}
330
9
100
AcDbDictionary
281
     1
  3
Normal
350
7
100
AcDbDictionaryWithDefault
340
7
  0
DICTIONARY
  5
17D
102
{ACAD_REACTORS
330
9
102
}
330
9
100
AcDbDictionary
281
     1
  3
Standard
350
17E
  0
DICTIONARY
  5
2FF
102
{ACAD_REACTORS
330
9
102
}
330
9
100
AcDbDictionary
281
     1
  3
COLORDICT
350
300
  3
MATERIALDICT
350
301
  0
DICTIONARY
  5
CE
102
{ACAD_REACTORS
330
9
102
}
330
9
100
AcDbDictionary
281
     1
  3
CTABLESTYLE
350
18D
  3
HIDETEXT
350
2FE
  0
DICTIONARY
  5
183
102
{ACAD_REACTORS
330
181
102
}
330
181
100
AcDbDictionary
281
     1
  0
DICTIONARY
  5
182
102
{ACAD_REACTORS
330
181
102
}
330
181
100
AcDbDictionary
281
     1
1001
ACAD
1000
<All
  0
LAYOUT
  5
13
102
{ACAD_REACTORS
330
D
102
}
102
{ACAD_XDICTIONARY
360
302
102
}
330
D
100
AcDbPlotSettings
  1

  2
C:\ACAD2000\plotters\HP LaserJet 2100 Series PS.pc3
  4

  6

 40
0.0
 41
0.0
 42
0.0
 43
0.0
 44
0.0
 45
0.0
 46
0.0
 47
0.0
 48
0.0
 49
0.0
140
0.0
141
0.0
142
1.0
143
1.0
 70
   688
 72
     0
 73
     0
 74
     5
  7

 75
    16
147
1.0
148
0.0
149
0.0
100
AcDbLayout
  1
Layout1
 70
     0
 71
     1
 10
0.0
 20
0.0
 11
12.0
 21
9.0
 12
0.0
 22
0.0
 32
0.0
 14
1.000000000000000E+20
 24
1.000000000000000E+20
 34
1.000000000000000E+20
 15
-1.000000000000000E+20
 25
-1.000000000000000E+20
 35
-1.000000000000000E+20
146
0.0
 13
0.0
 23
0.0
 33
0.0
 16
1.0
 26
0.0
 36
0.0
 17
0.0
 27
1.0
 37
0.0
 76
     0
330
E
  0
LAYOUT
  5
C
102
{ACAD_REACTORS
330
D
102
}
102
{ACAD_XDICTIONARY
360
304
102
}
330
D
100
AcDbPlotSettings
  1

  2
HP LaserJet 2100 Series PS
  4
Letter
  6

 40
5.365749835968018
 41
5.365735054016113
 42
3.175003051757813
 43
3.17498779296875
 44
210.4813232421875
 45
273.9813232421875
 46
0.0
 47
0.0
 48
0.0
 49
0.0
140
0.0
141
0.0
142
1.0
143
2.641371167090076
 70
 28336
 72
     0
 73
     0
 74
     2
  7

 75
     0
147
0.3785912455089271
148
0.0
149
0.0
100
AcDbLayout
  1
Model
 70
     1
 71
     0
 10
0.0
 20
0.0
 11
12.0
 21
9.0
 12
0.0
 22
0.0
 32
0.0
 14
0.0
 24
0.0
 34
0.0
 15
0.0
 25
0.0
 35
0.0
146
0.0
 13
0.0
 23
0.0
 33
0.0
 16
1.0
 26
0.0
 36
0.0
 17
0.0
 27
1.0
 37
0.0
 76
     0
330
2
  0
MLINESTYLE
  5
27
102
{ACAD_REACTORS
330
24
102
}
330
24
100
AcDbMlineStyle
  2
STANDARD
 70
     0
  3

 62
   256
 51
90.0
 52
90.0
 71
     2
 49
0.5
 62
   256
  6
BYLAYER
 49
-0.5
 62
   256
  6
BYLAYER
  0
ACDBPLACEHOLDER
  5
7
102
{ACAD_REACTORS
330
8
102
}
330
8
  0
ACAD_PROXY_OBJECT
  5
17E
102
{ACAD_REACTORS
330
17D
102
}
330
17D
100
AcDbProxyObject
 90
      499
 91
      514
 95
   393239
 70
     0
 93
     1841
310
4214DD185B99185C9928B81E85EB51B8AE3F2E07A17AD46E2B8FC02B5E8DC0F42B1CFD028000000C1008070000C3001FDFF8000000C1003FBFF000000182007F7FE00000030400FEFFC00000060801FDFF8000000C1003FBFF00000018200000000000000681FA0B0000001820100E000186003FBFF000000182007F7FE000
310
00030400FEFFC00000060801FDFF8000000C1003FBFF000000182007F7FE000000304000AD7A3703D0AC73F4160000003040201C00030C007F7FE00000030400FEFFC00000060801FDFF8000000C1003FBFF000000182007F7FE00000030400FEFFC000000608000
340
16
340
16
340
16
 94
        0
  0
XRECORD
  5
300
102
{ACAD_REACTORS
330
2FF
102
}
330
2FF
100
AcDbXrecord
340
17C
  0
XRECORD
  5
301
102
{ACAD_REACTORS
330
2FF
102
}
330
2FF
100
AcDbXrecord
340
17B
  0
DICTIONARYVAR
  5
18D
102
{ACAD_REACTORS
330
CE
102
}
330
CE
100
DictionaryVariables
280
     0
  1
STANDARD
  0
DICTIONARYVAR
  5
2FE
102
{ACAD_REACTORS
330
CE
102
}
330
CE
100
DictionaryVariables
280
     0
  1
0
  0
DICTIONARY
  5
302
330
13
100
AcDbDictionary
280
     1
281
     1
  3
ACAD_XREC_ROUNDTRIP
360
303
  0
DICTIONARY
  5
304
330
C
100
AcDbDictionary
280
     1
281
     1
  3
ACAD_XREC_ROUNDTRIP
360
305
  0
XRECORD
  5
303
102
{ACAD_REACTORS
330
302
102
}
330
302
100
AcDbXrecord
102
SHADEPLOT
 70
     0
102
SHADEPLOTRESLEVEL
 70
     2
102
SHADEPLOTCUSTOMDPI
 70
   300
  0
XRECORD
  5
305
102
{ACAD_REACTORS
330
304
102
}
330
304
100
AcDbXrecord
102
SHADEPLOT
 70
     0
102
SHADEPLOTRESLEVEL
 70
     2
102
SHADEPLOTCUSTOMDPI
 70
   300
  0
ENDSEC
  0
EOF
