  0
SECTION
  2
HEADER
  9
$ACADVER
  1
AC1015
  9
$ACADMAINTVER
 70
     6
  9
$DWGCODEPAGE
  3
ANSI_1252
  9
$INSBASE
 10
0.0
 20
0.0
 30
0.0
  9
$EXTMIN
 10
-9.438576895296411
 20
-0.0204929772175004
 30
0.0
  9
$EXTMAX
 10
21.00000000381196
 20
20.3901352807343
 30
0.0
  9
$LIMMIN
 10
0.0
 20
0.0
  9
$LIMMAX
 10
21.0
 20
16.0
  9
$ORTHOMODE
 70
     1
  9
$REGENMODE
 70
     1
  9
$FILLMODE
 70
     1
  9
$QTEXTMODE
 70
     0
  9
$MIRRTEXT
 70
     0
  9
$LTSCALE
 40
0.5
  9
$ATTMODE
 70
     1
  9
$TEXTSIZE
 40
0.18
  9
$TRACEWID
 40
0.05
  9
$TEXTSTYLE
  7
STANDARD
  9
$CLAYER
  8
0
  9
$CELTYPE
  6
ByLayer
  9
$CECOLOR
 62
   256
  9
$CELTSCALE
 40
1.0
  9
$DISPSILH
 70
     0
  9
$DIMSCALE
 40
2.0
  9
$DIMASZ
 40
0.125
  9
$DIMEXO
 40
0.0625
  9
$DIMDLI
 40
0.375
  9
$DIMRND
 40
0.0
  9
$DIMDLE
 40
0.0
  9
$DIMEXE
 40
0.08
  9
$DIMTP
 40
0.0
  9
$DIMTM
 40
0.0
  9
$DIMTXT
 40
0.09
  9
$DIMCEN
 40
0.0
  9
$DIMTSZ
 40
0.0
  9
$DIMTOL
 70
     0
  9
$DIMLIM
 70
     0
  9
$DIMTIH
 70
     1
  9
$DIMTOH
 70
     1
  9
$DIMSE1
 70
     0
  9
$DIMSE2
 70
     0
  9
$DIMTAD
 70
     0
  9
$DIMZIN
 70
     0
  9
$DIMBLK
  1

  9
$DIMASO
 70
     0
  9
$DIMSHO
 70
     0
  9
$DIMPOST
  1

  9
$DIMAPOST
  1

  9
$DIMALT
 70
     0
  9
$DIMALTD
 70
     2
  9
$DIMALTF
 40
25.4
  9
$DIMLFAC
 40
1.0
  9
$DIMTOFL
 70
     0
  9
$DIMTVP
 40
0.0
  9
$DIMTIX
 70
     0
  9
$DIMSOXD
 70
     0
  9
$DIMSAH
 70
     0
  9
$DIMBLK1
  1

  9
$DIMBLK2
  1

  9
$DIMSTYLE
  2
STANDARD
  9
$DIMCLRD
 70
     0
  9
$DIMCLRE
 70
     0
  9
$DIMCLRT
 70
     0
  9
$DIMTFAC
 40
1.0
  9
$DIMGAP
 40
0.09
  9
$DIMJUST
 70
     0
  9
$DIMSD1
 70
     0
  9
$DIMSD2
 70
     0
  9
$DIMTOLJ
 70
     1
  9
$DIMTZIN
 70
     0
  9
$DIMALTZ
 70
     0
  9
$DIMALTTZ
 70
     0
  9
$DIMUPT
 70
     0
  9
$DIMDEC
 70
     5
  9
$DIMTDEC
 70
     5
  9
$DIMALTU
 70
     5
  9
$DIMALTTD
 70
     2
  9
$DIMTXSTY
  7
STANDARD
  9
$DIMAUNIT
 70
     0
  9
$DIMADEC
 70
     0
  9
$DIMALTRND
 40
0.0
  9
$DIMAZIN
 70
     0
  9
$DIMDSEP
 70
    46
  9
$DIMATFIT
 70
     3
  9
$DIMFRAC
 70
     2
  9
$DIMLDRBLK
  1

  9
$DIMLUNIT
 70
     5
  9
$DIMLWD
 70
    -2
  9
$DIMLWE
 70
    -2
  9
$DIMTMOVE
 70
     2
  9
$LUNITS
 70
     5
  9
$LUPREC
 70
     4
  9
$SKETCHINC
 40
0.1
  9
$FILLETRAD
 40
0.0
  9
$AUNITS
 70
     0
  9
$AUPREC
 70
     0
  9
$MENU
  1
acad
  9
$ELEVATION
 40
0.0
  9
$PELEVATION
 40
0.0
  9
$THICKNESS
 40
0.0
  9
$LIMCHECK
 70
     0
  9
$CHAMFERA
 40
0.0
  9
$CHAMFERB
 40
0.0
  9
$CHAMFERC
 40
0.0
  9
$CHAMFERD
 40
0.0
  9
$SKPOLY
 70
     0
  9
$TDCREATE
 40
2450421.004992014
  9
$TDUCREATE
 40
2450421.338325347
  9
$TDUPDATE
 40
2454903.960930822
  9
$TDUUPDATE
 40
2454904.294264155
  9
$TDINDWG
 40
0.7677219444
  9
$TDUSRTIMER
 40
0.7677219444
  9
$USRTIMER
 70
     1
  9
$ANGBASE
 50
0.0
  9
$ANGDIR
 70
     0
  9
$PDMODE
 70
     0
  9
$PDSIZE
 40
0.0
  9
$PLINEWID
 40
0.0
  9
$SPLFRAME
 70
     0
  9
$SPLINETYPE
 70
     6
  9
$SPLINESEGS
 70
     8
  9
$HANDSEED
  5
4A05
  9
$SURFTAB1
 70
     6
  9
$SURFTAB2
 70
     6
  9
$SURFTYPE
 70
     6
  9
$SURFU
 70
     6
  9
$SURFV
 70
     6
  9
$UCSBASE
  2

  9
$UCSNAME
  2

  9
$UCSORG
 10
0.0
 20
0.0
 30
0.0
  9
$UCSXDIR
 10
1.0
 20
0.0
 30
0.0
  9
$UCSYDIR
 10
0.0
 20
1.0
 30
0.0
  9
$UCSORTHOREF
  2

  9
$UCSORTHOVIEW
 70
     0
  9
$UCSORGTOP
 10
0.0
 20
0.0
 30
0.0
  9
$UCSORGBOTTOM
 10
0.0
 20
0.0
 30
0.0
  9
$UCSORGLEFT
 10
0.0
 20
0.0
 30
0.0
  9
$UCSORGRIGHT
 10
0.0
 20
0.0
 30
0.0
  9
$UCSORGFRONT
 10
0.0
 20
0.0
 30
0.0
  9
$UCSORGBACK
 10
0.0
 20
0.0
 30
0.0
  9
$PUCSBASE
  2

  9
$PUCSNAME
  2

  9
$PUCSORG
 10
0.0
 20
0.0
 30
0.0
  9
$PUCSXDIR
 10
1.0
 20
0.0
 30
0.0
  9
$PUCSYDIR
 10
0.0
 20
1.0
 30
0.0
  9
$PUCSORTHOREF
  2

  9
$PUCSORTHOVIEW
 70
     0
  9
$PUCSORGTOP
 10
0.0
 20
0.0
 30
0.0
  9
$PUCSORGBOTTOM
 10
0.0
 20
0.0
 30
0.0
  9
$PUCSORGLEFT
 10
0.0
 20
0.0
 30
0.0
  9
$PUCSORGRIGHT
 10
0.0
 20
0.0
 30
0.0
  9
$PUCSORGFRONT
 10
0.0
 20
0.0
 30
0.0
  9
$PUCSORGBACK
 10
0.0
 20
0.0
 30
0.0
  9
$USERI1
 70
     0
  9
$USERI2
 70
     0
  9
$USERI3
 70
     0
  9
$USERI4
 70
     0
  9
$USERI5
 70
     0
  9
$USERR1
 40
0.0
  9
$USERR2
 40
0.0
  9
$USERR3
 40
0.0
  9
$USERR4
 40
0.0
  9
$USERR5
 40
0.0
  9
$WORLDVIEW
 70
     1
  9
$SHADEDGE
 70
     3
  9
$SHADEDIF
 70
    70
  9
$TILEMODE
 70
     1
  9
$MAXACTVP
 70
    16
  9
$PINSBASE
 10
0.0
 20
0.0
 30
0.0
  9
$PLIMCHECK
 70
     0
  9
$PEXTMIN
 10
1.000000000000000E+20
 20
1.000000000000000E+20
 30
1.000000000000000E+20
  9
$PEXTMAX
 10
-1.000000000000000E+20
 20
-1.000000000000000E+20
 30
-1.000000000000000E+20
  9
$PLIMMIN
 10
0.0
 20
0.0
  9
$PLIMMAX
 10
12.0
 20
9.0
  9
$UNITMODE
 70
     0
  9
$VISRETAIN
 70
     0
  9
$PLINEGEN
 70
     0
  9
$PSLTSCALE
 70
     0
  9
$TREEDEPTH
 70
  3020
  9
$CMLSTYLE
  2
Standard
  9
$CMLJUST
 70
     0
  9
$CMLSCALE
 40
1.0
  9
$PROXYGRAPHICS
 70
     1
  9
$MEASUREMENT
 70
     0
  9
$CELWEIGHT
370
    -1
  9
$ENDCAPS
280
     0
  9
$JOINSTYLE
280
     0
  9
$LWDISPLAY
290
     0
  9
$INSUNITS
 70
     0
  9
$HYPERLINKBASE
  1

  9
$STYLESHEET
  1
monochrome.ctb
  9
$XEDIT
290
     1
  9
$CEPSNTYPE
380
     0
  9
$PSTYLEMODE
290
     1
  9
$FINGERPRINTGUID
  2
{5B022780-5DC1-4298-BE78-F452C654DCDD}
  9
$VERSIONGUID
  2
{BF8126E6-D3C8-4DFF-A321-A76106BF310E}
  9
$EXTNAMES
290
     1
  9
$PSVPSCALE
 40
0.0
  9
$OLESTARTUP
290
     0
  0
ENDSEC
  0
SECTION
  2
CLASSES
  0
CLASS
  1
ACDBDICTIONARYWDFLT
  2
AcDbDictionaryWithDefault
  3
AutoCAD 2000
 90
        0
280
     0
281
     0
  0
CLASS
  1
ACDBPLACEHOLDER
  2
AcDbPlaceHolder
  3
ObjectDBX Classes
 90
        0
280
     0
281
     0
  0
CLASS
  1
LAYOUT
  2
AcDbLayout
  3
ObjectDBX Classes
 90
        0
280
     0
281
     0
  0
CLASS
  1
DICTIONARYVAR
  2
AcDbDictionaryVar
  3
AutoCAD 2000
 90
        0
280
     0
281
     0
  0
CLASS
  1
LONG_TRANSACTION
  2
AcDbLongTransaction
  3
ObjectDBX Classes
 90
   -65536
280
     1
281
     0
  0
CLASS
  1
LWPOLYLINE
  2
AcDbPolyline
  3
AutoCAD 2000
 90
        0
280
     0
281
     1
  0
CLASS
  1
HATCH
  2
AcDbHatch
  3
AutoCAD 2000
 90
        0
280
     0
281
     1
  0
CLASS
  1
XRECORD
  2
AcDbXrecord
  3
AutoCAD 2000
 90
        0
280
     0
281
     0
  0
CLASS
  1
LONG_TRANSACTION
  2
AcDbLongTransaction
  3
ObjectDBX Classes
 90
   -65536
280
     1
281
     0
  0
CLASS
  1
LWPOLYLINE
  2
AcDbPolyline
  3
AutoCAD 2000
 90
        0
280
     0
281
     1
  0
CLASS
  1
HATCH
  2
AcDbHatch
  3
AutoCAD 2000
 90
        0
280
     0
281
     1
  0
CLASS
  1
XRECORD
  2
AcDbXrecord
  3
AutoCAD 2000
 90
        0
280
     0
281
     0
  0
CLASS
  1
TABLESTYLE
  2
AcDbTableStyle
  3
ObjectDBX Classes
 90
     2047
280
     1
281
     0
  0
CLASS
  1
SORTENTSTABLE
  2
AcDbSortentsTable
  3
AutoCAD 2000
 90
        0
280
     0
281
     0
  0
CLASS
  1
DIMASSOC
  2
AcDbDimAssoc
  3
"AcDbDimAssoc|Product Desc:     AcDim ARX App For Dimension|Company:          Autodesk, Inc.|WEB Address:      www.autodesk.com"
 90
        0
280
     0
281
     0
  0
ENDSEC
  0
SECTION
  2
TABLES
  0
TABLE
  2
VPORT
  5
8E6
330
0
100
AcDbSymbolTable
 70
     6
  0
VPORT
  5
49F6
330
8E6
100
AcDbSymbolTableRecord
100
AcDbViewportTableRecord
  2
*Active
 70
     0
 10
0.0
 20
0.0
 11
1.0
 21
1.0
 12
2.211464370836421
 22
5.02552088285087
 13
0.0
 23
0.0
 14
0.063
 24
0.063
 15
0.25
 25
0.25
 16
0.0
 26
0.0
 36
1.0
 17
0.0
 27
0.0
 37
0.0
 40
17.6852071329966
 41
1.703065134099617
 42
50.0
 43
0.0
 44
0.0
 50
0.0
 51
0.0
 71
     0
 72
   100
 73
     1
 74
     0
 75
     0
 76
     0
 77
     0
 78
     0
281
     0
 65
     1
110
0.0
120
0.0
130
0.0
111
1.0
121
0.0
131
0.0
112
0.0
122
1.0
132
0.0
 79
     0
146
0.0
  0
ENDTAB
  0
TABLE
  2
LTYPE
  5
8E3
330
0
100
AcDbSymbolTable
 70
     4
  0
LTYPE
  5
8F1
330
8E3
100
AcDbSymbolTableRecord
100
AcDbLinetypeTableRecord
  2
ByBlock
 70
     0
  3

 72
    65
 73
     0
 40
0.0
  0
LTYPE
  5
8F2
330
8E3
100
AcDbSymbolTableRecord
100
AcDbLinetypeTableRecord
  2
ByLayer
 70
     0
  3

 72
    65
 73
     0
 40
0.0
  0
LTYPE
  5
8F3
330
8E3
100
AcDbSymbolTableRecord
100
AcDbLinetypeTableRecord
  2
CONTINUOUS
 70
     0
  3
Solid line
 72
    65
 73
     0
 40
0.0
  0
LTYPE
  5
3087
330
8E3
100
AcDbSymbolTableRecord
100
AcDbLinetypeTableRecord
  2
HIDDEN
 70
     0
  3
__ __ __ __ __ __ __ __ __ __ __ __ __ __ __ __
 72
    65
 73
     2
 40
0.375
 49
0.25
 74
     0
 49
-0.125
 74
     0
  0
LTYPE
  5
32D3
330
8E3
100
AcDbSymbolTableRecord
100
AcDbLinetypeTableRecord
  2
THD
 70
     0
  3
_ _ _ _ _ _ _ _ _ _ _ _ _ _ _ _ _ _ _ _ _ _ _ _
 72
    65
 73
     2
 40
0.15
 49
0.11
 74
     0
 49
-0.04
 74
     0
  0
ENDTAB
  0
TABLE
  2
LAYER
  5
8E0
102
{ACAD_XDICTIONARY
360
AF5
102
}
330
0
100
AcDbSymbolTable
 70
    11
  0
LAYER
  5
8EE
330
8E0
100
AcDbSymbolTableRecord
100
AcDbLayerTableRecord
  2
0
 70
     0
 62
     7
  6
CONTINUOUS
370
    -3
390
8ED
  0
LAYER
  5
922
330
8E0
100
AcDbSymbolTableRecord
100
AcDbLayerTableRecord
  2
NOTE
 70
     0
 62
     1
  6
CONTINUOUS
370
    -3
390
8ED
  0
LAYER
  5
926
330
8E0
100
AcDbSymbolTableRecord
100
AcDbLayerTableRecord
  2
REV
 70
     0
 62
     1
  6
CONTINUOUS
370
    -3
390
8ED
  0
LAYER
  5
927
330
8E0
100
AcDbSymbolTableRecord
100
AcDbLayerTableRecord
  2
DIM
 70
     0
 62
     5
  6
CONTINUOUS
370
    -3
390
8ED
  0
LAYER
  5
BE3
330
8E0
100
AcDbSymbolTableRecord
100
AcDbLayerTableRecord
  2
Defpoints
 70
     0
 62
     7
  6
CONTINUOUS
290
     0
370
    -3
390
8ED
  0
LAYER
  5
3088
330
8E0
100
AcDbSymbolTableRecord
100
AcDbLayerTableRecord
  2
HIDDEN
 70
     0
 62
   253
  6
HIDDEN
370
    -3
390
8ED
  0
ENDTAB
  0
TABLE
  2
STYLE
  5
8E1
330
0
100
AcDbSymbolTable
 70
     3
  0
STYLE
  5
8EF
330
8E1
100
AcDbSymbolTableRecord
100
AcDbTextStyleTableRecord
  2
STANDARD
 70
     0
 40
0.0
 41
1.0
 50
0.0
 71
     0
 42
0.18
  3
TXT
  4

  0
ENDTAB
  0
TABLE
  2
VIEW
  5
8E4
330
0
100
AcDbSymbolTable
 70
     0
  0
ENDTAB
  0
TABLE
  2
UCS
  5
8E5
330
0
100
AcDbSymbolTable
 70
     0
  0
ENDTAB
  0
TABLE
  2
APPID
  5
8E7
330
0
100
AcDbSymbolTable
 70
     7
  0
APPID
  5
8F0
330
8E7
100
AcDbSymbolTableRecord
100
AcDbRegAppTableRecord
  2
ACAD
 70
     0
  0
APPID
  5
AF4
330
8E7
100
AcDbSymbolTableRecord
100
AcDbRegAppTableRecord
  2
ACAD_PSEXT
 70
     0
  0
APPID
  5
BA1
330
8E7
100
AcDbSymbolTableRecord
100
AcDbRegAppTableRecord
  2
ACAD_DSTYLE_DIMTEXT_FILL
 70
     0
  0
APPID
  5
D77
330
8E7
100
AcDbSymbolTableRecord
100
AcDbRegAppTableRecord
  2
CONTENTBLOCKICON
 70
     0
  0
APPID
  5
E12
330
8E7
100
AcDbSymbolTableRecord
100
AcDbRegAppTableRecord
  2
RAK
 70
     0
  0
APPID
  5
1013
330
8E7
100
AcDbSymbolTableRecord
100
AcDbRegAppTableRecord
  2
DCO15
 70
     0
  0
APPID
  5
3FD8
330
8E7
100
AcDbSymbolTableRecord
100
AcDbRegAppTableRecord
  2
AcAecLayerStandard
 70
     0
  0
ENDTAB
  0
TABLE
  2
DIMSTYLE
  5
8E8
330
0
100
AcDbSymbolTable
 70
     1
100
AcDbDimStyleTable
  0
DIMSTYLE
105
921
330
8E8
100
AcDbSymbolTableRecord
100
AcDbDimStyleTableRecord
  2
STANDARD
 70
     0
  3

  4

273
     5
277
     5
279
     2
340
8EF
  0
ENDTAB
  0
TABLE
  2
BLOCK_RECORD
  5
8DF
330
0
100
AcDbSymbolTable
 70
    33
  0
BLOCK_RECORD
  5
8FC
102
{ACAD_XDICTIONARY
360
9D1
102
}
330
8DF
100
AcDbSymbolTableRecord
100
AcDbBlockTableRecord
  2
*Model_Space
340
8FF
  0
BLOCK_RECORD
  5
8F8
330
8DF
100
AcDbSymbolTableRecord
100
AcDbBlockTableRecord
  2
*Paper_Space
340
8FB
  0
ENDTAB
  0
ENDSEC
  0
SECTION
  2
BLOCKS
  0
BLOCK
  5
934
330
8FC
100
AcDbEntity
  8
0
100
AcDbBlockBegin
  2
*Model_Space
 70
     0
 10
0.0
 20
0.0
 30
0.0
  3
*Model_Space
  1

  4

  0
ENDBLK
  5
935
330
8FC
100
AcDbEntity
  8
0
100
AcDbBlockEnd
  0
BLOCK
  5
932
330
8F8
100
AcDbEntity
 67
     1
  8
0
100
AcDbBlockBegin
  2
*Paper_Space
 70
     0
 10
0.0
 20
0.0
 30
0.0
  3
*Paper_Space
  1

  4

  0
ENDBLK
  5
933
330
8F8
100
AcDbEntity
 67
     1
  8
0
100
AcDbBlockEnd
  0
ENDSEC
  0
SECTION
  2
ENTITIES
  0
TEXT
  5
7BA
330
8FC
100
AcDbEntity
  8
REV
100
AcDbText
 10
18.25397542389433
 20
3.304653984161741
 30
0.0
 40
0.18
  1

 72
     1
 11
18.25397542389433
 21
3.304653984161741
 31
0.0
100
AcDbText
  0
TEXT
  5
7E2
330
8FC
100
AcDbEntity
  8
0
100
AcDbText
 10
18.18680334740978
 20
3.62562029176133
 30
0.0
 40
0.18
  1
 
 72
     1
 11
18.27680334740978
 21
3.62562029176133
 31
0.0
100
AcDbText
  0
TEXT
  5
7F9
330
8FC
100
AcDbEntity
  8
NOTE
100
AcDbText
 10
6.925169872834906
 20
4.93770488800903
 30
0.0
 40
0.18
  1

 72
     4
 11
6.925169872834906
 21
4.93770488800903
 31
0.0
100
AcDbText
  0
LINE
  5
33D2
330
8FC
100
AcDbEntity
  8
0
  6
HIDDEN
 62
     8
100
AcDbLine
 10
4.766708677358679
 20
2.056000000000001
 30
0.0
 11
2.764845602889707
 21
2.056000000000001
 31
0.0
  0
LINE
  5
33D3
330
8FC
100
AcDbEntity
  8
0
  6
HIDDEN
 62
     8
100
AcDbLine
 10
-0.442721027241987
 20
2.056000000000005
 30
0.0
 11
-2.843024550856033
 21
2.056000000000005
 31
0.0
  0
LINE
  5
33D4
330
8FC
100
AcDbEntity
  8
0
100
AcDbLine
 10
-3.475657936748679
 20
2.055999999999997
 30
0.0
 11
-3.475657936748679
 21
2.011000000000003
 31
0.0
  0
LINE
  5
33D5
330
8FC
100
AcDbEntity
  8
0
100
AcDbLine
 10
5.399342063251325
 20
2.010999999999999
 30
0.0
 11
5.399342063251325
 21
2.055999999999997
 31
0.0
  0
LINE
  5
33D6
330
8FC
100
AcDbEntity
  8
0
100
AcDbLine
 10
5.399342063251325
 20
2.010999999999999
 30
0.0
 11
2.752787889230305
 21
2.010999999999999
 31
0.0
  0
LINE
  5
33D7
330
8FC
100
AcDbEntity
  8
0
100
AcDbLine
 10
-0.4547787409013893
 20
2.011000000000003
 30
0.0
 11
-3.475657936748679
 21
2.011000000000003
 31
0.0
  0
LINE
  5
33D8
330
8FC
100
AcDbEntity
  8
0
100
AcDbLine
 10
4.766708677358679
 20
2.056000000000001
 30
0.0
 11
5.399342063251325
 21
2.055999999999997
 31
0.0
  0
LINE
  5
33D9
330
8FC
100
AcDbEntity
  8
0
100
AcDbLine
 10
-2.843024550856033
 20
2.056000000000005
 30
0.0
 11
-3.475657936748679
 21
2.055999999999997
 31
0.0
  0
LINE
  5
3401
330
8FC
100
AcDbEntity
  8
0
100
AcDbLine
 10
2.993325970351322
 20
2.010999999999999
 30
0.0
 11
3.10538984553088
 21
2.199871793302517
 31
0.0
  0
LINE
  5
3402
330
8FC
100
AcDbEntity
  8
0
100
AcDbLine
 10
3.305358156151328
 20
2.010999999999999
 30
0.0
 11
3.19329428097177
 21
2.199871793302517
 31
0.0
  0
ARC
  5
3403
330
8FC
100
AcDbEntity
  8
0
100
AcDbCircle
 10
3.149342063251325
 20
2.173793490373505
 30
0.0
 40
0.0511065096264946
100
AcDbArc
 50
30.68205618136283
 51
149.3179438186372
  0
LINE
  5
3404
330
8FC
100
AcDbEntity
  8
0
100
AcDbLine
 10
3.618325970351322
 20
2.010999999999999
 30
0.0
 11
3.73038984553088
 21
2.199871793302517
 31
0.0
  0
LINE
  5
3405
330
8FC
100
AcDbEntity
  8
0
100
AcDbLine
 10
3.930358156151328
 20
2.010999999999999
 30
0.0
 11
3.81829428097177
 21
2.199871793302517
 31
0.0
  0
ARC
  5
3406
330
8FC
100
AcDbEntity
  8
0
100
AcDbCircle
 10
3.774342063251325
 20
2.173793490373505
 30
0.0
 40
0.0511065096264946
100
AcDbArc
 50
30.68205618136283
 51
149.3179438186372
  0
LINE
  5
3407
330
8FC
100
AcDbEntity
  8
0
100
AcDbLine
 10
4.243325970351322
 20
2.010999999999999
 30
0.0
 11
4.35538984553088
 21
2.199871793302517
 31
0.0
  0
LINE
  5
3408
330
8FC
100
AcDbEntity
  8
0
100
AcDbLine
 10
4.555358156151328
 20
2.010999999999999
 30
0.0
 11
4.44329428097177
 21
2.199871793302517
 31
0.0
  0
ARC
  5
3409
330
8FC
100
AcDbEntity
  8
0
100
AcDbCircle
 10
4.399342063251325
 20
2.173793490373505
 30
0.0
 40
0.0511065096264946
100
AcDbArc
 50
30.68205618136283
 51
149.3179438186372
  0
LINE
  5
340A
330
8FC
100
AcDbEntity
  8
0
100
AcDbLine
 10
-1.069641843848686
 20
2.010999999999999
 30
0.0
 11
-1.18170571902823
 21
2.199871793302521
 31
0.0
  0
LINE
  5
340B
330
8FC
100
AcDbEntity
  8
0
100
AcDbLine
 10
-1.381674029648679
 20
2.010999999999999
 30
0.0
 11
-1.269610154469135
 21
2.199871793302521
 31
0.0
  0
ARC
  5
340C
330
8FC
100
AcDbEntity
  8
0
100
AcDbCircle
 10
-1.225657936748689
 20
2.173793490373509
 30
0.0
 40
0.0511065096264946
100
AcDbArc
 50
30.68205618136283
 51
149.3179438186372
  0
LINE
  5
340D
330
8FC
100
AcDbEntity
  8
0
100
AcDbLine
 10
-1.694641843848686
 20
2.010999999999999
 30
0.0
 11
-1.80670571902823
 21
2.199871793302521
 31
0.0
  0
LINE
  5
340E
330
8FC
100
AcDbEntity
  8
0
100
AcDbLine
 10
-2.006674029648679
 20
2.010999999999999
 30
0.0
 11
-1.894610154469135
 21
2.199871793302521
 31
0.0
  0
ARC
  5
340F
330
8FC
100
AcDbEntity
  8
0
100
AcDbCircle
 10
-1.850657936748689
 20
2.173793490373509
 30
0.0
 40
0.0511065096264946
100
AcDbArc
 50
30.68205618136283
 51
149.3179438186372
  0
LINE
  5
3410
330
8FC
100
AcDbEntity
  8
0
100
AcDbLine
 10
-2.319641843848682
 20
2.010999999999999
 30
0.0
 11
-2.431705719028233
 21
2.199871793302521
 31
0.0
  0
LINE
  5
3411
330
8FC
100
AcDbEntity
  8
0
100
AcDbLine
 10
-2.631674029648682
 20
2.010999999999999
 30
0.0
 11
-2.519610154469138
 21
2.199871793302521
 31
0.0
  0
ARC
  5
3412
330
8FC
100
AcDbEntity
  8
0
100
AcDbCircle
 10
-2.475657936748693
 20
2.173793490373509
 30
0.0
 40
0.0511065096264946
100
AcDbArc
 50
30.68205618136283
 51
149.3179438186372
  0
LINE
  5
3494
330
8FC
100
AcDbEntity
  8
0
100
AcDbLine
 10
4.591162673993892
 20
4.062499999999996
 30
0.0
 11
-2.667478547491253
 21
4.0625
 31
0.0
  0
LINE
  5
3496
330
8FC
100
AcDbEntity
  8
0
100
AcDbLine
 10
1.774342063251325
 20
2.124999999999996
 30
0.0
 11
1.774342063251325
 21
0.0
 31
0.0
  0
LINE
  5
3497
330
8FC
100
AcDbEntity
  8
0
100
AcDbLine
 10
1.729342063251323
 20
2.124999999999996
 30
0.0
 11
1.729342063251323
 21
0.0
 31
0.0
  0
LINE
  5
34A0
330
8FC
100
AcDbEntity
  8
0
100
AcDbLine
 10
-2.846961540714698
 20
2.010999999999999
 30
0.0
 11
-2.667478547491253
 21
4.0625
 31
0.0
  0
CIRCLE
  5
34A1
330
8FC
100
AcDbEntity
  8
0
100
AcDbCircle
 10
3.336842063251311
 20
3.562500000000004
 30
0.0
 40
0.0855
  0
CIRCLE
  5
34A2
330
8FC
100
AcDbEntity
  8
0
100
AcDbCircle
 10
4.086842063251311
 20
3.0625
 30
0.0
 40
0.0855
  0
CIRCLE
  5
34A3
330
8FC
100
AcDbEntity
  8
0
100
AcDbCircle
 10
2.586842063251311
 20
2.687500000000004
 30
0.0
 40
0.0855
  0
LINE
  5
34A4
330
8FC
100
AcDbEntity
  8
0
100
AcDbLine
 10
1.729342063251323
 20
0.0
 30
0.0
 11
2.118026189753948
 21
0.0
 31
0.0
  0
ARC
  5
34A5
330
8FC
100
AcDbEntity
  8
0
100
AcDbCircle
 10
2.118026189753948
 20
0.1249999999999965
 30
0.0
 40
0.125
100
AcDbArc
 50
270.0
 51
344.9999999999999
  0
LINE
  5
34A6
330
8FC
100
AcDbEntity
  8
0
100
AcDbLine
 10
1.211842063251325
 20
2.624999999999993
 30
0.0
 11
-0.1943420632513124
 21
2.625
 31
0.0
  0
LINE
  5
34A7
330
8FC
100
AcDbEntity
  8
0
100
AcDbLine
 10
-0.4547787409013893
 20
2.011000000000003
 30
0.0
 11
-0.315082791537435
 21
2.532352380637814
 31
0.0
  0
ARC
  5
34A8
330
8FC
100
AcDbEntity
  8
0
100
AcDbCircle
 10
-0.1943420632513124
 20
2.5
 30
0.0
 40
0.125
100
AcDbArc
 50
90.0
 51
164.9999999999998
  0
ARC
  5
34A9
330
8FC
100
AcDbEntity
  8
0
100
AcDbCircle
 10
1.274342063251311
 20
2.125
 30
0.0
 40
0.5
100
AcDbArc
 50
0.0
 51
90.0
  0
LINE
  5
34AA
330
8FC
100
AcDbEntity
  8
0
  6
THD
100
AcDbLine
 10
1.274342063251325
 20
2.624999999999996
 30
0.0
 11
1.211842063251325
 21
2.624999999999996
 31
0.0
  0
LINE
  5
34AB
330
8FC
100
AcDbEntity
  8
0
100
AcDbLine
 10
4.770645667217352
 20
2.010999999999999
 30
0.0
 11
4.591162673993892
 21
4.062499999999996
 31
0.0
  0
ARC
  5
34AC
330
8FC
100
AcDbEntity
  8
0
100
AcDbCircle
 10
1.22934617907616
 20
2.127028745400605
 30
0.0
 40
0.5
100
AcDbArc
 50
359.7675222637853
 51
84.83686646958195
  0
LINE
  5
34AD
330
8FC
100
AcDbEntity
  8
0
  6
HIDDEN
 62
     8
100
AcDbLine
 10
0.1493420632513249
 20
2.124999999999996
 30
0.0
 11
0.1493420632513107
 21
0.0
 31
0.0
  0
LINE
  5
34AE
330
8FC
100
AcDbEntity
  8
0
100
AcDbLine
 10
0.1943420632513266
 20
2.124999999999996
 30
0.0
 11
0.1943420632513124
 21
0.0
 31
0.0
  0
LINE
  5
34AF
330
8FC
100
AcDbEntity
  8
0
100
AcDbLine
 10
0.1943420632513124
 20
0.0
 30
0.0
 11
-0.1943420632513124
 21
0.0
 31
0.0
  0
ARC
  5
34B0
330
8FC
100
AcDbEntity
  8
0
100
AcDbCircle
 10
-0.1943420632513266
 20
0.125
 30
0.0
 40
0.125
100
AcDbArc
 50
195.0
 51
270.0
  0
LINE
  5
34B1
330
8FC
100
AcDbEntity
  8
0
100
AcDbLine
 10
-0.3150827915374492
 20
0.0926476193621824
 30
0.0
 11
-0.8291037627276694
 21
2.011000000000003
 31
0.0
  0
ARC
  5
34B2
330
8FC
100
AcDbEntity
  8
0
  6
HIDDEN
 62
     8
100
AcDbCircle
 10
0.6493420632513107
 20
2.125
 30
0.0
 40
0.5
100
AcDbArc
 50
90.0
 51
180.0
  0
ARC
  5
34B3
330
8FC
100
AcDbEntity
  8
0
100
AcDbCircle
 10
0.6943379474264759
 20
2.127028745400605
 30
0.0
 40
0.5
100
AcDbArc
 50
95.16313353041805
 51
180.2324777362147
  0
LINE
  5
34B6
330
8FC
100
AcDbEntity
  8
0
100
AcDbLine
 10
2.238766918040085
 20
0.0926476193621824
 30
0.0
 11
2.764845602889707
 21
2.056000000000001
 31
0.0
  0
LINE
  5
34BD
330
8FC
100
AcDbEntity
  8
0
100
AcDbLine
 10
0.961817063251317
 20
3.671899999999997
 30
0.0
 11
-1.225632936748681
 21
3.671899999999994
 31
0.0
  0
LINE
  5
34BE
330
8FC
100
AcDbEntity
  8
0
100
AcDbLine
 10
0.961817063251317
 20
3.078099999999989
 30
0.0
 11
-1.225632936748681
 21
3.078099999999989
 31
0.0
  0
LINE
  5
34BF
330
8FC
100
AcDbEntity
  8
0
  6
THD
100
AcDbLine
 10
0.9180670632513142
 20
3.671899999999997
 30
0.0
 11
0.9180670632513142
 21
3.078099999999989
 31
0.0
  0
LINE
  5
34C0
330
8FC
100
AcDbEntity
  8
0
  6
THD
100
AcDbLine
 10
-1.181882936748686
 20
3.078099999999989
 30
0.0
 11
-1.181882936748686
 21
3.671899999999994
 31
0.0
  0
ARC
  5
34C1
330
8FC
100
AcDbEntity
  8
0
100
AcDbCircle
 10
0.2118420632513178
 20
3.374999999999993
 30
0.0
 40
0.0855
100
AcDbArc
 50
270.0
 51
90.0
  0
ARC
  5
34C2
330
8FC
100
AcDbEntity
  8
0
100
AcDbCircle
 10
-0.4756579367486822
 20
3.374999999999993
 30
0.0
 40
0.0855
100
AcDbArc
 50
90.0
 51
270.0
  0
LINE
  5
34C3
330
8FC
100
AcDbEntity
  8
0
100
AcDbLine
 10
-0.4756579367486822
 20
3.460499999999993
 30
0.0
 11
0.2118420632513178
 21
3.460499999999993
 31
0.0
  0
LINE
  5
34C4
330
8FC
100
AcDbEntity
  8
0
100
AcDbLine
 10
-0.4756579367486822
 20
3.289499999999993
 30
0.0
 11
0.2118420632513178
 21
3.289499999999993
 31
0.0
  0
LINE
  5
36F9
330
8FC
100
AcDbEntity
  8
0
  6
HIDDEN
 62
     8
100
AcDbLine
 10
-1.53315793674866
 20
3.562500000000004
 30
0.0
 11
-1.293157936748662
 21
3.562500000000004
 31
0.0
  0
LINE
  5
36FA
330
8FC
100
AcDbEntity
  8
0
  6
HIDDEN
 62
     8
100
AcDbLine
 10
-1.413157936748661
 20
3.442500000000004
 30
0.0
 11
-1.413157936748661
 21
3.682500000000003
 31
0.0
  0
LINE
  5
36FB
330
8FC
100
AcDbEntity
  8
0
  6
HIDDEN
 62
     8
100
AcDbLine
 10
-2.28315793674866
 20
3.0625
 30
0.0
 11
-2.043157936748662
 21
3.0625
 31
0.0
  0
LINE
  5
36FC
330
8FC
100
AcDbEntity
  8
0
  6
HIDDEN
 62
     8
100
AcDbLine
 10
-2.163157936748661
 20
2.942500000000001
 30
0.0
 11
-2.163157936748661
 21
3.182499999999999
 31
0.0
  0
LINE
  5
36FD
330
8FC
100
AcDbEntity
  8
0
  6
HIDDEN
 62
     8
100
AcDbLine
 10
-0.7831579367486601
 20
2.687500000000004
 30
0.0
 11
-0.5431579367486616
 21
2.687500000000004
 31
0.0
  0
LINE
  5
36FE
330
8FC
100
AcDbEntity
  8
0
  6
HIDDEN
 62
     8
100
AcDbLine
 10
-0.6631579367486609
 20
2.567500000000004
 30
0.0
 11
-0.6631579367486609
 21
2.807500000000003
 31
0.0
  0
LINE
  5
3703
330
8FC
100
AcDbEntity
  8
0
  6
HIDDEN
 62
     8
100
AcDbLine
 10
0.7118420632513249
 20
2.624999999999993
 30
0.0
 11
2.118026189753962
 21
2.625
 31
0.0
  0
LINE
  5
3704
330
8FC
100
AcDbEntity
  8
0
  6
HIDDEN
 62
     8
100
AcDbLine
 10
2.378462867404039
 20
2.011000000000003
 30
0.0
 11
2.238766918040085
 21
2.532352380637814
 31
0.0
  0
ARC
  5
3705
330
8FC
100
AcDbEntity
  8
0
  6
HIDDEN
 62
     8
100
AcDbCircle
 10
2.118026189753962
 20
2.5
 30
0.0
 40
0.125
100
AcDbArc
 50
15.00000000000019
 51
90.0
  0
LINE
  5
3706
330
8FC
100
AcDbEntity
  8
0
  6
HIDDEN
 62
     8
100
AcDbLine
 10
2.378462867404039
 20
2.011000000000003
 30
0.0
 11
2.752787889230305
 21
2.010999999999999
 31
0.0
  0
LINE
  5
3707
330
8FC
100
AcDbEntity
  8
0
  6
HIDDEN
 62
     8
100
AcDbLine
 10
0.9618670632513329
 20
3.671899999999997
 30
0.0
 11
3.149317063251331
 21
3.671899999999994
 31
0.0
  0
LINE
  5
3708
330
8FC
100
AcDbEntity
  8
0
  6
HIDDEN
 62
     8
100
AcDbLine
 10
0.9618670632513329
 20
3.078099999999989
 30
0.0
 11
3.149317063251331
 21
3.078099999999989
 31
0.0
  0
LINE
  5
3709
330
8FC
100
AcDbEntity
  8
0
  6
HIDDEN
 62
     8
100
AcDbLine
 10
1.005617063251336
 20
3.671899999999997
 30
0.0
 11
1.005617063251336
 21
3.078099999999989
 31
0.0
  0
LINE
  5
370A
330
8FC
100
AcDbEntity
  8
0
  6
HIDDEN
 62
     8
100
AcDbLine
 10
3.105567063251336
 20
3.078099999999989
 30
0.0
 11
3.105567063251336
 21
3.671899999999994
 31
0.0
  0
ARC
  5
370B
330
8FC
100
AcDbEntity
  8
0
  6
HIDDEN
 62
     8
100
AcDbCircle
 10
1.711842063251332
 20
3.374999999999993
 30
0.0
 40
0.0855
100
AcDbArc
 50
90.0
 51
270.0
  0
ARC
  5
370C
330
8FC
100
AcDbEntity
  8
0
  6
HIDDEN
 62
     8
100
AcDbCircle
 10
2.399342063251332
 20
3.374999999999993
 30
0.0
 40
0.0855
100
AcDbArc
 50
270.0
 51
90.0
  0
LINE
  5
370D
330
8FC
100
AcDbEntity
  8
0
  6
HIDDEN
 62
     8
100
AcDbLine
 10
2.399342063251332
 20
3.460499999999993
 30
0.0
 11
1.711842063251332
 21
3.460499999999993
 31
0.0
  0
LINE
  5
370E
330
8FC
100
AcDbEntity
  8
0
  6
HIDDEN
 62
     8
100
AcDbLine
 10
2.399342063251332
 20
3.289499999999993
 30
0.0
 11
1.711842063251332
 21
3.289499999999993
 31
0.0
  0
MTEXT
  5
3711
330
8FC
100
AcDbEntity
  8
DIM
100
AcDbMText
 10
15.76220822165131
 20
14.68274520923195
 30
0.0
 40
0.18
 41
2.272299178371839
 71
     1
 72
     1
  1
\A1;
 73
     1
 44
1.0
  0
ENDSEC
  0
SECTION
  2
OBJECTS
  0
DICTIONARY
  5
8EA
330
0
100
AcDbDictionary
281
     1
  3
ACAD_COLOR
350
AE5
  3
ACAD_GROUP
350
8EB
  3
ACAD_LAYOUT
350
8F7
  3
ACAD_MATERIAL
350
AE4
  3
ACAD_MLINESTYLE
350
8F4
  3
ACAD_PLOTSETTINGS
350
8F6
  3
ACAD_PLOTSTYLENAME
350
8EC
  3
ACAD_TABLESTYLE
350
AE6
  3
AcadDim
350
370F
  3
ACDBHEADERROUNDTRIPXREC
350
49FE
  3
AcDbVariableDictionary
350
A04
  3
ASE_INDEX_DICTIONARY
350
49D6
  0
DICTIONARY
  5
AF5
330
8E0
100
AcDbDictionary
280
     1
281
     1
  3
ACAD_LAYERFILTERS
360
436C
  3
ACAD_LAYERSTATES
360
AF6
  3
ACLYDICTIONARY
360
436B
  0
DICTIONARY
  5
9D1
330
8FC
100
AcDbDictionary
280
     1
281
     1
  3
ACAD_SORTENTS
360
104A
  0
DICTIONARY
  5
AE5
102
{ACAD_REACTORS
330
8EA
102
}
330
8EA
100
AcDbDictionary
281
     1
  0
DICTIONARY
  5
8EB
102
{ACAD_REACTORS
330
8EA
102
}
330
8EA
100
AcDbDictionary
281
     1
  0
DICTIONARY
  5
8F7
102
{ACAD_REACTORS
330
8EA
102
}
330
8EA
100
AcDbDictionary
281
     1
  3
Layout1
350
8FB
  3
Model
350
8FF
  0
DICTIONARY
  5
AE4
102
{ACAD_REACTORS
330
8EA
102
}
330
8EA
100
AcDbDictionary
281
     1
  0
DICTIONARY
  5
8F4
102
{ACAD_REACTORS
330
8EA
102
}
330
8EA
100
AcDbDictionary
281
     1
  3
Standard
350
8F5
  0
DICTIONARY
  5
8F6
102
{ACAD_REACTORS
330
8EA
102
}
330
8EA
100
AcDbDictionary
281
     1
  0
ACDBDICTIONARYWDFLT
  5
8EC
102
{ACAD_REACTORS
330
8EA
102
}
330
8EA
100
AcDbDictionary
281
     1
  3
Normal
350
8ED
100
AcDbDictionaryWithDefault
340
8ED
  0
DICTIONARY
  5
AE6
102
{ACAD_REACTORS
330
8EA
102
}
330
8EA
100
AcDbDictionary
281
     1
  3
Standard
350
AE7
  0
XRECORD
  5
370F
102
{ACAD_REACTORS
330
8EA
102
}
330
8EA
100
AcDbXrecord
280
     1
 90
   990106
  3

 60
     0
 61
     0
 62
     1
 63
     3
 64
     0
 65
     0
 66
     0
 67
     3
 68
     1
 69
     0
 70
     0
 71
     0
 72
     0
 40
2.272299178371839
170
     0
340
0
  0
DICTIONARY
  5
49FE
102
{ACAD_REACTORS
330
8EA
102
}
330
8EA
100
AcDbDictionary
281
     1
  3
COLORDICT
350
49FF
  3
MATERIALDICT
350
4A00
  0
DICTIONARY
  5
A04
102
{ACAD_REACTORS
330
8EA
102
}
330
8EA
100
AcDbDictionary
281
     1
  3
CTABLESTYLE
350
B9E
  3
DIMASSOC
350
A06
  3
HIDETEXT
350
A05
  0
DICTIONARY
  5
49D6
102
{ACAD_REACTORS
330
8EA
102
}
330
8EA
100
AcDbDictionary
281
     1
  3
ASEBlockHierarchyIndexRecord
350
49D7
1001
DCO15
1040
1650279520.423
  0
DICTIONARY
  5
436C
102
{ACAD_REACTORS
330
AF5
102
}
330
AF5
100
AcDbDictionary
281
     1
  0
DICTIONARY
  5
AF6
102
{ACAD_REACTORS
330
AF5
102
}
330
AF5
100
AcDbDictionary
281
     1
  0
DICTIONARY
  5
436B
102
{ACAD_REACTORS
330
AF5
102
}
330
AF5
100
AcDbDictionary
281
     1
1001
ACAD
1000
<All
  0
SORTENTSTABLE
  5
104A
102
{ACAD_REACTORS
330
9D1
102
}
330
9D1
100
AcDbSortentsTable
330
8FC
331
0
  5
3708
331
33D9
  5
33D9
331
3411
  5
3411
331
34C2
  5
36FD
331
34BD
  5
34C4
331
3708
  5
3711
331
36F9
  5
3700
331
370C
  5
3788
331
34AD
  5
34B6
331
36FB
  5
3703
331
340F
  5
340F
331
34AB
  5
34B2
331
3405
  5
3405
331
340A
  5
340A
331
3403
  5
3403
331
3408
  5
3408
331
34AA
  5
34B1
331
340B
  5
340B
331
34A0
  5
34A7
331
36FA
  5
3701
331
3409
  5
3409
331
3410
  5
3410
331
34C3
  5
36FE
331
3706
  5
370D
331
3497
  5
34A6
331
3496
  5
34A5
331
3412
  5
3412
331
3704
  5
370B
331
340C
  5
340C
331
34BE
  5
36F9
331
34B6
  5
34BF
331
36FC
  5
3704
331
34A7
  5
34AE
331
3711
  5
3830
331
3406
  5
3406
331
370A
  5
3716
331
3709
  5
3715
331
370D
  5
37D4
331
36FE
  5
3706
331
370B
  5
374A
331
34A9
  5
34B0
331
370E
  5
3816
331
34A6
  5
34AD
331
34AC
  5
34B3
331
3494
  5
34A3
331
34C1
  5
36FC
331
7F9
  5
7F9
331
34C4
  5
36FF
331
34C0
  5
36FB
331
34BF
  5
36FA
331
33D2
  5
33D2
331
33D6
  5
33D6
331
3703
  5
370A
331
3707
  5
370E
331
34A2
  5
34A9
331
34AF
  5
34BA
331
33D4
  5
33D4
331
33D8
  5
33D8
331
3705
  5
370C
331
36FD
  5
3705
331
34A8
  5
34AF
331
33D3
  5
33D3
331
34B3
  5
34BE
331
34AE
  5
34B9
331
3404
  5
3404
331
34A3
  5
34AA
331
34B1
  5
34BC
331
34B2
  5
34BD
331
33D7
  5
33D7
331
34A4
  5
34AB
331
33D5
  5
33D5
331
3402
  5
3402
331
7E2
  5
7E2
331
3401
  5
3401
331
34B0
  5
34BB
331
340E
  5
340E
331
34A5
  5
34AC
331
34A1
  5
34A8
331
340D
  5
340D
331
3407
  5
3407
331
7BA
  5
7BA
  0
LAYOUT
  5
8FB
102
{ACAD_REACTORS
330
8F7
102
}
102
{ACAD_XDICTIONARY
360
4A01
102
}
330
8F7
100
AcDbPlotSettings
  1

  2
hp psc 2100 series
  4

  6

 40
0.0
 41
0.0
 42
0.0
 43
0.0
 44
0.0
 45
0.0
 46
0.0
 47
0.0
 48
0.0
 49
0.0
140
0.0
141
0.0
142
1.0
143
1.0
 70
   688
 72
     0
 73
     0
 74
     5
  7
monochrome.ctb
 75
    16
147
1.0
148
0.0
149
0.0
100
AcDbLayout
  1
Layout1
 70
     0
 71
     1
 10
0.0
 20
0.0
 11
12.0
 21
9.0
 12
0.0
 22
0.0
 32
0.0
 14
1.000000000000000E+20
 24
1.000000000000000E+20
 34
1.000000000000000E+20
 15
-1.000000000000000E+20
 25
-1.000000000000000E+20
 35
-1.000000000000000E+20
146
0.0
 13
0.0
 23
0.0
 33
0.0
 16
1.0
 26
0.0
 36
0.0
 17
0.0
 27
1.0
 37
0.0
 76
     0
330
8F8
  0
LAYOUT
  5
8FF
102
{ACAD_REACTORS
330
8F7
102
}
102
{ACAD_XDICTIONARY
360
4A03
102
}
330
8F7
100
AcDbPlotSettings
  1

  2
HP LaserJet 2100 Series PS
  4
Letter
  6

 40
5.365749835968018
 41
5.408073902130127
 42
5.132904052734375
 43
5.090576171875
 44
215.8999938964844
 45
279.3999938964844
 46
0.0
 47
0.0
 48
0.0
 49
0.0
140
0.0
141
0.0
142
1.0
143
1.983627126654061
 70
 28336
 72
     0
 73
     1
 74
     2
  7
monochrome.ctb
 75
     0
147
0.5041270037916745
148
0.0
149
0.0
100
AcDbLayout
  1
Model
 70
     1
 71
     0
 10
0.0
 20
0.0
 11
12.0
 21
9.0
 12
0.0
 22
0.0
 32
0.0
 14
0.0
 24
0.0
 34
0.0
 15
0.0
 25
0.0
 35
0.0
146
0.0
 13
0.0
 23
0.0
 33
0.0
 16
1.0
 26
0.0
 36
0.0
 17
0.0
 27
1.0
 37
0.0
 76
     0
330
8FC
1001
ACAD_PSEXT
1000
HP LaserJet 2100 Series PS
1000
HP LaserJet 2100 Series PS
1000
LPT1:
1000

1070
     0
  0
MLINESTYLE
  5
8F5
102
{ACAD_REACTORS
330
8F4
102
}
330
8F4
100
AcDbMlineStyle
  2
STANDARD
 70
     0
  3

 62
   256
 51
90.0
 52
90.0
 71
     2
 49
0.5
 62
   256
  6
BYLAYER
 49
-0.5
 62
   256
  6
BYLAYER
  0
ACDBPLACEHOLDER
  5
8ED
102
{ACAD_REACTORS
330
8EC
102
}
330
8EC
  0
ACAD_PROXY_OBJECT
  5
AE7
102
{ACAD_REACTORS
330
AE6
102
}
330
AE6
100
AcDbProxyObject
 90
      499
 91
      512
 95
   983063
 70
     0
 93
     1841
310
4214DD185B99185C9928B81E85EB51B8AE3F2E07A17AD46E2B8FC02B5E8DC0F42B1CFD028000000C1008070000C3001FDFF8000000C1003FBFF000000182007F7FE00000030400FEFFC00000060801FDFF8000000C1003FBFF00000018200000000000000681FA0B0000001820100E000186003FBFF000000182007F7FE000
310
00030400FEFFC00000060801FDFF8000000C1003FBFF000000182007F7FE000000304000AD7A3703D0AC73F4160000003040201C00030C007F7FE00000030400FEFFC00000060801FDFF8000000C1003FBFF000000182007F7FE00000030400FEFFC000000608000
340
8EF
340
8EF
340
8EF
 94
        0
  0
XRECORD
  5
49FF
102
{ACAD_REACTORS
330
49FE
102
}
330
49FE
100
AcDbXrecord
340
AE5
  0
XRECORD
  5
4A00
102
{ACAD_REACTORS
330
49FE
102
}
330
49FE
100
AcDbXrecord
340
AE4
  0
DICTIONARYVAR
  5
B9E
102
{ACAD_REACTORS
330
A04
102
}
330
A04
100
DictionaryVariables
280
     0
  1
STANDARD
  0
DICTIONARYVAR
  5
A06
102
{ACAD_REACTORS
330
A04
102
}
330
A04
100
DictionaryVariables
280
     0
  1
2
  0
DICTIONARYVAR
  5
A05
102
{ACAD_REACTORS
330
A04
102
}
330
A04
100
DictionaryVariables
280
     0
  1
1
  0
XRECORD
  5
49D7
102
{ACAD_REACTORS
330
49D6
102
}
330
49D6
100
AcDbXrecord
280
     1
  0
DICTIONARY
  5
4A01
330
8FB
100
AcDbDictionary
280
     1
281
     1
  3
ACAD_XREC_ROUNDTRIP
360
4A02
  0
DICTIONARY
  5
4A03
330
8FF
100
AcDbDictionary
280
     1
281
     1
  3
ACAD_XREC_ROUNDTRIP
360
4A04
  0
XRECORD
  5
4A02
102
{ACAD_REACTORS
330
4A01
102
}
330
4A01
100
AcDbXrecord
102
SHADEPLOT
 70
     0
102
SHADEPLOTRESLEVEL
 70
     2
102
SHADEPLOTCUSTOMDPI
 70
   300
  0
XRECORD
  5
4A04
102
{ACAD_REACTORS
330
4A03
102
}
330
4A03
100
AcDbXrecord
102
SHADEPLOT
 70
     0
102
SHADEPLOTRESLEVEL
 70
     2
102
SHADEPLOTCUSTOMDPI
 70
   300
  0
ENDSEC
  0
EOF
