  0
SECTION
  2
HEADER
  9
$ACADVER
  1
AC1015
  9
$ACADMAINTVER
 70
     6
  9
$DWGCODEPAGE
  3
ANSI_1252
  9
$INSBASE
 10
0.0
 20
0.0
 30
0.0
  9
$EXTMIN
 10
-9.244234832045098
 20
-0.0204929772175004
 30
0.0
  9
$EXTMAX
 10
5.399342063251325
 20
11.2608227013985
 30
0.0
  9
$LIMMIN
 10
0.0
 20
0.0
  9
$LIMMAX
 10
21.0
 20
16.0
  9
$ORTHOMODE
 70
     1
  9
$REGENMODE
 70
     1
  9
$FILLMODE
 70
     1
  9
$QTEXTMODE
 70
     0
  9
$MIRRTEXT
 70
     0
  9
$LTSCALE
 40
0.5
  9
$ATTMODE
 70
     1
  9
$TEXTSIZE
 40
0.18
  9
$TRACEWID
 40
0.05
  9
$TEXTSTYLE
  7
STANDARD
  9
$CLAYER
  8
0
  9
$CELTYPE
  6
ByLayer
  9
$CECOLOR
 62
   256
  9
$CELTSCALE
 40
1.0
  9
$DISPSILH
 70
     0
  9
$DIMSCALE
 40
2.0
  9
$DIMASZ
 40
0.125
  9
$DIMEXO
 40
0.0625
  9
$DIMDLI
 40
0.375
  9
$DIMRND
 40
0.0
  9
$DIMDLE
 40
0.0
  9
$DIMEXE
 40
0.08
  9
$DIMTP
 40
0.0
  9
$DIMTM
 40
0.0
  9
$DIMTXT
 40
0.09
  9
$DIMCEN
 40
0.0
  9
$DIMTSZ
 40
0.0
  9
$DIMTOL
 70
     0
  9
$DIMLIM
 70
     0
  9
$DIMTIH
 70
     1
  9
$DIMTOH
 70
     1
  9
$DIMSE1
 70
     0
  9
$DIMSE2
 70
     0
  9
$DIMTAD
 70
     0
  9
$DIMZIN
 70
     0
  9
$DIMBLK
  1

  9
$DIMASO
 70
     0
  9
$DIMSHO
 70
     0
  9
$DIMPOST
  1

  9
$DIMAPOST
  1

  9
$DIMALT
 70
     0
  9
$DIMALTD
 70
     2
  9
$DIMALTF
 40
25.4
  9
$DIMLFAC
 40
1.0
  9
$DIMTOFL
 70
     0
  9
$DIMTVP
 40
0.0
  9
$DIMTIX
 70
     0
  9
$DIMSOXD
 70
     0
  9
$DIMSAH
 70
     0
  9
$DIMBLK1
  1

  9
$DIMBLK2
  1

  9
$DIMSTYLE
  2
STANDARD
  9
$DIMCLRD
 70
     0
  9
$DIMCLRE
 70
     0
  9
$DIMCLRT
 70
     0
  9
$DIMTFAC
 40
1.0
  9
$DIMGAP
 40
0.09
  9
$DIMJUST
 70
     0
  9
$DIMSD1
 70
     0
  9
$DIMSD2
 70
     0
  9
$DIMTOLJ
 70
     1
  9
$DIMTZIN
 70
     0
  9
$DIMALTZ
 70
     0
  9
$DIMALTTZ
 70
     0
  9
$DIMUPT
 70
     0
  9
$DIMDEC
 70
     5
  9
$DIMTDEC
 70
     5
  9
$DIMALTU
 70
     5
  9
$DIMALTTD
 70
     2
  9
$DIMTXSTY
  7
STANDARD
  9
$DIMAUNIT
 70
     0
  9
$DIMADEC
 70
     0
  9
$DIMALTRND
 40
0.0
  9
$DIMAZIN
 70
     0
  9
$DIMDSEP
 70
    46
  9
$DIMATFIT
 70
     3
  9
$DIMFRAC
 70
     2
  9
$DIMLDRBLK
  1

  9
$DIMLUNIT
 70
     5
  9
$DIMLWD
 70
    -2
  9
$DIMLWE
 70
    -2
  9
$DIMTMOVE
 70
     2
  9
$LUNITS
 70
     5
  9
$LUPREC
 70
     4
  9
$SKETCHINC
 40
0.1
  9
$FILLETRAD
 40
0.0
  9
$AUNITS
 70
     0
  9
$AUPREC
 70
     0
  9
$MENU
  1
acad
  9
$ELEVATION
 40
0.0
  9
$PELEVATION
 40
0.0
  9
$THICKNESS
 40
0.0
  9
$LIMCHECK
 70
     0
  9
$CHAMFERA
 40
0.0
  9
$CHAMFERB
 40
0.0
  9
$CHAMFERC
 40
0.0
  9
$CHAMFERD
 40
0.0
  9
$SKPOLY
 70
     0
  9
$TDCREATE
 40
2450421.004992014
  9
$TDUCREATE
 40
2450421.338325347
  9
$TDUPDATE
 40
2454903.961474062
  9
$TDUUPDATE
 40
2454904.294807396
  9
$TDINDWG
 40
0.7677492477
  9
$TDUSRTIMER
 40
0.7677492477
  9
$USRTIMER
 70
     1
  9
$ANGBASE
 50
0.0
  9
$ANGDIR
 70
     0
  9
$PDMODE
 70
     0
  9
$PDSIZE
 40
0.0
  9
$PLINEWID
 40
0.0
  9
$SPLFRAME
 70
     0
  9
$SPLINETYPE
 70
     6
  9
$SPLINESEGS
 70
     8
  9
$HANDSEED
  5
4A04
  9
$SURFTAB1
 70
     6
  9
$SURFTAB2
 70
     6
  9
$SURFTYPE
 70
     6
  9
$SURFU
 70
     6
  9
$SURFV
 70
     6
  9
$UCSBASE
  2

  9
$UCSNAME
  2

  9
$UCSORG
 10
0.0
 20
0.0
 30
0.0
  9
$UCSXDIR
 10
1.0
 20
0.0
 30
0.0
  9
$UCSYDIR
 10
0.0
 20
1.0
 30
0.0
  9
$UCSORTHOREF
  2

  9
$UCSORTHOVIEW
 70
     0
  9
$UCSORGTOP
 10
0.0
 20
0.0
 30
0.0
  9
$UCSORGBOTTOM
 10
0.0
 20
0.0
 30
0.0
  9
$UCSORGLEFT
 10
0.0
 20
0.0
 30
0.0
  9
$UCSORGRIGHT
 10
0.0
 20
0.0
 30
0.0
  9
$UCSORGFRONT
 10
0.0
 20
0.0
 30
0.0
  9
$UCSORGBACK
 10
0.0
 20
0.0
 30
0.0
  9
$PUCSBASE
  2

  9
$PUCSNAME
  2

  9
$PUCSORG
 10
0.0
 20
0.0
 30
0.0
  9
$PUCSXDIR
 10
1.0
 20
0.0
 30
0.0
  9
$PUCSYDIR
 10
0.0
 20
1.0
 30
0.0
  9
$PUCSORTHOREF
  2

  9
$PUCSORTHOVIEW
 70
     0
  9
$PUCSORGTOP
 10
0.0
 20
0.0
 30
0.0
  9
$PUCSORGBOTTOM
 10
0.0
 20
0.0
 30
0.0
  9
$PUCSORGLEFT
 10
0.0
 20
0.0
 30
0.0
  9
$PUCSORGRIGHT
 10
0.0
 20
0.0
 30
0.0
  9
$PUCSORGFRONT
 10
0.0
 20
0.0
 30
0.0
  9
$PUCSORGBACK
 10
0.0
 20
0.0
 30
0.0
  9
$USERI1
 70
     0
  9
$USERI2
 70
     0
  9
$USERI3
 70
     0
  9
$USERI4
 70
     0
  9
$USERI5
 70
     0
  9
$USERR1
 40
0.0
  9
$USERR2
 40
0.0
  9
$USERR3
 40
0.0
  9
$USERR4
 40
0.0
  9
$USERR5
 40
0.0
  9
$WORLDVIEW
 70
     1
  9
$SHADEDGE
 70
     3
  9
$SHADEDIF
 70
    70
  9
$TILEMODE
 70
     1
  9
$MAXACTVP
 70
    16
  9
$PINSBASE
 10
0.0
 20
0.0
 30
0.0
  9
$PLIMCHECK
 70
     0
  9
$PEXTMIN
 10
1.000000000000000E+20
 20
1.000000000000000E+20
 30
1.000000000000000E+20
  9
$PEXTMAX
 10
-1.000000000000000E+20
 20
-1.000000000000000E+20
 30
-1.000000000000000E+20
  9
$PLIMMIN
 10
0.0
 20
0.0
  9
$PLIMMAX
 10
12.0
 20
9.0
  9
$UNITMODE
 70
     0
  9
$VISRETAIN
 70
     0
  9
$PLINEGEN
 70
     0
  9
$PSLTSCALE
 70
     0
  9
$TREEDEPTH
 70
  3020
  9
$CMLSTYLE
  2
Standard
  9
$CMLJUST
 70
     0
  9
$CMLSCALE
 40
1.0
  9
$PROXYGRAPHICS
 70
     1
  9
$MEASUREMENT
 70
     0
  9
$CELWEIGHT
370
    -1
  9
$ENDCAPS
280
     0
  9
$JOINSTYLE
280
     0
  9
$LWDISPLAY
290
     0
  9
$INSUNITS
 70
     0
  9
$HYPERLINKBASE
  1

  9
$STYLESHEET
  1
monochrome.ctb
  9
$XEDIT
290
     1
  9
$CEPSNTYPE
380
     0
  9
$PSTYLEMODE
290
     1
  9
$FINGERPRINTGUID
  2
{5B022780-5DC1-4298-BE78-F452C654DCDD}
  9
$VERSIONGUID
  2
{B52B1F1B-98A9-4BA2-B30B-7F7B446205FE}
  9
$EXTNAMES
290
     1
  9
$PSVPSCALE
 40
0.0
  9
$OLESTARTUP
290
     0
  0
ENDSEC
  0
SECTION
  2
CLASSES
  0
CLASS
  1
ACDBDICTIONARYWDFLT
  2
AcDbDictionaryWithDefault
  3
AutoCAD 2000
 90
        0
280
     0
281
     0
  0
CLASS
  1
ACDBPLACEHOLDER
  2
AcDbPlaceHolder
  3
ObjectDBX Classes
 90
        0
280
     0
281
     0
  0
CLASS
  1
LAYOUT
  2
AcDbLayout
  3
ObjectDBX Classes
 90
        0
280
     0
281
     0
  0
CLASS
  1
DICTIONARYVAR
  2
AcDbDictionaryVar
  3
AutoCAD 2000
 90
        0
280
     0
281
     0
  0
CLASS
  1
LONG_TRANSACTION
  2
AcDbLongTransaction
  3
ObjectDBX Classes
 90
   -65536
280
     1
281
     0
  0
CLASS
  1
LWPOLYLINE
  2
AcDbPolyline
  3
AutoCAD 2000
 90
        0
280
     0
281
     1
  0
CLASS
  1
HATCH
  2
AcDbHatch
  3
AutoCAD 2000
 90
        0
280
     0
281
     1
  0
CLASS
  1
XRECORD
  2
AcDbXrecord
  3
AutoCAD 2000
 90
        0
280
     0
281
     0
  0
CLASS
  1
LONG_TRANSACTION
  2
AcDbLongTransaction
  3
ObjectDBX Classes
 90
   -65536
280
     1
281
     0
  0
CLASS
  1
LWPOLYLINE
  2
AcDbPolyline
  3
AutoCAD 2000
 90
        0
280
     0
281
     1
  0
CLASS
  1
HATCH
  2
AcDbHatch
  3
AutoCAD 2000
 90
        0
280
     0
281
     1
  0
CLASS
  1
XRECORD
  2
AcDbXrecord
  3
AutoCAD 2000
 90
        0
280
     0
281
     0
  0
CLASS
  1
TABLESTYLE
  2
AcDbTableStyle
  3
ObjectDBX Classes
 90
     2047
280
     1
281
     0
  0
CLASS
  1
SORTENTSTABLE
  2
AcDbSortentsTable
  3
AutoCAD 2000
 90
        0
280
     0
281
     0
  0
CLASS
  1
DIMASSOC
  2
AcDbDimAssoc
  3
"AcDbDimAssoc|Product Desc:     AcDim ARX App For Dimension|Company:          Autodesk, Inc.|WEB Address:      www.autodesk.com"
 90
        0
280
     0
281
     0
  0
ENDSEC
  0
SECTION
  2
TABLES
  0
TABLE
  2
VPORT
  5
8E6
330
0
100
AcDbSymbolTable
 70
     3
  0
VPORT
  5
49F7
330
8E6
100
AcDbSymbolTableRecord
100
AcDbViewportTableRecord
  2
*Active
 70
     0
 10
0.0
 20
0.0
 11
1.0
 21
1.0
 12
2.211464370836421
 22
5.02552088285087
 13
0.0
 23
0.0
 14
0.063
 24
0.063
 15
0.25
 25
0.25
 16
0.0
 26
0.0
 36
1.0
 17
0.0
 27
0.0
 37
0.0
 40
17.6852071329966
 41
1.703065134099617
 42
50.0
 43
0.0
 44
0.0
 50
0.0
 51
0.0
 71
     0
 72
   100
 73
     1
 74
     0
 75
     0
 76
     0
 77
     0
 78
     0
281
     0
 65
     1
110
0.0
120
0.0
130
0.0
111
1.0
121
0.0
131
0.0
112
0.0
122
1.0
132
0.0
 79
     0
146
0.0
  0
ENDTAB
  0
TABLE
  2
LTYPE
  5
8E3
330
0
100
AcDbSymbolTable
 70
     3
  0
LTYPE
  5
8F1
330
8E3
100
AcDbSymbolTableRecord
100
AcDbLinetypeTableRecord
  2
ByBlock
 70
     0
  3

 72
    65
 73
     0
 40
0.0
  0
LTYPE
  5
8F2
330
8E3
100
AcDbSymbolTableRecord
100
AcDbLinetypeTableRecord
  2
ByLayer
 70
     0
  3

 72
    65
 73
     0
 40
0.0
  0
LTYPE
  5
8F3
330
8E3
100
AcDbSymbolTableRecord
100
AcDbLinetypeTableRecord
  2
CONTINUOUS
 70
     0
  3
Solid line
 72
    65
 73
     0
 40
0.0
  0
LTYPE
  5
3087
330
8E3
100
AcDbSymbolTableRecord
100
AcDbLinetypeTableRecord
  2
HIDDEN
 70
     0
  3
__ __ __ __ __ __ __ __ __ __ __ __ __ __ __ __
 72
    65
 73
     2
 40
0.375
 49
0.25
 74
     0
 49
-0.125
 74
     0
  0
LTYPE
  5
32D3
330
8E3
100
AcDbSymbolTableRecord
100
AcDbLinetypeTableRecord
  2
THD
 70
     0
  3
_ _ _ _ _ _ _ _ _ _ _ _ _ _ _ _ _ _ _ _ _ _ _ _
 72
    65
 73
     2
 40
0.15
 49
0.11
 74
     0
 49
-0.04
 74
     0
  0
ENDTAB
  0
TABLE
  2
LAYER
  5
8E0
102
{ACAD_XDICTIONARY
360
AF5
102
}
330
0
100
AcDbSymbolTable
 70
     6
  0
LAYER
  5
8EE
330
8E0
100
AcDbSymbolTableRecord
100
AcDbLayerTableRecord
  2
0
 70
     0
 62
     7
  6
CONTINUOUS
370
    -3
390
8ED
  0
LAYER
  5
922
330
8E0
100
AcDbSymbolTableRecord
100
AcDbLayerTableRecord
  2
NOTE
 70
     0
 62
     1
  6
CONTINUOUS
370
    -3
390
8ED
  0
LAYER
  5
926
330
8E0
100
AcDbSymbolTableRecord
100
AcDbLayerTableRecord
  2
REV
 70
     0
 62
     1
  6
CONTINUOUS
370
    -3
390
8ED
  0
LAYER
  5
927
330
8E0
100
AcDbSymbolTableRecord
100
AcDbLayerTableRecord
  2
DIM
 70
     0
 62
     5
  6
CONTINUOUS
370
    -3
390
8ED
  0
LAYER
  5
BE3
330
8E0
100
AcDbSymbolTableRecord
100
AcDbLayerTableRecord
  2
Defpoints
 70
     0
 62
     7
  6
CONTINUOUS
290
     0
370
    -3
390
8ED
  0
LAYER
  5
3088
330
8E0
100
AcDbSymbolTableRecord
100
AcDbLayerTableRecord
  2
HIDDEN
 70
     0
 62
   253
  6
HIDDEN
370
    -3
390
8ED
  0
ENDTAB
  0
TABLE
  2
STYLE
  5
8E1
330
0
100
AcDbSymbolTable
 70
     1
  0
STYLE
  5
8EF
330
8E1
100
AcDbSymbolTableRecord
100
AcDbTextStyleTableRecord
  2
STANDARD
 70
     0
 40
0.0
 41
1.0
 50
0.0
 71
     0
 42
0.18
  3
TXT
  4

  0
ENDTAB
  0
TABLE
  2
VIEW
  5
8E4
330
0
100
AcDbSymbolTable
 70
     0
  0
ENDTAB
  0
TABLE
  2
UCS
  5
8E5
330
0
100
AcDbSymbolTable
 70
     0
  0
ENDTAB
  0
TABLE
  2
APPID
  5
8E7
330
0
100
AcDbSymbolTable
 70
     7
  0
APPID
  5
8F0
330
8E7
100
AcDbSymbolTableRecord
100
AcDbRegAppTableRecord
  2
ACAD
 70
     0
  0
APPID
  5
AF4
330
8E7
100
AcDbSymbolTableRecord
100
AcDbRegAppTableRecord
  2
ACAD_PSEXT
 70
     0
  0
APPID
  5
BA1
330
8E7
100
AcDbSymbolTableRecord
100
AcDbRegAppTableRecord
  2
ACAD_DSTYLE_DIMTEXT_FILL
 70
     0
  0
APPID
  5
D77
330
8E7
100
AcDbSymbolTableRecord
100
AcDbRegAppTableRecord
  2
CONTENTBLOCKICON
 70
     0
  0
APPID
  5
E12
330
8E7
100
AcDbSymbolTableRecord
100
AcDbRegAppTableRecord
  2
RAK
 70
     0
  0
APPID
  5
1013
330
8E7
100
AcDbSymbolTableRecord
100
AcDbRegAppTableRecord
  2
DCO15
 70
     0
  0
APPID
  5
3FD8
330
8E7
100
AcDbSymbolTableRecord
100
AcDbRegAppTableRecord
  2
AcAecLayerStandard
 70
     0
  0
ENDTAB
  0
TABLE
  2
DIMSTYLE
  5
8E8
330
0
100
AcDbSymbolTable
 70
     1
100
AcDbDimStyleTable
  0
DIMSTYLE
105
921
330
8E8
100
AcDbSymbolTableRecord
100
AcDbDimStyleTableRecord
  2
STANDARD
 70
     0
  3

  4

273
     5
277
     5
279
     2
340
8EF
  0
ENDTAB
  0
TABLE
  2
BLOCK_RECORD
  5
8DF
330
0
100
AcDbSymbolTable
 70
     0
  0
BLOCK_RECORD
  5
8FC
102
{ACAD_XDICTIONARY
360
9D1
102
}
330
8DF
100
AcDbSymbolTableRecord
100
AcDbBlockTableRecord
  2
*Model_Space
340
8FF
  0
BLOCK_RECORD
  5
8F8
330
8DF
100
AcDbSymbolTableRecord
100
AcDbBlockTableRecord
  2
*Paper_Space
340
8FB
  0
ENDTAB
  0
ENDSEC
  0
SECTION
  2
BLOCKS
  0
BLOCK
  5
934
330
8FC
100
AcDbEntity
  8
0
100
AcDbBlockBegin
  2
*Model_Space
 70
     0
 10
0.0
 20
0.0
 30
0.0
  3
*Model_Space
  1

  4

  0
ENDBLK
  5
935
330
8FC
100
AcDbEntity
  8
0
100
AcDbBlockEnd
  0
BLOCK
  5
932
330
8F8
100
AcDbEntity
 67
     1
  8
0
100
AcDbBlockBegin
  2
*Paper_Space
 70
     0
 10
0.0
 20
0.0
 30
0.0
  3
*Paper_Space
  1

  4

  0
ENDBLK
  5
933
330
8F8
100
AcDbEntity
 67
     1
  8
0
100
AcDbBlockEnd
  0
ENDSEC
  0
SECTION
  2
ENTITIES
  0
TEXT
  5
7BA
330
8FC
100
AcDbEntity
  8
REV
100
AcDbText
 10
18.25397542389433
 20
3.304653984161741
 30
0.0
 40
0.18
  1

 72
     1
 11
18.25397542389433
 21
3.304653984161741
 31
0.0
100
AcDbText
  0
TEXT
  5
7E2
330
8FC
100
AcDbEntity
  8
0
100
AcDbText
 10
18.18680334740978
 20
3.62562029176133
 30
0.0
 40
0.18
  1
 
 72
     1
 11
18.27680334740978
 21
3.62562029176133
 31
0.0
100
AcDbText
  0
TEXT
  5
7F9
330
8FC
100
AcDbEntity
  8
NOTE
100
AcDbText
 10
6.925169872834906
 20
4.93770488800903
 30
0.0
 40
0.18
  1

 72
     4
 11
6.925169872834906
 21
4.93770488800903
 31
0.0
100
AcDbText
  0
LINE
  5
3419
330
8FC
100
AcDbEntity
  8
0
100
AcDbLine
 10
4.616797937794431
 20
2.114000000000001
 30
0.0
 11
2.617245209389182
 21
2.114000000000001
 31
0.0
  0
LINE
  5
341A
330
8FC
100
AcDbEntity
  8
0
100
AcDbLine
 10
1.603758562045517
 20
2.159000000000003
 30
0.0
 11
-2.987860947935776
 21
2.159000000000006
 31
0.0
  0
LINE
  5
341B
330
8FC
100
AcDbEntity
  8
0
100
AcDbLine
 10
-0.5903214207425123
 20
2.114000000000004
 30
0.0
 11
-2.991797937794441
 21
2.114000000000001
 31
0.0
  0
LINE
  5
341D
330
8FC
100
AcDbEntity
  8
0
100
AcDbLine
 10
-2.991797937794456
 20
0.6140000000000079
 30
0.0
 11
-0.9922452093891963
 21
0.6140000000000008
 31
0.0
  0
LINE
  5
341F
330
8FC
100
AcDbEntity
  8
0
100
AcDbLine
 10
2.215321420742498
 20
0.6140000000000008
 30
0.0
 11
4.616797937794445
 21
0.6140000000000008
 31
0.0
  0
LINE
  5
3421
330
8FC
100
AcDbEntity
  8
0
100
AcDbLine
 10
0.0
 20
0.4989999999999988
 30
0.0
 11
0.0
 21
0.0
 31
0.0
  0
LINE
  5
3422
330
8FC
100
AcDbEntity
  8
0
100
AcDbLine
 10
0.0450000000000017
 20
0.4989999999999988
 30
0.0
 11
0.0450000000000017
 21
0.0
 31
0.0
  0
LINE
  5
3424
330
8FC
100
AcDbEntity
  8
0
  6
THD
100
AcDbLine
 10
2.87068389387359
 20
0.6140000000000008
 30
0.0
 11
2.956047782279555
 21
0.7578717933025168
 31
0.0
  0
LINE
  5
3425
330
8FC
100
AcDbEntity
  8
0
  6
THD
100
AcDbLine
 10
3.12931610612641
 20
0.6140000000000008
 30
0.0
 11
3.043952217720445
 21
0.7578717933025168
 31
0.0
  0
ARC
  5
3426
330
8FC
100
AcDbEntity
  8
0
  6
THD
100
AcDbCircle
 10
3.0
 20
0.7317934903735086
 30
0.0
 40
0.0511065096264946
100
AcDbArc
 50
30.68205618136283
 51
149.3179438186372
  0
LINE
  5
3427
330
8FC
100
AcDbEntity
  8
0
  6
THD
100
AcDbLine
 10
3.49568389387359
 20
0.6140000000000008
 30
0.0
 11
3.581047782279555
 21
0.7578717933025168
 31
0.0
  0
LINE
  5
3428
330
8FC
100
AcDbEntity
  8
0
  6
THD
100
AcDbLine
 10
3.75431610612641
 20
0.6140000000000008
 30
0.0
 11
3.668952217720445
 21
0.7578717933025168
 31
0.0
  0
ARC
  5
3429
330
8FC
100
AcDbEntity
  8
0
  6
THD
100
AcDbCircle
 10
3.625
 20
0.7317934903735086
 30
0.0
 40
0.0511065096264946
100
AcDbArc
 50
30.68205618136283
 51
149.3179438186372
  0
LINE
  5
342A
330
8FC
100
AcDbEntity
  8
0
  6
THD
100
AcDbLine
 10
4.12068389387359
 20
0.6140000000000008
 30
0.0
 11
4.206047782279555
 21
0.7578717933025168
 31
0.0
  0
LINE
  5
342B
330
8FC
100
AcDbEntity
  8
0
  6
THD
100
AcDbLine
 10
4.37931610612641
 20
0.6140000000000008
 30
0.0
 11
4.293952217720445
 21
0.7578717933025168
 31
0.0
  0
ARC
  5
342C
330
8FC
100
AcDbEntity
  8
0
  6
THD
100
AcDbCircle
 10
4.25
 20
0.7317934903735086
 30
0.0
 40
0.0511065096264946
100
AcDbArc
 50
30.68205618136283
 51
149.3179438186372
  0
LINE
  5
342D
330
8FC
100
AcDbEntity
  8
0
  6
THD
100
AcDbLine
 10
-1.24568389387359
 20
0.6140000000000008
 30
0.0
 11
-1.331047782279569
 21
0.7578717933025168
 31
0.0
  0
LINE
  5
342E
330
8FC
100
AcDbEntity
  8
0
  6
THD
100
AcDbLine
 10
-1.504316106126424
 20
0.6140000000000008
 30
0.0
 11
-1.418952217720459
 21
0.7578717933025168
 31
0.0
  0
ARC
  5
342F
330
8FC
100
AcDbEntity
  8
0
  6
THD
100
AcDbCircle
 10
-1.375000000000014
 20
0.7317934903735086
 30
0.0
 40
0.0511065096264946
100
AcDbArc
 50
30.68205618136283
 51
149.3179438186372
  0
LINE
  5
3430
330
8FC
100
AcDbEntity
  8
0
  6
THD
100
AcDbLine
 10
-1.87068389387359
 20
0.6140000000000008
 30
0.0
 11
-1.956047782279569
 21
0.7578717933025168
 31
0.0
  0
LINE
  5
3431
330
8FC
100
AcDbEntity
  8
0
  6
THD
100
AcDbLine
 10
-2.129316106126424
 20
0.6140000000000008
 30
0.0
 11
-2.043952217720459
 21
0.7578717933025168
 31
0.0
  0
ARC
  5
3432
330
8FC
100
AcDbEntity
  8
0
  6
THD
100
AcDbCircle
 10
-2.000000000000014
 20
0.7317934903735086
 30
0.0
 40
0.0511065096264946
100
AcDbArc
 50
30.68205618136283
 51
149.3179438186372
  0
LINE
  5
3433
330
8FC
100
AcDbEntity
  8
0
  6
THD
100
AcDbLine
 10
-2.495683893873594
 20
0.6140000000000008
 30
0.0
 11
-2.581047782279565
 21
0.7578717933025168
 31
0.0
  0
LINE
  5
3434
330
8FC
100
AcDbEntity
  8
0
  6
THD
100
AcDbLine
 10
-2.754316106126428
 20
0.6140000000000008
 30
0.0
 11
-2.668952217720463
 21
0.7578717933025168
 31
0.0
  0
ARC
  5
3435
330
8FC
100
AcDbEntity
  8
0
  6
THD
100
AcDbCircle
 10
-2.625000000000018
 20
0.7317934903735086
 30
0.0
 40
0.0511065096264946
100
AcDbArc
 50
30.68205618136283
 51
149.3179438186372
  0
LINE
  5
3436
330
8FC
100
AcDbEntity
  8
0
  6
THD
100
AcDbLine
 10
2.87068389387359
 20
2.114000000000001
 30
0.0
 11
2.956047782279555
 21
1.970128206697485
 31
0.0
  0
LINE
  5
3437
330
8FC
100
AcDbEntity
  8
0
  6
THD
100
AcDbLine
 10
3.12931610612641
 20
2.114000000000001
 30
0.0
 11
3.043952217720445
 21
1.970128206697485
 31
0.0
  0
ARC
  5
3438
330
8FC
100
AcDbEntity
  8
0
  6
THD
100
AcDbCircle
 10
3.0
 20
1.996206509626493
 30
0.0
 40
0.0511065096264946
100
AcDbArc
 50
210.6820561813628
 51
329.3179438186372
  0
LINE
  5
3439
330
8FC
100
AcDbEntity
  8
0
  6
THD
100
AcDbLine
 10
3.49568389387359
 20
2.114000000000001
 30
0.0
 11
3.581047782279555
 21
1.970128206697485
 31
0.0
  0
LINE
  5
343A
330
8FC
100
AcDbEntity
  8
0
  6
THD
100
AcDbLine
 10
3.75431610612641
 20
2.114000000000001
 30
0.0
 11
3.668952217720445
 21
1.970128206697485
 31
0.0
  0
ARC
  5
343B
330
8FC
100
AcDbEntity
  8
0
  6
THD
100
AcDbCircle
 10
3.625
 20
1.996206509626493
 30
0.0
 40
0.0511065096264946
100
AcDbArc
 50
210.6820561813628
 51
329.3179438186372
  0
LINE
  5
343C
330
8FC
100
AcDbEntity
  8
0
  6
THD
100
AcDbLine
 10
4.12068389387359
 20
2.114000000000001
 30
0.0
 11
4.206047782279555
 21
1.970128206697481
 31
0.0
  0
LINE
  5
343D
330
8FC
100
AcDbEntity
  8
0
  6
THD
100
AcDbLine
 10
4.37931610612641
 20
2.113999999999997
 30
0.0
 11
4.293952217720445
 21
1.970128206697481
 31
0.0
  0
ARC
  5
343E
330
8FC
100
AcDbEntity
  8
0
  6
THD
100
AcDbCircle
 10
4.25
 20
1.996206509626493
 30
0.0
 40
0.0511065096264946
100
AcDbArc
 50
210.6820561813628
 51
329.3179438186372
  0
LINE
  5
343F
330
8FC
100
AcDbEntity
  8
0
  6
THD
100
AcDbLine
 10
-1.24568389387359
 20
2.114000000000001
 30
0.0
 11
-1.331047782279569
 21
1.970128206697485
 31
0.0
  0
LINE
  5
3440
330
8FC
100
AcDbEntity
  8
0
  6
THD
100
AcDbLine
 10
-1.504316106126424
 20
2.114000000000001
 30
0.0
 11
-1.418952217720459
 21
1.970128206697485
 31
0.0
  0
ARC
  5
3441
330
8FC
100
AcDbEntity
  8
0
  6
THD
100
AcDbCircle
 10
-1.375000000000014
 20
1.996206509626493
 30
0.0
 40
0.0511065096264946
100
AcDbArc
 50
210.6820561813628
 51
329.3179438186372
  0
LINE
  5
3442
330
8FC
100
AcDbEntity
  8
0
  6
THD
100
AcDbLine
 10
-1.87068389387359
 20
2.114000000000001
 30
0.0
 11
-1.956047782279569
 21
1.970128206697485
 31
0.0
  0
LINE
  5
3443
330
8FC
100
AcDbEntity
  8
0
  6
THD
100
AcDbLine
 10
-2.129316106126424
 20
2.114000000000001
 30
0.0
 11
-2.043952217720459
 21
1.970128206697485
 31
0.0
  0
ARC
  5
3444
330
8FC
100
AcDbEntity
  8
0
  6
THD
100
AcDbCircle
 10
-2.000000000000014
 20
1.996206509626493
 30
0.0
 40
0.0511065096264946
100
AcDbArc
 50
210.6820561813628
 51
329.3179438186372
  0
LINE
  5
3445
330
8FC
100
AcDbEntity
  8
0
  6
THD
100
AcDbLine
 10
-2.495683893873594
 20
2.114000000000001
 30
0.0
 11
-2.581047782279565
 21
1.970128206697485
 31
0.0
  0
LINE
  5
3446
330
8FC
100
AcDbEntity
  8
0
  6
THD
100
AcDbLine
 10
-2.754316106126428
 20
2.114000000000001
 30
0.0
 11
-2.668952217720463
 21
1.970128206697485
 31
0.0
  0
ARC
  5
3447
330
8FC
100
AcDbEntity
  8
0
  6
THD
100
AcDbCircle
 10
-2.625000000000018
 20
1.996206509626493
 30
0.0
 40
0.0511065096264946
100
AcDbArc
 50
210.6820561813628
 51
329.3179438186372
  0
LINE
  5
3448
330
8FC
100
AcDbEntity
  8
0
100
AcDbLine
 10
2.215321420742498
 20
0.6140000000000008
 30
0.0
 11
2.617245209389184
 21
2.114000000000001
 31
0.0
  0
LINE
  5
3449
330
8FC
100
AcDbEntity
  8
0
100
AcDbLine
 10
-0.992245209389198
 20
0.6140000000000008
 30
0.0
 11
-0.5903214207425123
 21
2.114000000000004
 31
0.0
  0
LINE
  5
344A
330
8FC
100
AcDbEntity
  8
0
100
AcDbLine
 10
-0.9922452093891963
 20
0.6140000000000008
 30
0.0
 11
2.215321420742512
 21
0.6140000000000008
 31
0.0
  0
LINE
  5
344B
330
8FC
100
AcDbEntity
  8
0
100
AcDbLine
 10
-2.98786094793579
 20
0.5690000000000062
 30
0.0
 11
-0.0700000000000074
 21
0.5689999999999991
 31
0.0
  0
ARC
  5
344C
330
8FC
100
AcDbEntity
  8
0
100
AcDbCircle
 10
-0.0700000000000074
 20
0.4989999999999988
 30
0.0
 40
0.07
100
AcDbArc
 50
0.0
 51
89.9999999999998
  0
ARC
  5
344D
330
8FC
100
AcDbEntity
  8
0
100
AcDbCircle
 10
-0.0700000000000074
 20
0.4989999999999988
 30
0.0
 40
0.115
100
AcDbArc
 50
0.0
 51
89.9999999999998
  0
LINE
  5
344E
330
8FC
100
AcDbEntity
  8
0
100
AcDbLine
 10
0.0
 20
0.0
 30
0.0
 11
0.0450000000000017
 21
0.0
 31
0.0
  0
LINE
  5
344F
330
8FC
100
AcDbEntity
  8
0
100
AcDbLine
 10
2.617245209389182
 20
2.114000000000001
 30
0.0
 11
-0.5903214207425123
 21
2.114000000000004
 31
0.0
  0
LINE
  5
3450
330
8FC
100
AcDbEntity
  8
0
100
AcDbLine
 10
0.5937499999999858
 20
2.284000000000006
 30
0.0
 11
-1.156250000000014
 21
2.284000000000003
 31
0.0
  0
LINE
  5
3451
330
8FC
100
AcDbEntity
  8
0
100
AcDbLine
 10
0.5937499999999858
 20
2.239000000000004
 30
0.0
 11
-1.156250000000014
 21
2.239000000000001
 31
0.0
  0
ARC
  5
3452
330
8FC
100
AcDbEntity
  8
0
100
AcDbCircle
 10
-1.156250000000028
 20
2.169000000000004
 30
0.0
 40
0.07
100
AcDbArc
 50
90.0
 51
161.075355583949
  0
ARC
  5
3453
330
8FC
100
AcDbEntity
  8
0
100
AcDbCircle
 10
-1.156250000000028
 20
2.169000000000004
 30
0.0
 40
0.115
100
AcDbArc
 50
90.0
 51
161.0753555839489
  0
ARC
  5
3454
330
8FC
100
AcDbEntity
  8
0
100
AcDbCircle
 10
-1.331250000000026
 20
2.229000000000003
 30
0.0
 40
0.07
100
AcDbArc
 50
270.0
 51
341.0753555839477
  0
ARC
  5
3455
330
8FC
100
AcDbEntity
  8
0
100
AcDbCircle
 10
-1.331250000000026
 20
2.229000000000003
 30
0.0
 40
0.115
100
AcDbArc
 50
322.5047502354415
 51
341.0753555839477
  0
ARC
  5
3456
330
8FC
100
AcDbEntity
  8
0
100
AcDbCircle
 10
0.5937499999999858
 20
2.169000000000004
 30
0.0
 40
0.07
100
AcDbArc
 50
18.92464441605094
 51
90.0
  0
ARC
  5
3457
330
8FC
100
AcDbEntity
  8
0
100
AcDbCircle
 10
0.5937499999999858
 20
2.169000000000004
 30
0.0
 40
0.115
100
AcDbArc
 50
18.92464441605107
 51
90.0
  0
ARC
  5
3458
330
8FC
100
AcDbEntity
  8
0
100
AcDbCircle
 10
0.768749999999983
 20
2.229000000000003
 30
0.0
 40
0.07
100
AcDbArc
 50
198.9246444160523
 51
270.0
  0
ARC
  5
3459
330
8FC
100
AcDbEntity
  8
0
100
AcDbCircle
 10
0.768749999999983
 20
2.229000000000003
 30
0.0
 40
0.115
100
AcDbArc
 50
198.9246444160523
 51
217.4952497645589
  0
LINE
  5
345A
330
8FC
100
AcDbEntity
  8
0
100
AcDbLine
 10
1.03125
 20
0.4439999999999991
 30
0.0
 11
2.78125
 21
0.4440000000000026
 31
0.0
  0
LINE
  5
345B
330
8FC
100
AcDbEntity
  8
0
100
AcDbLine
 10
1.03125
 20
0.4890000000000008
 30
0.0
 11
2.78125
 21
0.4890000000000008
 31
0.0
  0
ARC
  5
345C
330
8FC
100
AcDbEntity
  8
0
100
AcDbCircle
 10
2.78125
 20
0.5590000000000011
 30
0.0
 40
0.07
100
AcDbArc
 50
270.0
 51
341.075355583949
  0
ARC
  5
345D
330
8FC
100
AcDbEntity
  8
0
100
AcDbCircle
 10
2.78125
 20
0.5590000000000011
 30
0.0
 40
0.115
100
AcDbArc
 50
270.0
 51
341.075355583949
  0
ARC
  5
345E
330
8FC
100
AcDbEntity
  8
0
100
AcDbCircle
 10
2.956249999999997
 20
0.4989999999999988
 30
0.0
 40
0.07
100
AcDbArc
 50
90.0
 51
161.0753555839476
  0
ARC
  5
345F
330
8FC
100
AcDbEntity
  8
0
100
AcDbCircle
 10
2.956249999999997
 20
0.4989999999999988
 30
0.0
 40
0.115
100
AcDbArc
 50
142.5047502354404
 51
161.0753555839476
  0
ARC
  5
3460
330
8FC
100
AcDbEntity
  8
0
100
AcDbCircle
 10
1.031249999999986
 20
0.5590000000000011
 30
0.0
 40
0.07
100
AcDbArc
 50
198.924644416051
 51
270.0
  0
ARC
  5
3461
330
8FC
100
AcDbEntity
  8
0
100
AcDbCircle
 10
1.031249999999986
 20
0.5590000000000011
 30
0.0
 40
0.115
100
AcDbArc
 50
198.9246444160511
 51
270.0
  0
ARC
  5
3462
330
8FC
100
AcDbEntity
  8
0
100
AcDbCircle
 10
0.8562499999999886
 20
0.4989999999999988
 30
0.0
 40
0.07
100
AcDbArc
 50
18.92464441605227
 51
90.0
  0
ARC
  5
3463
330
8FC
100
AcDbEntity
  8
0
100
AcDbCircle
 10
0.8562499999999886
 20
0.4989999999999988
 30
0.0
 40
0.115
100
AcDbArc
 50
18.92464441605227
 51
37.49524976456013
  0
LINE
  5
3464
330
8FC
100
AcDbEntity
  8
0
100
AcDbLine
 10
-2.999999999999996
 20
2.020250000000001
 30
0.0
 11
-3.625000000000004
 21
2.020250000000001
 31
0.0
  0
LINE
  5
3465
330
8FC
100
AcDbEntity
  8
0
100
AcDbLine
 10
-3.625000000000004
 20
2.020250000000001
 30
0.0
 11
-3.625000000000004
 21
1.777625000000001
 31
0.0
  0
LINE
  5
3466
330
8FC
100
AcDbEntity
  8
0
100
AcDbLine
 10
-3.625000000000004
 20
1.606625000000001
 30
0.0
 11
-3.625000000000004
 21
1.364000000000001
 31
0.0
  0
LINE
  5
3467
330
8FC
100
AcDbEntity
  8
0
100
AcDbLine
 10
-3.000000000000004
 20
1.364000000000001
 30
0.0
 11
-3.000000000000004
 21
1.121375000000004
 31
0.0
  0
LINE
  5
3468
330
8FC
100
AcDbEntity
  8
0
100
AcDbLine
 10
-3.000000000000004
 20
0.9503749999999975
 30
0.0
 11
-3.000000000000004
 21
0.7077499999999013
 31
0.0
  0
LINE
  5
3469
330
8FC
100
AcDbEntity
  8
0
100
AcDbLine
 10
4.625
 20
0.7077500000000008
 30
0.0
 11
5.25
 21
0.7077499999999972
 31
0.0
  0
LINE
  5
346A
330
8FC
100
AcDbEntity
  8
0
100
AcDbLine
 10
5.25
 20
0.7077499999999972
 30
0.0
 11
5.25
 21
0.9503749999999975
 31
0.0
  0
LINE
  5
346B
330
8FC
100
AcDbEntity
  8
0
100
AcDbLine
 10
5.25
 20
1.121374999999997
 30
0.0
 11
5.25
 21
1.364000000000001
 31
0.0
  0
LINE
  5
346C
330
8FC
100
AcDbEntity
  8
0
100
AcDbLine
 10
4.625
 20
1.364000000000001
 30
0.0
 11
4.625
 21
1.606624999999998
 31
0.0
  0
LINE
  5
346D
330
8FC
100
AcDbEntity
  8
0
100
AcDbLine
 10
4.625
 20
1.777624999999997
 30
0.0
 11
4.625
 21
2.020249999999908
 31
0.0
  0
LINE
  5
346E
330
8FC
100
AcDbEntity
  8
0
100
AcDbLine
 10
5.25
 20
1.364000000000001
 30
0.0
 11
4.625
 21
1.364000000000001
 31
0.0
  0
LINE
  5
346F
330
8FC
100
AcDbEntity
  8
0
100
AcDbLine
 10
-3.000000000000004
 20
1.364000000000001
 30
0.0
 11
-3.625000000000004
 21
1.364000000000001
 31
0.0
  0
ARC
  5
3470
330
8FC
100
AcDbEntity
  8
0
100
AcDbCircle
 10
4.952249999999992
 20
1.035875000000001
 30
0.0
 40
0.0855
100
AcDbArc
 50
90.0
 51
270.0
  0
LINE
  5
3471
330
8FC
100
AcDbEntity
  8
0
100
AcDbLine
 10
4.625
 20
0.7077500000000008
 30
0.0
 11
4.612860947935786
 21
0.5690000000000026
 31
0.0
  0
LINE
  5
3472
330
8FC
100
AcDbEntity
  8
0
100
AcDbLine
 10
-2.999999999999996
 20
2.020250000000001
 30
0.0
 11
-2.987860947935776
 21
2.159000000000006
 31
0.0
  0
LINE
  5
3475
330
8FC
100
AcDbEntity
  8
0
100
AcDbLine
 10
5.249999999999986
 20
0.9503749999999975
 30
0.0
 11
4.952249999999992
 21
0.9503749999999975
 31
0.0
  0
LINE
  5
3476
330
8FC
100
AcDbEntity
  8
0
100
AcDbLine
 10
5.249999999999986
 20
1.121374999999997
 30
0.0
 11
4.952249999999992
 21
1.121374999999997
 31
0.0
  0
LINE
  5
3477
330
8FC
100
AcDbEntity
  8
0
100
AcDbLine
 10
-3.000000000000004
 20
0.7077499999999013
 30
0.0
 11
-2.98786094793579
 21
0.5690000000000062
 31
0.0
  0
ARC
  5
3478
330
8FC
100
AcDbEntity
  8
0
100
AcDbCircle
 10
-3.32725000000001
 20
1.692125000000001
 30
0.0
 40
0.0855
100
AcDbArc
 50
270.0
 51
90.0
  0
LINE
  5
3479
330
8FC
100
AcDbEntity
  8
0
100
AcDbLine
 10
-3.625000000000011
 20
1.777624999999997
 30
0.0
 11
-3.327250000000003
 21
1.777625000000001
 31
0.0
  0
LINE
  5
347A
330
8FC
100
AcDbEntity
  8
0
100
AcDbLine
 10
-3.625000000000011
 20
1.606624999999998
 30
0.0
 11
-3.327250000000003
 21
1.606625000000001
 31
0.0
  0
LINE
  5
347B
330
8FC
100
AcDbEntity
  8
0
100
AcDbLine
 10
4.625
 20
2.020249999999908
 30
0.0
 11
4.612860947935758
 21
2.159000000000003
 31
0.0
  0
ARC
  5
347C
330
8FC
100
AcDbEntity
  8
0
100
AcDbCircle
 10
-2.968750000000011
 20
1.035875000000001
 30
0.0
 40
0.0855
100
AcDbArc
 50
270.0
 51
90.0
  0
LINE
  5
347D
330
8FC
100
AcDbEntity
  8
0
100
AcDbLine
 10
-2.968750000000004
 20
0.9503750000000011
 30
0.0
 11
-3.000000000000004
 21
0.9503750000000011
 31
0.0
  0
LINE
  5
347E
330
8FC
100
AcDbEntity
  8
0
100
AcDbLine
 10
-2.968750000000004
 20
1.121375000000001
 30
0.0
 11
-3.000000000000004
 21
1.121375000000004
 31
0.0
  0
ARC
  5
347F
330
8FC
100
AcDbEntity
  8
0
100
AcDbCircle
 10
4.593749999999986
 20
1.692125000000001
 30
0.0
 40
0.0855
100
AcDbArc
 50
90.0
 51
270.0
  0
LINE
  5
3480
330
8FC
100
AcDbEntity
  8
0
100
AcDbLine
 10
4.59375
 20
1.777624999999997
 30
0.0
 11
4.625
 21
1.777624999999997
 31
0.0
  0
LINE
  5
3481
330
8FC
100
AcDbEntity
  8
0
100
AcDbLine
 10
4.59375
 20
1.606624999999998
 30
0.0
 11
4.625
 21
1.606624999999998
 31
0.0
  0
ARC
  5
3486
330
8FC
100
AcDbEntity
  8
0
100
AcDbCircle
 10
0.7851195205961545
 20
-0.1533009260254978
 30
0.0
 40
0.7558293978721417
100
AcDbArc
 50
107.1297598651111
 51
168.2978071206914
  0
LINE
  5
3487
330
8FC
100
AcDbEntity
  8
0
100
AcDbLine
 10
1.624999999999986
 20
2.229000000000003
 30
0.0
 11
1.624999999999986
 21
2.728000000000002
 31
0.0
  0
LINE
  5
3488
330
8FC
100
AcDbEntity
  8
0
100
AcDbLine
 10
1.579999999999998
 20
2.229000000000003
 30
0.0
 11
1.579999999999984
 21
2.728000000000002
 31
0.0
  0
ARC
  5
3489
330
8FC
100
AcDbEntity
  8
0
100
AcDbCircle
 10
1.694999999999993
 20
2.229000000000003
 30
0.0
 40
0.07
100
AcDbArc
 50
180.0
 51
269.9999999999998
  0
ARC
  5
348A
330
8FC
100
AcDbEntity
  8
0
100
AcDbCircle
 10
1.694999999999993
 20
2.229000000000003
 30
0.0
 40
0.115
100
AcDbArc
 50
180.0
 51
269.9999999999998
  0
LINE
  5
348B
330
8FC
100
AcDbEntity
  8
0
100
AcDbLine
 10
1.624999999999986
 20
2.728000000000002
 30
0.0
 11
1.579999999999984
 21
2.728000000000002
 31
0.0
  0
ARC
  5
348C
330
8FC
100
AcDbEntity
  8
0
100
AcDbCircle
 10
0.8398804794038171
 20
2.881300926025499
 30
0.0
 40
0.7558293978721417
100
AcDbArc
 50
287.1297598651109
 51
348.2978071206914
  0
LINE
  5
34B9
330
8FC
100
AcDbEntity
  8
HIDDEN
100
AcDbLine
 10
1.476999999999997
 20
0.4439999999999991
 30
0.0
 11
1.476999999999997
 21
0.4890000000000008
 31
0.0
  0
LINE
  5
34BA
330
8FC
100
AcDbEntity
  8
HIDDEN
100
AcDbLine
 10
2.335499999999996
 20
0.4439999999999991
 30
0.0
 11
2.335499999999996
 21
0.4890000000000008
 31
0.0
  0
LINE
  5
34BB
330
8FC
100
AcDbEntity
  8
HIDDEN
100
AcDbLine
 10
-0.7105000000000104
 20
2.239000000000004
 30
0.0
 11
-0.7105000000000104
 21
2.284000000000003
 31
0.0
  0
LINE
  5
34BC
330
8FC
100
AcDbEntity
  8
HIDDEN
100
AcDbLine
 10
0.1479999999999819
 20
2.239000000000004
 30
0.0
 11
0.1479999999999819
 21
2.284000000000003
 31
0.0
  0
MTEXT
  5
3711
330
8FC
100
AcDbEntity
  8
DIM
100
AcDbMText
 10
15.76220822165131
 20
14.68274520923195
 30
0.0
 40
0.18
 41
2.272299178371839
 71
     1
 72
     1
  1
\A1;
 73
     1
 44
1.0
  0
LINE
  5
3D31
330
8FC
100
AcDbEntity
  8
0
100
AcDbLine
 10
1.694999999999993
 20
2.159000000000003
 30
0.0
 11
4.612860947935758
 21
2.159000000000003
 31
0.0
  0
ELLIPSE
  5
43B7
330
8FC
100
AcDbEntity
  8
0
100
AcDbEllipse
 10
-2.625000000000011
 20
2.173020333176496
 30
0.0
 11
0.1014587669209979
 21
1.316278149374895E-14
 31
0.0
210
0.0
220
0.0
230
1.0
 40
0.5223718358018543
 41
3.539637086356068
 42
5.885140874412814
  0
ARC
  5
43BC
330
8FC
100
AcDbEntity
  8
0
100
AcDbCircle
 10
-2.736002241872141
 20
2.132631675484582
 30
0.0
 40
0.0264429000927387
100
AcDbArc
 50
48.63338357809853
 51
90.0
  0
ARC
  5
43BD
330
8FC
100
AcDbEntity
  8
0
100
AcDbCircle
 10
-2.513997758127895
 20
2.132631675484582
 30
0.0
 40
0.0264429000927387
100
AcDbArc
 50
90.0
 51
131.3666164219015
  0
ELLIPSE
  5
43BE
330
8FC
100
AcDbEntity
  8
0
100
AcDbEllipse
 10
-2.000000000000007
 20
2.173020333176496
 30
0.0
 11
0.1014587669209979
 21
1.316278149374895E-14
 31
0.0
210
0.0
220
0.0
230
1.0
 40
0.5223718358018543
 41
3.539637086356068
 42
5.885140874412814
  0
ARC
  5
43BF
330
8FC
100
AcDbEntity
  8
0
100
AcDbCircle
 10
-2.111002241872138
 20
2.132631675484582
 30
0.0
 40
0.0264429000927387
100
AcDbArc
 50
48.63338357809853
 51
90.0
  0
ARC
  5
43C0
330
8FC
100
AcDbEntity
  8
0
100
AcDbCircle
 10
-1.888997758127891
 20
2.132631675484582
 30
0.0
 40
0.0264429000927387
100
AcDbArc
 50
90.0
 51
131.3666164219015
  0
ELLIPSE
  5
43C1
330
8FC
100
AcDbEntity
  8
0
100
AcDbEllipse
 10
-1.375000000000007
 20
2.173020333176496
 30
0.0
 11
0.1014587669209979
 21
1.316278149374895E-14
 31
0.0
210
0.0
220
0.0
230
1.0
 40
0.5223718358018543
 41
3.539637086356068
 42
5.885140874412814
  0
ARC
  5
43C2
330
8FC
100
AcDbEntity
  8
0
100
AcDbCircle
 10
-1.486002241872138
 20
2.132631675484582
 30
0.0
 40
0.0264429000927387
100
AcDbArc
 50
48.63338357809853
 51
90.0
  0
ARC
  5
43C3
330
8FC
100
AcDbEntity
  8
0
100
AcDbCircle
 10
-1.263997758127891
 20
2.132631675484582
 30
0.0
 40
0.0264429000927387
100
AcDbArc
 50
90.0
 51
131.3666164219015
  0
ELLIPSE
  5
43C4
330
8FC
100
AcDbEntity
  8
0
100
AcDbEllipse
 10
3.000000000000007
 20
2.173020333176496
 30
0.0
 11
0.1014587669209979
 21
1.316278149374895E-14
 31
0.0
210
0.0
220
0.0
230
1.0
 40
0.5223718358018543
 41
3.539637086356068
 42
5.885140874412814
  0
ARC
  5
43C5
330
8FC
100
AcDbEntity
  8
0
100
AcDbCircle
 10
2.888997758127877
 20
2.132631675484582
 30
0.0
 40
0.0264429000927387
100
AcDbArc
 50
48.63338357809853
 51
90.0
  0
ARC
  5
43C6
330
8FC
100
AcDbEntity
  8
0
100
AcDbCircle
 10
3.111002241872123
 20
2.132631675484582
 30
0.0
 40
0.0264429000927387
100
AcDbArc
 50
90.0
 51
131.3666164219015
  0
ELLIPSE
  5
43C7
330
8FC
100
AcDbEntity
  8
0
100
AcDbEllipse
 10
3.625000000000007
 20
2.173020333176496
 30
0.0
 11
0.1014587669209979
 21
1.316278149374895E-14
 31
0.0
210
0.0
220
0.0
230
1.0
 40
0.5223718358018543
 41
3.539637086356068
 42
5.885140874412814
  0
ARC
  5
43C8
330
8FC
100
AcDbEntity
  8
0
100
AcDbCircle
 10
3.513997758127877
 20
2.132631675484582
 30
0.0
 40
0.0264429000927387
100
AcDbArc
 50
48.63338357809853
 51
90.0
  0
ARC
  5
43C9
330
8FC
100
AcDbEntity
  8
0
100
AcDbCircle
 10
3.736002241872122
 20
2.132631675484582
 30
0.0
 40
0.0264429000927387
100
AcDbArc
 50
90.0
 51
131.3666164219015
  0
ELLIPSE
  5
43CA
330
8FC
100
AcDbEntity
  8
0
100
AcDbEllipse
 10
4.250000000000007
 20
2.173020333176496
 30
0.0
 11
0.1014587669209979
 21
1.316278149374895E-14
 31
0.0
210
0.0
220
0.0
230
1.0
 40
0.5223718358018543
 41
3.539637086356068
 42
5.885140874412814
  0
ARC
  5
43CB
330
8FC
100
AcDbEntity
  8
0
100
AcDbCircle
 10
4.138997758127879
 20
2.132631675484582
 30
0.0
 40
0.0264429000927387
100
AcDbArc
 50
48.63338357809853
 51
90.0
  0
ARC
  5
43CC
330
8FC
100
AcDbEntity
  8
0
100
AcDbCircle
 10
4.361002241872122
 20
2.132631675484582
 30
0.0
 40
0.0264429000927387
100
AcDbArc
 50
90.0
 51
131.3666164219015
  0
ELLIPSE
  5
43CE
330
8FC
100
AcDbEntity
  8
0
100
AcDbEllipse
 10
-2.625000000000011
 20
0.5549796668235061
 30
0.0
 11
0.1014587669209979
 21
-1.316278149374895E-14
 31
0.0
210
0.0
220
0.0
230
-1.0
 40
0.5223718358018543
 41
3.539637086356068
 42
5.885140874412814
  0
ARC
  5
43CF
330
8FC
100
AcDbEntity
  8
0
100
AcDbCircle
 10
-2.736002241872141
 20
0.5953683245154195
 30
0.0
 40
0.0264429000927387
100
AcDbArc
 50
270.0
 51
311.3666164219015
  0
ARC
  5
43D0
330
8FC
100
AcDbEntity
  8
0
100
AcDbCircle
 10
-2.513997758127895
 20
0.5953683245154195
 30
0.0
 40
0.0264429000927387
100
AcDbArc
 50
228.6333835780986
 51
270.0
  0
ELLIPSE
  5
43D1
330
8FC
100
AcDbEntity
  8
0
100
AcDbEllipse
 10
-2.000000000000007
 20
0.5549796668235061
 30
0.0
 11
0.1014587669209979
 21
-1.316278149374895E-14
 31
0.0
210
0.0
220
0.0
230
-1.0
 40
0.5223718358018543
 41
3.539637086356068
 42
5.885140874412814
  0
ARC
  5
43D2
330
8FC
100
AcDbEntity
  8
0
100
AcDbCircle
 10
-2.111002241872138
 20
0.5953683245154195
 30
0.0
 40
0.0264429000927387
100
AcDbArc
 50
270.0
 51
311.3666164219015
  0
ARC
  5
43D3
330
8FC
100
AcDbEntity
  8
0
100
AcDbCircle
 10
-1.888997758127891
 20
0.5953683245154195
 30
0.0
 40
0.0264429000927387
100
AcDbArc
 50
228.6333835780986
 51
270.0
  0
ELLIPSE
  5
43D4
330
8FC
100
AcDbEntity
  8
0
100
AcDbEllipse
 10
-1.375000000000007
 20
0.5549796668235061
 30
0.0
 11
0.1014587669209979
 21
-1.316278149374895E-14
 31
0.0
210
0.0
220
0.0
230
-1.0
 40
0.5223718358018543
 41
3.539637086356068
 42
5.885140874412814
  0
ARC
  5
43D5
330
8FC
100
AcDbEntity
  8
0
100
AcDbCircle
 10
-1.486002241872138
 20
0.5953683245154195
 30
0.0
 40
0.0264429000927387
100
AcDbArc
 50
270.0
 51
311.3666164219015
  0
ELLIPSE
  5
43D6
330
8FC
100
AcDbEntity
  8
0
100
AcDbEllipse
 10
3.000000000000007
 20
0.5549796668235025
 30
0.0
 11
0.1014587669209979
 21
-1.316278149374895E-14
 31
0.0
210
0.0
220
0.0
230
-1.0
 40
0.5223718358018543
 41
3.539637086356068
 42
5.885140874412814
  0
ARC
  5
43D7
330
8FC
100
AcDbEntity
  8
0
100
AcDbCircle
 10
2.888997758127877
 20
0.595368324515416
 30
0.0
 40
0.0264429000927387
100
AcDbArc
 50
270.0
 51
311.3666164219014
  0
ARC
  5
43D8
330
8FC
100
AcDbEntity
  8
0
100
AcDbCircle
 10
3.111002241872123
 20
0.595368324515416
 30
0.0
 40
0.0264429000927387
100
AcDbArc
 50
228.6333835780986
 51
270.0
  0
ELLIPSE
  5
43D9
330
8FC
100
AcDbEntity
  8
0
100
AcDbEllipse
 10
3.625000000000007
 20
0.5549796668235025
 30
0.0
 11
0.1014587669209979
 21
-1.316278149374895E-14
 31
0.0
210
0.0
220
0.0
230
-1.0
 40
0.5223718358018543
 41
3.539637086356068
 42
5.885140874412814
  0
ARC
  5
43DA
330
8FC
100
AcDbEntity
  8
0
100
AcDbCircle
 10
3.513997758127877
 20
0.595368324515416
 30
0.0
 40
0.0264429000927387
100
AcDbArc
 50
270.0
 51
311.3666164219014
  0
ARC
  5
43DB
330
8FC
100
AcDbEntity
  8
0
100
AcDbCircle
 10
3.736002241872122
 20
0.595368324515416
 30
0.0
 40
0.0264429000927387
100
AcDbArc
 50
228.6333835780986
 51
270.0
  0
ELLIPSE
  5
43DC
330
8FC
100
AcDbEntity
  8
0
100
AcDbEllipse
 10
4.250000000000007
 20
0.5549796668235025
 30
0.0
 11
0.1014587669209979
 21
-1.316278149374895E-14
 31
0.0
210
0.0
220
0.0
230
-1.0
 40
0.5223718358018543
 41
3.539637086356068
 42
5.885140874412814
  0
ARC
  5
43DD
330
8FC
100
AcDbEntity
  8
0
100
AcDbCircle
 10
4.138997758127879
 20
0.595368324515416
 30
0.0
 40
0.0264429000927387
100
AcDbArc
 50
270.0
 51
311.3666164219014
  0
ARC
  5
43DE
330
8FC
100
AcDbEntity
  8
0
100
AcDbCircle
 10
4.361002241872122
 20
0.595368324515416
 30
0.0
 40
0.0264429000927387
100
AcDbArc
 50
228.6333835780986
 51
270.0
  0
LINE
  5
43E2
330
8FC
100
AcDbEntity
  8
0
100
AcDbLine
 10
0.0212414379544654
 20
0.5689999999999991
 30
0.0
 11
4.612860947935786
 21
0.5690000000000026
 31
0.0
  0
ARC
  5
43E9
330
8FC
100
AcDbEntity
  8
0
100
AcDbCircle
 10
-1.263997758126228
 20
0.5953683245154195
 30
0.0
 40
0.0264429000927387
100
AcDbArc
 50
228.6333835780986
 51
270.0
  0
ENDSEC
  0
SECTION
  2
OBJECTS
  0
DICTIONARY
  5
8EA
330
0
100
AcDbDictionary
281
     1
  3
ACAD_COLOR
350
AE5
  3
ACAD_GROUP
350
8EB
  3
ACAD_LAYOUT
350
8F7
  3
ACAD_MATERIAL
350
AE4
  3
ACAD_MLINESTYLE
350
8F4
  3
ACAD_PLOTSETTINGS
350
8F6
  3
ACAD_PLOTSTYLENAME
350
8EC
  3
ACAD_TABLESTYLE
350
AE6
  3
AcadDim
350
370F
  3
ACDBHEADERROUNDTRIPXREC
350
49FD
  3
AcDbVariableDictionary
350
A04
  3
ASE_INDEX_DICTIONARY
350
49D6
  0
DICTIONARY
  5
AF5
330
8E0
100
AcDbDictionary
280
     1
281
     1
  3
ACAD_LAYERFILTERS
360
436C
  3
ACAD_LAYERSTATES
360
AF6
  3
ACLYDICTIONARY
360
436B
  0
DICTIONARY
  5
9D1
330
8FC
100
AcDbDictionary
280
     1
281
     1
  3
ACAD_SORTENTS
360
104A
  0
DICTIONARY
  5
AE5
102
{ACAD_REACTORS
330
8EA
102
}
330
8EA
100
AcDbDictionary
281
     1
  0
DICTIONARY
  5
8EB
102
{ACAD_REACTORS
330
8EA
102
}
330
8EA
100
AcDbDictionary
281
     1
  0
DICTIONARY
  5
8F7
102
{ACAD_REACTORS
330
8EA
102
}
330
8EA
100
AcDbDictionary
281
     1
  3
Layout1
350
8FB
  3
Model
350
8FF
  0
DICTIONARY
  5
AE4
102
{ACAD_REACTORS
330
8EA
102
}
330
8EA
100
AcDbDictionary
281
     1
  0
DICTIONARY
  5
8F4
102
{ACAD_REACTORS
330
8EA
102
}
330
8EA
100
AcDbDictionary
281
     1
  3
Standard
350
8F5
  0
DICTIONARY
  5
8F6
102
{ACAD_REACTORS
330
8EA
102
}
330
8EA
100
AcDbDictionary
281
     1
  0
ACDBDICTIONARYWDFLT
  5
8EC
102
{ACAD_REACTORS
330
8EA
102
}
330
8EA
100
AcDbDictionary
281
     1
  3
Normal
350
8ED
100
AcDbDictionaryWithDefault
340
8ED
  0
DICTIONARY
  5
AE6
102
{ACAD_REACTORS
330
8EA
102
}
330
8EA
100
AcDbDictionary
281
     1
  3
Standard
350
AE7
  0
XRECORD
  5
370F
102
{ACAD_REACTORS
330
8EA
102
}
330
8EA
100
AcDbXrecord
280
     1
 90
   990106
  3

 60
     0
 61
     0
 62
     1
 63
     3
 64
     0
 65
     0
 66
     0
 67
     3
 68
     1
 69
     0
 70
     0
 71
     0
 72
     0
 40
2.272299178371839
170
     0
340
0
  0
DICTIONARY
  5
49FD
102
{ACAD_REACTORS
330
8EA
102
}
330
8EA
100
AcDbDictionary
281
     1
  3
COLORDICT
350
49FE
  3
MATERIALDICT
350
49FF
  0
DICTIONARY
  5
A04
102
{ACAD_REACTORS
330
8EA
102
}
330
8EA
100
AcDbDictionary
281
     1
  3
CTABLESTYLE
350
B9E
  3
DIMASSOC
350
A06
  3
HIDETEXT
350
A05
  0
DICTIONARY
  5
49D6
102
{ACAD_REACTORS
330
8EA
102
}
330
8EA
100
AcDbDictionary
281
     1
  3
ASEBlockHierarchyIndexRecord
350
49D7
1001
DCO15
1040
1650279567.359
  0
DICTIONARY
  5
436C
102
{ACAD_REACTORS
330
AF5
102
}
330
AF5
100
AcDbDictionary
281
     1
  0
DICTIONARY
  5
AF6
102
{ACAD_REACTORS
330
AF5
102
}
330
AF5
100
AcDbDictionary
281
     1
  0
DICTIONARY
  5
436B
102
{ACAD_REACTORS
330
AF5
102
}
330
AF5
100
AcDbDictionary
281
     1
1001
ACAD
1000
<All
  0
SORTENTSTABLE
  5
104A
102
{ACAD_REACTORS
330
9D1
102
}
330
9D1
100
AcDbSortentsTable
330
8FC
331
0
  5
33DF
331
3457
  5
345E
331
346B
  5
3472
331
43B7
  5
43C5
331
3447
  5
344E
331
43DC
  5
43E6
331
7F9
  5
7F9
331
7E2
  5
7E2
331
7BA
  5
7BA
331
43C3
  5
43CE
331
43C4
  5
43CF
331
43D0
  5
43DA
331
3486
  5
348D
331
3481
  5
348B
331
3488
  5
348F
331
43C7
  5
43D2
331
3D31
  5
3E27
331
347E
  5
3488
331
347F
  5
3489
331
3476
  5
347D
331
43BC
  5
43C6
331
43DA
  5
43E4
331
3477
  5
347E
331
3478
  5
347F
331
34BC
  5
34C3
331
346F
  5
3478
331
43D4
  5
43DE
331
3448
  5
344F
331
43C0
  5
43CA
331
342D
  5
3434
331
3452
  5
3459
331
344D
  5
3454
331
3454
  5
345B
331
344F
  5
3456
331
3439
  5
3440
331
344C
  5
3453
331
3441
  5
3448
331
342B
  5
3432
331
3467
  5
346E
331
344E
  5
3455
331
347A
  5
3481
331
43D5
  5
43DF
331
3446
  5
344D
331
342C
  5
3433
331
43D2
  5
43DC
331
346E
  5
3477
331
3424
  5
342B
331
43D1
  5
43DB
331
3429
  5
3430
331
348A
  5
3491
331
43D7
  5
43E1
331
3442
  5
3449
331
3470
  5
3479
331
3443
  5
344A
331
3445
  5
344C
331
344B
  5
3452
331
3468
  5
346F
331
3434
  5
343B
331
43BF
  5
43C9
331
343D
  5
3444
331
3433
  5
343A
331
343B
  5
3442
331
3451
  5
3458
331
3463
  5
346A
331
341D
  5
3420
331
3430
  5
3437
331
3471
  5
347A
331
3472
  5
347B
331
3711
  5
3830
331
342F
  5
3436
331
3432
  5
3439
331
3462
  5
3469
331
343E
  5
3445
331
34BB
  5
34C2
331
3444
  5
344B
331
43DB
  5
43E5
331
43E9
  5
43E9
331
3465
  5
346C
331
3427
  5
342E
331
347C
  5
3486
331
3428
  5
342F
331
343A
  5
3441
331
43C5
  5
43D0
331
341B
  5
341F
331
345E
  5
3465
331
43C8
  5
43D3
331
345A
  5
3461
331
43C1
  5
43CB
331
342A
  5
3431
331
3461
  5
3468
331
341A
  5
341A
331
43C9
  5
43D4
331
43CA
  5
43D5
331
43CB
  5
43D6
331
43CC
  5
43D7
331
345C
  5
3463
331
346C
  5
3475
331
43D9
  5
43E3
331
43DD
  5
43E7
331
3458
  5
345F
331
3466
  5
346D
331
342E
  5
3435
331
3487
  5
348E
331
343C
  5
3443
331
3425
  5
342C
331
345D
  5
3464
331
348B
  5
3492
331
3435
  5
343C
331
347B
  5
3485
331
341F
  5
3425
331
43D3
  5
43DD
331
3489
  5
3490
331
3437
  5
343E
331
34B9
  5
34C0
331
3453
  5
345A
331
3419
  5
3419
331
3469
  5
3470
331
3422
  5
342A
331
3436
  5
343D
331
43DE
  5
43E8
331
43C2
  5
43CC
331
3438
  5
343F
331
3459
  5
3460
331
3440
  5
3447
331
43CE
  5
43D8
331
3431
  5
3438
331
345B
  5
3462
331
3455
  5
345C
331
347D
  5
3487
331
346D
  5
3476
331
3464
  5
346B
331
348C
  5
3493
331
3456
  5
345D
331
345F
  5
3466
331
346A
  5
3471
331
43BD
  5
43C7
331
3449
  5
3450
331
3426
  5
342D
331
343F
  5
3446
331
344A
  5
3451
331
3479
  5
3480
331
3460
  5
3467
331
3421
  5
3429
331
3450
  5
3457
331
3480
  5
348A
331
3475
  5
347C
331
43D6
  5
43E0
331
43E2
  5
3428
331
43CF
  5
43D9
331
43C6
  5
43D1
331
43BE
  5
43C8
331
34BA
  5
34C1
331
43D8
  5
43E2
  0
LAYOUT
  5
8FB
102
{ACAD_REACTORS
330
8F7
102
}
102
{ACAD_XDICTIONARY
360
4A00
102
}
330
8F7
100
AcDbPlotSettings
  1

  2
hp psc 2100 series
  4

  6

 40
0.0
 41
0.0
 42
0.0
 43
0.0
 44
0.0
 45
0.0
 46
0.0
 47
0.0
 48
0.0
 49
0.0
140
0.0
141
0.0
142
1.0
143
1.0
 70
   688
 72
     0
 73
     0
 74
     5
  7
monochrome.ctb
 75
    16
147
1.0
148
0.0
149
0.0
100
AcDbLayout
  1
Layout1
 70
     0
 71
     1
 10
0.0
 20
0.0
 11
12.0
 21
9.0
 12
0.0
 22
0.0
 32
0.0
 14
1.000000000000000E+20
 24
1.000000000000000E+20
 34
1.000000000000000E+20
 15
-1.000000000000000E+20
 25
-1.000000000000000E+20
 35
-1.000000000000000E+20
146
0.0
 13
0.0
 23
0.0
 33
0.0
 16
1.0
 26
0.0
 36
0.0
 17
0.0
 27
1.0
 37
0.0
 76
     0
330
8F8
  0
LAYOUT
  5
8FF
102
{ACAD_REACTORS
330
8F7
102
}
102
{ACAD_XDICTIONARY
360
4A02
102
}
330
8F7
100
AcDbPlotSettings
  1

  2
HP LaserJet 2100 Series PS
  4
Letter
  6

 40
5.365749835968018
 41
5.408073902130127
 42
5.132904052734375
 43
5.090576171875
 44
215.8999938964844
 45
279.3999938964844
 46
0.0
 47
0.0
 48
0.0
 49
0.0
140
0.0
141
0.0
142
1.0
143
1.983627126654061
 70
 28336
 72
     0
 73
     1
 74
     2
  7
monochrome.ctb
 75
     0
147
0.5041270037916745
148
0.0
149
0.0
100
AcDbLayout
  1
Model
 70
     1
 71
     0
 10
0.0
 20
0.0
 11
12.0
 21
9.0
 12
0.0
 22
0.0
 32
0.0
 14
0.0
 24
0.0
 34
0.0
 15
0.0
 25
0.0
 35
0.0
146
0.0
 13
0.0
 23
0.0
 33
0.0
 16
1.0
 26
0.0
 36
0.0
 17
0.0
 27
1.0
 37
0.0
 76
     0
330
8FC
1001
ACAD_PSEXT
1000
HP LaserJet 2100 Series PS
1000
HP LaserJet 2100 Series PS
1000
LPT1:
1000

1070
     0
  0
MLINESTYLE
  5
8F5
102
{ACAD_REACTORS
330
8F4
102
}
330
8F4
100
AcDbMlineStyle
  2
STANDARD
 70
     0
  3

 62
   256
 51
90.0
 52
90.0
 71
     2
 49
0.5
 62
   256
  6
BYLAYER
 49
-0.5
 62
   256
  6
BYLAYER
  0
ACDBPLACEHOLDER
  5
8ED
102
{ACAD_REACTORS
330
8EC
102
}
330
8EC
  0
ACAD_PROXY_OBJECT
  5
AE7
102
{ACAD_REACTORS
330
AE6
102
}
330
AE6
100
AcDbProxyObject
 90
      499
 91
      512
 95
   983063
 70
     0
 93
     1841
310
4214DD185B99185C9928B81E85EB51B8AE3F2E07A17AD46E2B8FC02B5E8DC0F42B1CFD028000000C1008070000C3001FDFF8000000C1003FBFF000000182007F7FE00000030400FEFFC00000060801FDFF8000000C1003FBFF00000018200000000000000681FA0B0000001820100E000186003FBFF000000182007F7FE000
310
00030400FEFFC00000060801FDFF8000000C1003FBFF000000182007F7FE000000304000AD7A3703D0AC73F4160000003040201C00030C007F7FE00000030400FEFFC00000060801FDFF8000000C1003FBFF000000182007F7FE00000030400FEFFC000000608000
340
8EF
340
8EF
340
8EF
 94
        0
  0
XRECORD
  5
49FE
102
{ACAD_REACTORS
330
49FD
102
}
330
49FD
100
AcDbXrecord
340
AE5
  0
XRECORD
  5
49FF
102
{ACAD_REACTORS
330
49FD
102
}
330
49FD
100
AcDbXrecord
340
AE4
  0
DICTIONARYVAR
  5
B9E
102
{ACAD_REACTORS
330
A04
102
}
330
A04
100
DictionaryVariables
280
     0
  1
STANDARD
  0
DICTIONARYVAR
  5
A06
102
{ACAD_REACTORS
330
A04
102
}
330
A04
100
DictionaryVariables
280
     0
  1
2
  0
DICTIONARYVAR
  5
A05
102
{ACAD_REACTORS
330
A04
102
}
330
A04
100
DictionaryVariables
280
     0
  1
1
  0
XRECORD
  5
49D7
102
{ACAD_REACTORS
330
49D6
102
}
330
49D6
100
AcDbXrecord
280
     1
  0
DICTIONARY
  5
4A00
330
8FB
100
AcDbDictionary
280
     1
281
     1
  3
ACAD_XREC_ROUNDTRIP
360
4A01
  0
DICTIONARY
  5
4A02
330
8FF
100
AcDbDictionary
280
     1
281
     1
  3
ACAD_XREC_ROUNDTRIP
360
4A03
  0
XRECORD
  5
4A01
102
{ACAD_REACTORS
330
4A00
102
}
330
4A00
100
AcDbXrecord
102
SHADEPLOT
 70
     0
102
SHADEPLOTRESLEVEL
 70
     2
102
SHADEPLOTCUSTOMDPI
 70
   300
  0
XRECORD
  5
4A03
102
{ACAD_REACTORS
330
4A02
102
}
330
4A02
100
AcDbXrecord
102
SHADEPLOT
 70
     0
102
SHADEPLOTRESLEVEL
 70
     2
102
SHADEPLOTCUSTOMDPI
 70
   300
  0
ENDSEC
  0
EOF
