  0
SECTION
  2
HEADER
  9
$ACADVER
  1
AC1015
  9
$ACADMAINTVER
 70
     6
  9
$DWGCODEPAGE
  3
ANSI_1252
  9
$INSBASE
 10
0.0
 20
0.0
 30
0.0
  9
$EXTMIN
 10
-8.512924091255002
 20
0.0
 30
0.0
  9
$EXTMAX
 10
31.5
 20
30.4308926205936
 30
0.0
  9
$LIMMIN
 10
0.0
 20
0.0
  9
$LIMMAX
 10
31.5
 20
24.0
  9
$ORTHOMODE
 70
     1
  9
$REGENMODE
 70
     1
  9
$FILLMODE
 70
     1
  9
$QTEXTMODE
 70
     0
  9
$MIRRTEXT
 70
     0
  9
$LTSCALE
 40
0.5
  9
$ATTMODE
 70
     1
  9
$TEXTSIZE
 40
0.27
  9
$TRACEWID
 40
0.05
  9
$TEXTSTYLE
  7
STANDARD
  9
$CLAYER
  8
0
  9
$CELTYPE
  6
BYLAYER
  9
$CECOLOR
 62
   256
  9
$CELTSCALE
 40
1.0
  9
$DISPSILH
 70
     0
  9
$DIMSCALE
 40
1.0
  9
$DIMASZ
 40
0.375
  9
$DIMEXO
 40
0.0625
  9
$DIMDLI
 40
0.75
  9
$DIMRND
 40
0.0
  9
$DIMDLE
 40
0.0
  9
$DIMEXE
 40
0.18
  9
$DIMTP
 40
0.0
  9
$DIMTM
 40
0.0
  9
$DIMTXT
 40
0.27
  9
$DIMCEN
 40
-0.06
  9
$DIMTSZ
 40
0.0
  9
$DIMTOL
 70
     0
  9
$DIMLIM
 70
     0
  9
$DIMTIH
 70
     1
  9
$DIMTOH
 70
     1
  9
$DIMSE1
 70
     0
  9
$DIMSE2
 70
     0
  9
$DIMTAD
 70
     0
  9
$DIMZIN
 70
     0
  9
$DIMBLK
  1

  9
$DIMASO
 70
     0
  9
$DIMSHO
 70
     0
  9
$DIMPOST
  1

  9
$DIMAPOST
  1

  9
$DIMALT
 70
     0
  9
$DIMALTD
 70
     2
  9
$DIMALTF
 40
25.4
  9
$DIMLFAC
 40
1.0
  9
$DIMTOFL
 70
     0
  9
$DIMTVP
 40
0.0
  9
$DIMTIX
 70
     0
  9
$DIMSOXD
 70
     0
  9
$DIMSAH
 70
     0
  9
$DIMBLK1
  1

  9
$DIMBLK2
  1

  9
$DIMSTYLE
  2
STANDARD
  9
$DIMCLRD
 70
     0
  9
$DIMCLRE
 70
     0
  9
$DIMCLRT
 70
     0
  9
$DIMTFAC
 40
1.0
  9
$DIMGAP
 40
0.09
  9
$DIMJUST
 70
     0
  9
$DIMSD1
 70
     0
  9
$DIMSD2
 70
     0
  9
$DIMTOLJ
 70
     1
  9
$DIMTZIN
 70
     0
  9
$DIMALTZ
 70
     0
  9
$DIMALTTZ
 70
     0
  9
$DIMUPT
 70
     0
  9
$DIMDEC
 70
     5
  9
$DIMTDEC
 70
     4
  9
$DIMALTU
 70
     2
  9
$DIMALTTD
 70
     2
  9
$DIMTXSTY
  7
STANDARD
  9
$DIMAUNIT
 70
     0
  9
$DIMADEC
 70
     0
  9
$DIMALTRND
 40
0.0
  9
$DIMAZIN
 70
     0
  9
$DIMDSEP
 70
    46
  9
$DIMATFIT
 70
     3
  9
$DIMFRAC
 70
     2
  9
$DIMLDRBLK
  1

  9
$DIMLUNIT
 70
     5
  9
$DIMLWD
 70
    -2
  9
$DIMLWE
 70
    -2
  9
$DIMTMOVE
 70
     2
  9
$LUNITS
 70
     2
  9
$LUPREC
 70
     4
  9
$SKETCHINC
 40
0.1
  9
$FILLETRAD
 40
0.0
  9
$AUNITS
 70
     0
  9
$AUPREC
 70
     0
  9
$MENU
  1
ACAD
  9
$ELEVATION
 40
0.0
  9
$PELEVATION
 40
0.0
  9
$THICKNESS
 40
0.0
  9
$LIMCHECK
 70
     0
  9
$CHAMFERA
 40
0.0
  9
$CHAMFERB
 40
0.0
  9
$CHAMFERC
 40
0.0
  9
$CHAMFERD
 40
0.0
  9
$SKPOLY
 70
     0
  9
$TDCREATE
 40
2449448.734321528
  9
$TDUCREATE
 40
2449449.067654861
  9
$TDUPDATE
 40
2454903.957889086
  9
$TDUUPDATE
 40
2454904.291222419
  9
$TDINDWG
 40
0.0957060417
  9
$TDUSRTIMER
 40
0.0957060417
  9
$USRTIMER
 70
     1
  9
$ANGBASE
 50
0.0
  9
$ANGDIR
 70
     0
  9
$PDMODE
 70
     0
  9
$PDSIZE
 40
0.0
  9
$PLINEWID
 40
0.0
  9
$SPLFRAME
 70
     0
  9
$SPLINETYPE
 70
     6
  9
$SPLINESEGS
 70
     8
  9
$HANDSEED
  5
11BA
  9
$SURFTAB1
 70
     6
  9
$SURFTAB2
 70
     6
  9
$SURFTYPE
 70
     6
  9
$SURFU
 70
     6
  9
$SURFV
 70
     6
  9
$UCSBASE
  2

  9
$UCSNAME
  2

  9
$UCSORG
 10
0.0
 20
0.0
 30
0.0
  9
$UCSXDIR
 10
1.0
 20
0.0
 30
0.0
  9
$UCSYDIR
 10
0.0
 20
1.0
 30
0.0
  9
$UCSORTHOREF
  2

  9
$UCSORTHOVIEW
 70
     0
  9
$UCSORGTOP
 10
0.0
 20
0.0
 30
0.0
  9
$UCSORGBOTTOM
 10
0.0
 20
0.0
 30
0.0
  9
$UCSORGLEFT
 10
0.0
 20
0.0
 30
0.0
  9
$UCSORGRIGHT
 10
0.0
 20
0.0
 30
0.0
  9
$UCSORGFRONT
 10
0.0
 20
0.0
 30
0.0
  9
$UCSORGBACK
 10
0.0
 20
0.0
 30
0.0
  9
$PUCSBASE
  2

  9
$PUCSNAME
  2

  9
$PUCSORG
 10
0.0
 20
0.0
 30
0.0
  9
$PUCSXDIR
 10
1.0
 20
0.0
 30
0.0
  9
$PUCSYDIR
 10
0.0
 20
1.0
 30
0.0
  9
$PUCSORTHOREF
  2

  9
$PUCSORTHOVIEW
 70
     0
  9
$PUCSORGTOP
 10
0.0
 20
0.0
 30
0.0
  9
$PUCSORGBOTTOM
 10
0.0
 20
0.0
 30
0.0
  9
$PUCSORGLEFT
 10
0.0
 20
0.0
 30
0.0
  9
$PUCSORGRIGHT
 10
0.0
 20
0.0
 30
0.0
  9
$PUCSORGFRONT
 10
0.0
 20
0.0
 30
0.0
  9
$PUCSORGBACK
 10
0.0
 20
0.0
 30
0.0
  9
$USERI1
 70
     0
  9
$USERI2
 70
     0
  9
$USERI3
 70
     0
  9
$USERI4
 70
     0
  9
$USERI5
 70
     0
  9
$USERR1
 40
0.0
  9
$USERR2
 40
0.0
  9
$USERR3
 40
0.0
  9
$USERR4
 40
0.0
  9
$USERR5
 40
0.0
  9
$WORLDVIEW
 70
     1
  9
$SHADEDGE
 70
     3
  9
$SHADEDIF
 70
    70
  9
$TILEMODE
 70
     1
  9
$MAXACTVP
 70
    16
  9
$PINSBASE
 10
0.0
 20
0.0
 30
0.0
  9
$PLIMCHECK
 70
     0
  9
$PEXTMIN
 10
1.000000000000000E+20
 20
1.000000000000000E+20
 30
1.000000000000000E+20
  9
$PEXTMAX
 10
-1.000000000000000E+20
 20
-1.000000000000000E+20
 30
-1.000000000000000E+20
  9
$PLIMMIN
 10
0.0
 20
0.0
  9
$PLIMMAX
 10
12.0
 20
9.0
  9
$UNITMODE
 70
     0
  9
$VISRETAIN
 70
     0
  9
$PLINEGEN
 70
     0
  9
$PSLTSCALE
 70
     0
  9
$TREEDEPTH
 70
  3020
  9
$CMLSTYLE
  2
STANDARD
  9
$CMLJUST
 70
     0
  9
$CMLSCALE
 40
1.0
  9
$PROXYGRAPHICS
 70
     1
  9
$MEASUREMENT
 70
     0
  9
$CELWEIGHT
370
    -1
  9
$ENDCAPS
280
     0
  9
$JOINSTYLE
280
     0
  9
$LWDISPLAY
290
     0
  9
$INSUNITS
 70
     0
  9
$HYPERLINKBASE
  1

  9
$STYLESHEET
  1
monochrome.ctb
  9
$XEDIT
290
     1
  9
$CEPSNTYPE
380
     0
  9
$PSTYLEMODE
290
     1
  9
$FINGERPRINTGUID
  2
{DEC6D51E-4AE0-11D5-BE3F-00508B5FCD51}
  9
$VERSIONGUID
  2
{90B1621B-5B32-4B80-9F8D-0F830FCDDAB1}
  9
$EXTNAMES
290
     1
  9
$PSVPSCALE
 40
0.0
  9
$OLESTARTUP
290
     0
  0
ENDSEC
  0
SECTION
  2
CLASSES
  0
CLASS
  1
DICTIONARYVAR
  2
AcDbDictionaryVar
  3
AutoCAD 2000
 90
        0
280
     0
281
     0
  0
CLASS
  1
LWPOLYLINE
  2
AcDbPolyline
  3
AutoCAD 2000
 90
        0
280
     0
281
     1
  0
CLASS
  1
ACDBDICTIONARYWDFLT
  2
AcDbDictionaryWithDefault
  3
AutoCAD 2000
 90
        0
280
     0
281
     0
  0
CLASS
  1
ACDBPLACEHOLDER
  2
AcDbPlaceHolder
  3
ObjectDBX Classes
 90
        0
280
     0
281
     0
  0
CLASS
  1
LAYOUT
  2
AcDbLayout
  3
ObjectDBX Classes
 90
        0
280
     0
281
     0
  0
CLASS
  1
LONG_TRANSACTION
  2
AcDbLongTransaction
  3
ObjectDBX Classes
 90
   -65536
280
     1
281
     0
  0
CLASS
  1
LWPOLYLINE
  2
AcDbPolyline
  3
AutoCAD 2000
 90
        0
280
     0
281
     1
  0
CLASS
  1
HATCH
  2
AcDbHatch
  3
AutoCAD 2000
 90
        0
280
     0
281
     1
  0
CLASS
  1
XRECORD
  2
AcDbXrecord
  3
AutoCAD 2000
 90
        0
280
     0
281
     0
  0
CLASS
  1
LONG_TRANSACTION
  2
AcDbLongTransaction
  3
ObjectDBX Classes
 90
   -65536
280
     1
281
     0
  0
CLASS
  1
LWPOLYLINE
  2
AcDbPolyline
  3
AutoCAD 2000
 90
        0
280
     0
281
     1
  0
CLASS
  1
HATCH
  2
AcDbHatch
  3
AutoCAD 2000
 90
        0
280
     0
281
     1
  0
CLASS
  1
XRECORD
  2
AcDbXrecord
  3
AutoCAD 2000
 90
        0
280
     0
281
     0
  0
CLASS
  1
TABLESTYLE
  2
AcDbTableStyle
  3
ObjectDBX Classes
 90
     2047
280
     1
281
     0
  0
CLASS
  1
MATERIAL
  2
AcDbMaterial
  3
ObjectDBX Classes
 90
        0
280
     1
281
     0
  0
CLASS
  1
SORTENTSTABLE
  2
AcDbSortentsTable
  3
AutoCAD 2000
 90
        0
280
     0
281
     0
  0
ENDSEC
  0
SECTION
  2
TABLES
  0
TABLE
  2
VPORT
  5
8
330
0
100
AcDbSymbolTable
 70
     5
  0
VPORT
  5
11A8
330
8
100
AcDbSymbolTableRecord
100
AcDbViewportTableRecord
  2
*Active
 70
     0
 10
0.0
 20
0.0
 11
1.0
 21
1.0
 12
3.544432904140791
 22
9.385806060131131
 13
0.0
 23
0.0
 14
0.0625
 24
0.0625
 15
0.5
 25
0.5
 16
0.0
 26
0.0
 36
1.0
 17
0.0
 27
0.0
 37
0.0
 40
32.88715913991851
 41
1.703065134099617
 42
50.0
 43
0.0
 44
0.0
 50
0.0
 51
0.0
 71
     0
 72
   100
 73
     1
 74
     0
 75
     0
 76
     0
 77
     0
 78
     0
281
     0
 65
     1
110
0.0
120
0.0
130
0.0
111
1.0
121
0.0
131
0.0
112
0.0
122
1.0
132
0.0
 79
     0
146
0.0
  0
ENDTAB
  0
TABLE
  2
LTYPE
  5
5
330
0
100
AcDbSymbolTable
 70
     5
  0
LTYPE
  5
11
330
5
100
AcDbSymbolTableRecord
100
AcDbLinetypeTableRecord
  2
BYBLOCK
 70
     0
  3

 72
    65
 73
     0
 40
0.0
  0
LTYPE
  5
12
330
5
100
AcDbSymbolTableRecord
100
AcDbLinetypeTableRecord
  2
BYLAYER
 70
     0
  3

 72
    65
 73
     0
 40
0.0
  0
LTYPE
  5
13
330
5
100
AcDbSymbolTableRecord
100
AcDbLinetypeTableRecord
  2
CONTINUOUS
 70
     0
  3
Solid line
 72
    65
 73
     0
 40
0.0
  0
LTYPE
  5
3B
330
5
100
AcDbSymbolTableRecord
100
AcDbLinetypeTableRecord
  2
HIDDEN
 70
     0
  3
_ _ _ _ _ _ _ _ _ _ _ _ _ _ _ _ _ _ _ _ _ _ _
 72
    65
 73
     2
 40
0.375
 49
0.25
 74
     0
 49
-0.125
 74
     0
  0
LTYPE
  5
C6C
330
5
100
AcDbSymbolTableRecord
100
AcDbLinetypeTableRecord
  2
HIDDEN2
 70
     0
  3
Hidden (.5x) _ _ _ _ _ _ _ _ _ _ _ _ _ _ _ _ _
 72
    65
 73
     2
 40
0.1875
 49
0.125
 74
     0
 49
-0.0625
 74
     0
  0
ENDTAB
  0
TABLE
  2
LAYER
  5
2
102
{ACAD_XDICTIONARY
360
C79
102
}
330
0
100
AcDbSymbolTable
 70
    13
  0
LAYER
  5
E
330
2
100
AcDbSymbolTableRecord
100
AcDbLayerTableRecord
  2
0
 70
     0
 62
     7
  6
CONTINUOUS
370
    -3
390
769
  0
LAYER
  5
42
330
2
100
AcDbSymbolTableRecord
100
AcDbLayerTableRecord
  2
DIM
 70
     0
 62
     5
  6
CONTINUOUS
370
    -3
390
769
  0
LAYER
  5
C6F
330
2
100
AcDbSymbolTableRecord
100
AcDbLayerTableRecord
  2
DEFPOINTS
 70
     0
 62
     7
  6
CONTINUOUS
290
     0
370
    -3
390
769
1001
RAK
1000
{DIE LAYERS
1070
     0
1070
     7
1000
CONTINUOUS
1000
DIE LAYERS}
1000
{ALL LAYERS
1070
     0
1070
     7
1000
CONTINUOUS
1000
ALL LAYERS}
1000
{DIE W/STRIP
1070
     0
1070
     7
1000
CONTINUOUS
1000
DIE W/STRIP}
1000
{PUNCH LAYERS
1070
     0
1070
    -7
1000
CONTINUOUS
1000
PUNCH LAYERS}
1000
{PUNCH W/STRIP
1070
     0
1070
     7
1000
CONTINUOUS
1000
PUNCH W/STRIP}
1000
{STRIP LAYOUT
1070
     0
1070
    -7
1000
CONTINUOUS
1000
STRIP LAYOUT}
  0
ENDTAB
  0
TABLE
  2
STYLE
  5
3
330
0
100
AcDbSymbolTable
 70
     4
  0
STYLE
  5
F
330
3
100
AcDbSymbolTableRecord
100
AcDbTextStyleTableRecord
  2
STANDARD
 70
     0
 40
0.0
 41
1.0
 50
0.0
 71
     0
 42
0.27
  3
TXT
  4

  0
ENDTAB
  0
TABLE
  2
VIEW
  5
6
330
0
100
AcDbSymbolTable
 70
     0
  0
ENDTAB
  0
TABLE
  2
UCS
  5
7
330
0
100
AcDbSymbolTable
 70
     0
  0
ENDTAB
  0
TABLE
  2
APPID
  5
9
330
0
100
AcDbSymbolTable
 70
     5
  0
APPID
  5
10
330
9
100
AcDbSymbolTableRecord
100
AcDbRegAppTableRecord
  2
ACAD
 70
     0
  0
APPID
  5
A96
330
9
100
AcDbSymbolTableRecord
100
AcDbRegAppTableRecord
  2
DCO15
 70
     0
  0
APPID
  5
C75
330
9
100
AcDbSymbolTableRecord
100
AcDbRegAppTableRecord
  2
RAK
 70
     0
  0
APPID
  5
F2F
330
9
100
AcDbSymbolTableRecord
100
AcDbRegAppTableRecord
  2
ACAD_PSEXT
 70
     0
  0
APPID
  5
10D7
330
9
100
AcDbSymbolTableRecord
100
AcDbRegAppTableRecord
  2
CONTENTBLOCKICON
 70
     0
  0
ENDTAB
  0
TABLE
  2
DIMSTYLE
  5
A
330
0
100
AcDbSymbolTable
 70
     1
100
AcDbDimStyleTable
  0
DIMSTYLE
105
6FD
330
A
100
AcDbSymbolTableRecord
100
AcDbDimStyleTableRecord
  2
STANDARD
 70
     0
  3

  4

340
F
  0
ENDTAB
  0
TABLE
  2
BLOCK_RECORD
  5
1
330
0
100
AcDbSymbolTable
 70
    10
  0
BLOCK_RECORD
  5
17
330
1
100
AcDbSymbolTableRecord
100
AcDbBlockTableRecord
  2
*MODEL_SPACE
340
76C
  0
BLOCK_RECORD
  5
14
330
1
100
AcDbSymbolTableRecord
100
AcDbBlockTableRecord
  2
*PAPER_SPACE
340
76D
  0
ENDTAB
  0
ENDSEC
  0
SECTION
  2
BLOCKS
  0
BLOCK
  5
57
330
17
100
AcDbEntity
  8
0
100
AcDbBlockBegin
  2
*MODEL_SPACE
 70
     0
 10
0.0
 20
0.0
 30
0.0
  3
*MODEL_SPACE
  1

  4

  0
ENDBLK
  5
58
330
17
100
AcDbEntity
  8
0
100
AcDbBlockEnd
  0
BLOCK
  5
55
330
14
100
AcDbEntity
 67
     1
  8
0
100
AcDbBlockBegin
  2
*PAPER_SPACE
 70
     0
 10
0.0
 20
0.0
 30
0.0
  3
*PAPER_SPACE
  1

  4

  0
ENDBLK
  5
56
330
14
100
AcDbEntity
 67
     1
  8
0
100
AcDbBlockEnd
  0
ENDSEC
  0
SECTION
  2
ENTITIES
  0
LINE
  5
592
330
17
100
AcDbEntity
  8
0
100
AcDbLine
 10
-0.5625
 20
3.529358
 30
0.0
 11
-0.5625
 21
20.279358
 31
0.0
  0
LINE
  5
594
330
17
100
AcDbEntity
  8
0
100
AcDbLine
 10
-0.5625
 20
3.029358
 30
0.0
 11
-0.5625
 21
0.1342568713998169
 31
0.0
  0
LINE
  5
595
330
17
100
AcDbEntity
  8
0
100
AcDbLine
 10
0.5625
 20
3.029358
 30
0.0
 11
0.5625
 21
0.1342568713998169
 31
0.0
  0
LINE
  5
5A2
330
17
100
AcDbEntity
  8
0
100
AcDbLine
 10
-8.512924091255002
 20
1.341848999999996
 30
0.0
 11
-8.512924091255002
 21
0.5105731066220969
 31
0.0
  0
ARC
  5
5A3
330
17
100
AcDbEntity
  8
0
100
AcDbCircle
 10
-8.325424091255002
 20
1.341848999999996
 30
0.0
 40
0.1875
100
AcDbArc
 50
90.0
 51
180.0
  0
LINE
  5
5A4
330
17
100
AcDbEntity
  8
0
100
AcDbLine
 10
-8.277455091255003
 20
0.4658399704156082
 30
0.0
 11
-8.277455091255007
 21
20.279358
 31
0.0
  0
LINE
  5
5A5
330
17
100
AcDbEntity
  8
0
100
AcDbLine
 10
-8.325424091255005
 20
20.279358
 30
0.0
 11
-8.325424091255005
 21
0.460924419135555
 31
0.0
  0
LINE
  5
5AD
330
17
100
AcDbEntity
  8
0
100
AcDbLine
 10
0.5625
 20
20.279358
 30
0.0
 11
0.5625
 21
3.529358
 31
0.0
  0
LINE
  5
5AE
330
17
100
AcDbEntity
  8
0
100
AcDbLine
 10
0.5625
 20
20.279358
 30
0.0
 11
-0.5625
 21
20.279358
 31
0.0
  0
POINT
  5
5C7
330
17
100
AcDbEntity
  8
0
100
AcDbPoint
 10
-0.5625
 20
16.279358
 30
0.0
  0
LINE
  5
5C8
330
17
100
AcDbEntity
  8
0
100
AcDbLine
 10
-8.277455091255007
 20
20.279358
 30
0.0
 11
-8.325424091255005
 21
20.279358
 31
0.0
  0
LINE
  5
601
330
17
100
AcDbEntity
  8
0
100
AcDbLine
 10
-0.2866272295787766
 20
0.2793579999999949
 30
0.0
 11
-0.5625000000000036
 21
0.2793579999999984
 31
0.0
  0
LINE
  5
602
330
17
100
AcDbEntity
  8
0
100
AcDbLine
 10
0.2021280236094185
 20
0.0834568713998145
 30
0.0
 11
0.3125
 21
0.0834568713998145
 31
0.0
  0
ARC
  5
603
330
17
100
AcDbEntity
  8
0
100
AcDbCircle
 10
0.0
 20
0.2865000000000002
 30
0.0
 40
0.2865
100
AcDbArc
 50
225.1294059666965
 51
314.8705940333037
  0
LINE
  5
604
330
17
100
AcDbEntity
  8
0
100
AcDbLine
 10
-0.5625
 20
0.1342568713998169
 30
0.0
 11
-0.3125
 21
0.0834568713998145
 31
0.0
  0
LINE
  5
605
330
17
100
AcDbEntity
  8
0
100
AcDbLine
 10
0.5625
 20
0.2793579999999913
 30
0.0
 11
0.2866272295787766
 21
0.2793579999999949
 31
0.0
  0
LINE
  5
606
330
17
100
AcDbEntity
  8
0
100
AcDbLine
 10
-0.5625
 20
0.1850568713998122
 30
0.0
 11
-0.3117217542575546
 21
0.1342568713998169
 31
0.0
  0
LINE
  5
607
330
17
100
AcDbEntity
  8
0
100
AcDbLine
 10
0.2427020391221042
 20
0.1342568713998169
 30
0.0
 11
0.3132782457424455
 21
0.1342568713998169
 31
0.0
  0
LINE
  5
608
330
17
100
AcDbEntity
  8
0
100
AcDbLine
 10
0.3125
 20
0.0834568713998145
 30
0.0
 11
0.3132782457424455
 21
0.1342568713998169
 31
0.0
  0
LINE
  5
609
330
17
100
AcDbEntity
  8
0
100
AcDbLine
 10
-0.3125
 20
0.0834568713998145
 30
0.0
 11
-0.3117217542575546
 21
0.1342568713998169
 31
0.0
  0
LINE
  5
60A
330
17
100
AcDbEntity
  8
0
100
AcDbLine
 10
-0.3125
 20
0.0834568713998145
 30
0.0
 11
0.2021280236094221
 21
0.0834568713998145
 31
0.0
  0
LINE
  5
60B
330
17
100
AcDbEntity
  8
0
100
AcDbLine
 10
0.3125
 20
0.0834568713998145
 30
0.0
 11
0.5625
 21
0.1342568713998169
 31
0.0
  0
LINE
  5
60C
330
17
100
AcDbEntity
  8
0
100
AcDbLine
 10
-0.3117217542575546
 20
0.1342568713998169
 30
0.0
 11
0.2427020391221078
 21
0.1342568713998169
 31
0.0
  0
LINE
  5
60D
330
17
100
AcDbEntity
  8
0
100
AcDbLine
 10
0.3132782457424455
 20
0.1342568713998169
 30
0.0
 11
0.5625
 21
0.1850568713998122
 31
0.0
  0
ARC
  5
611
330
17
100
AcDbEntity
  8
0
100
AcDbCircle
 10
0.0
 20
0.8425203408615722
 30
0.0
 40
0.6319074227295306
100
AcDbArc
 50
243.0257162459245
 51
296.9742837540755
  0
ARC
  5
612
330
17
100
AcDbEntity
  8
0
100
AcDbCircle
 10
-7.597332211424007
 20
-0.2254031636301122
 30
0.0
 40
0.5
100
AcDbArc
 50
72.0744840309864
 51
96.02730489947702
  0
ARC
  5
613
330
17
100
AcDbEntity
  8
0
100
AcDbCircle
 10
-7.602855424355415
 20
-0.1744464823585474
 30
0.0
 40
0.5
100
AcDbArc
 50
72.2260659756092
 51
95.97329398043236
  0
LINE
  5
614
330
17
100
AcDbEntity
  8
0
100
AcDbLine
 10
-7.450224367174673
 20
0.3016877008124297
 30
0.0
 11
-6.902455091255
 21
0.1260930751168985
 31
0.0
  0
LINE
  5
615
330
17
100
AcDbEntity
  8
0
100
AcDbLine
 10
-7.443442027352443
 20
0.2503255523902865
 30
0.0
 11
-6.917381627317187
 21
0.0801539208112629
 31
0.0
  0
LINE
  5
616
330
17
100
AcDbEntity
  8
0
100
AcDbLine
 10
-8.066439153490144
 20
0.2278450515625963
 30
0.0
 11
-7.649833411989047
 21
0.2718328205255318
 31
0.0
  0
LINE
  5
617
330
17
100
AcDbEntity
  8
0
100
AcDbLine
 10
-8.07044292300256
 20
0.2793579999999984
 30
0.0
 11
-7.654887873028603
 21
0.322838772083081
 31
0.0
  0
LINE
  5
618
330
17
100
AcDbEntity
  8
0
100
AcDbLine
 10
-8.028549091255002
 20
0.0261981066220969
 30
0.0
 11
-7.589924091255
 21
0.0261981066220969
 31
0.0
  0
LINE
  5
61C
330
17
100
AcDbEntity
  8
0
100
AcDbLine
 10
-0.2239109999999975
 20
0.2516135335055409
 30
0.0
 11
-0.2239109999999975
 21
1.185613800679549
 31
0.0
  0
LINE
  5
61D
330
17
100
AcDbEntity
  8
0
100
AcDbLine
 10
0.2239109999999975
 20
0.2516135335055445
 30
0.0
 11
0.2239109999999975
 21
1.185613800679528
 31
0.0
  0
ARC
  5
61E
330
17
100
AcDbEntity
  8
0
100
AcDbCircle
 10
0.0
 20
1.179299999999994
 30
0.0
 40
0.224
100
AcDbArc
 50
358.571672
 51
181.428328
  0
LINE
  5
61F
330
17
100
AcDbEntity
  8
0
100
AcDbLine
 10
0.0364109999999975
 20
0.6244778496099706
 30
0.0
 11
0.0364109999999975
 21
0.8782873633009096
 31
0.0
  0
LINE
  5
620
330
17
100
AcDbEntity
  8
0
100
AcDbLine
 10
-0.0364109999999975
 20
0.6197776734305087
 30
0.0
 11
-0.0364109999999975
 21
0.9875664594733973
 31
0.0
  0
LINE
  5
621
330
17
100
AcDbEntity
  8
0
100
AcDbLine
 10
0.0364109999999975
 20
0.9405646976787772
 30
0.0
 11
0.0364109999999975
 21
1.186441999999998
 31
0.0
  0
LINE
  5
622
330
17
100
AcDbEntity
  8
0
100
AcDbLine
 10
-0.0364109999999975
 20
1.076869806883172
 30
0.0
 11
-0.0364109999999975
 21
1.186441999999998
 31
0.0
  0
LINE
  5
623
330
17
100
AcDbEntity
  8
0
100
AcDbLine
 10
0.0364109999999975
 20
0.238475660989657
 30
0.0
 11
0.0364109999999975
 21
0.5445748545591194
 31
0.0
  0
LINE
  5
624
330
17
100
AcDbEntity
  8
0
100
AcDbLine
 10
-0.0364109999999975
 20
0.2514008343687344
 30
0.0
 11
-0.0364109999999975
 21
0.562200204117655
 31
0.0
  0
ARC
  5
625
330
17
100
AcDbEntity
  8
0
100
AcDbCircle
 10
0.0
 20
1.179299999999994
 30
0.0
 40
0.0365
100
AcDbArc
 50
358.571672
 51
181.428328
  0
ARC
  5
626
330
17
100
AcDbEntity
  8
0
  6
HIDDEN2
 62
     8
100
AcDbCircle
 10
0.0
 20
1.179299999999994
 30
0.0
 40
0.2865
100
AcDbArc
 50
358.571672
 51
181.428328
  0
LINE
  5
627
330
17
100
AcDbEntity
  8
0
  6
HIDDEN2
 62
     8
100
AcDbLine
 10
0.2864109999999975
 20
0.2792479999999955
 30
0.0
 11
0.2864109999999975
 21
1.186441999999998
 31
0.0
  0
LINE
  5
628
330
17
100
AcDbEntity
  8
0
  6
HIDDEN2
 62
     8
100
AcDbLine
 10
-0.2864109999999975
 20
0.2792479999999955
 30
0.0
 11
-0.2864109999999975
 21
1.186441999999998
 31
0.0
  0
LINE
  5
65E
330
17
100
AcDbEntity
  8
0
100
AcDbLine
 10
-6.917406625146494
 20
0.0800769854035224
 30
0.0
 11
-6.902455091255
 21
0.1260930751168985
 31
0.0
  0
LINE
  5
65F
330
17
100
AcDbEntity
  8
0
100
AcDbLine
 10
-7.150291625146497
 20
0.1554113394389631
 30
0.0
 11
-7.135340091254999
 21
0.2014274291523392
 31
0.0
  0
LINE
  5
660
330
17
100
AcDbEntity
  8
0
100
AcDbLine
 10
-7.402424091255
 20
0.2136981066220969
 30
0.0
 11
-7.402424091255
 21
0.2370569446235038
 31
0.0
  0
ARC
  5
661
330
17
100
AcDbEntity
  8
0
100
AcDbCircle
 10
-7.589924091255
 20
0.2136981066220969
 30
0.0
 40
0.1875
100
AcDbArc
 50
270.0
 51
0.000000000000007
  0
TEXT
  5
67C
330
17
100
AcDbEntity
  8
DIM
100
AcDbText
 10
27.02345920292224
 20
18.21295515432938
 30
0.0
 40
0.27
  1
   
 72
     1
 11
27.42845920292224
 21
18.34795515432938
 31
0.0
100
AcDbText
 73
     2
  0
CIRCLE
  5
695
330
17
100
AcDbEntity
  8
0
100
AcDbCircle
 10
0.0000000000000036
 20
19.529358
 30
0.0
 40
0.0855
  0
CIRCLE
  5
696
330
17
100
AcDbEntity
  8
0
100
AcDbCircle
 10
0.0
 20
15.529358
 30
0.0
 40
0.0855
  0
CIRCLE
  5
697
330
17
100
AcDbEntity
  8
0
100
AcDbCircle
 10
0.0
 20
13.529358
 30
0.0
 40
0.0855
  0
CIRCLE
  5
698
330
17
100
AcDbEntity
  8
0
100
AcDbCircle
 10
0.0
 20
9.779357999999998
 30
0.0
 40
0.0855
  0
CIRCLE
  5
699
330
17
100
AcDbEntity
  8
0
100
AcDbCircle
 10
0.0
 20
8.029357999999998
 30
0.0
 40
0.0855
  0
CIRCLE
  5
69B
330
17
100
AcDbEntity
  8
0
100
AcDbCircle
 10
0.0
 20
4.779357999999995
 30
0.0
 40
0.0855
  0
ARC
  5
69F
330
17
100
AcDbEntity
  8
0
100
AcDbCircle
 10
-8.089955091255003
 20
0.4658399704156082
 30
0.0
 40
0.1875
100
AcDbArc
 50
180.0
 51
275.9732939804326
  0
ARC
  5
6A0
330
17
100
AcDbEntity
  8
0
100
AcDbCircle
 10
-8.091049091255005
 20
0.460924419135555
 30
0.0
 40
0.234375
100
AcDbArc
 50
180.0
 51
276.027304899477
  0
ARC
  5
6A1
330
17
100
AcDbEntity
  8
0
100
AcDbCircle
 10
-8.028549091255002
 20
0.5105731066220969
 30
0.0
 40
0.484375
100
AcDbArc
 50
180.0
 51
270.0
  0
CIRCLE
  5
6C3
330
17
100
AcDbEntity
  8
0
100
AcDbCircle
 10
0.3125000000000036
 20
19.935624
 30
0.0
 40
0.0855
  0
CIRCLE
  5
6C4
330
17
100
AcDbEntity
  8
0
100
AcDbCircle
 10
-0.3125
 20
18.716874
 30
0.0
 40
0.0855
  0
CIRCLE
  5
6C5
330
17
100
AcDbEntity
  8
0
100
AcDbCircle
 10
-0.3125
 20
16.279374
 30
0.0
 40
0.0855
  0
CIRCLE
  5
6C8
330
17
100
AcDbEntity
  8
0
100
AcDbCircle
 10
-0.3125
 20
13.841874
 30
0.0
 40
0.0855
  0
CIRCLE
  5
6CB
330
17
100
AcDbEntity
  8
0
100
AcDbCircle
 10
-0.3125
 20
11.404374
 30
0.0
 40
0.0855
  0
CIRCLE
  5
6CE
330
17
100
AcDbEntity
  8
0
100
AcDbCircle
 10
-0.3125
 20
8.966873999999997
 30
0.0
 40
0.0855
  0
CIRCLE
  5
6D1
330
17
100
AcDbEntity
  8
0
100
AcDbCircle
 10
0.3125
 20
17.498124
 30
0.0
 40
0.0855
  0
CIRCLE
  5
6D4
330
17
100
AcDbEntity
  8
0
100
AcDbCircle
 10
0.3125
 20
15.060624
 30
0.0
 40
0.0855
  0
CIRCLE
  5
6D7
330
17
100
AcDbEntity
  8
0
100
AcDbCircle
 10
0.3125
 20
12.623124
 30
0.0
 40
0.0855
  0
CIRCLE
  5
6DA
330
17
100
AcDbEntity
  8
0
100
AcDbCircle
 10
0.3125
 20
10.185624
 30
0.0
 40
0.0855
  0
CIRCLE
  5
70E
330
17
100
AcDbEntity
  8
0
100
AcDbCircle
 10
-0.1875
 20
2.529357999999995
 30
0.0
 40
0.0855
  0
LINE
  5
9FA
330
17
100
AcDbEntity
  8
0
100
AcDbLine
 10
0.5
 20
3.466858
 30
0.0
 11
0.5
 21
3.091858
 31
0.0
  0
ARC
  5
9FB
330
17
100
AcDbEntity
  8
0
100
AcDbCircle
 10
0.5625
 20
3.091857999999998
 30
0.0
 40
0.0625
100
AcDbArc
 50
180.0
 51
270.0
  0
ARC
  5
9FC
330
17
100
AcDbEntity
  8
0
100
AcDbCircle
 10
0.5625
 20
3.466857999999998
 30
0.0
 40
0.0625
100
AcDbArc
 50
90.0
 51
180.0
  0
ARC
  5
A08
330
17
100
AcDbEntity
  8
0
100
AcDbCircle
 10
-0.5625
 20
3.466857999999998
 30
0.0
 40
0.0625
100
AcDbArc
 50
0.0
 51
90.0
  0
ARC
  5
A09
330
17
100
AcDbEntity
  8
0
100
AcDbCircle
 10
-0.5625
 20
3.091857999999998
 30
0.0
 40
0.0625
100
AcDbArc
 50
270.0
 51
0.0
  0
LINE
  5
A0A
330
17
100
AcDbEntity
  8
0
100
AcDbLine
 10
-0.5
 20
3.091858
 30
0.0
 11
-0.5
 21
3.466858
 31
0.0
  0
TEXT
  5
A17
330
17
100
AcDbEntity
  8
0
100
AcDbText
 10
0.3842018092336375
 20
4.722971603600701
 30
0.0
 40
0.131486625
  1
EMBEDMENT LINE  
 50
90.0
100
AcDbText
  0
LINE
  5
A1E
330
17
100
AcDbEntity
  8
0
100
AcDbLine
 10
0.3125000000000071
 20
3.938074194633066
 30
0.0
 11
0.3125000000000071
 21
4.234423043846212
 31
0.0
  0
LINE
  5
A1F
330
17
100
AcDbEntity
  8
0
100
AcDbLine
 10
0.3125000000000071
 20
4.234423043846212
 30
0.0
 11
0.2546698618444836
 21
4.114092905690688
 31
0.0
  0
LINE
  5
A20
330
17
100
AcDbEntity
  8
0
100
AcDbLine
 10
0.3125000000000071
 20
4.234423043846212
 30
0.0
 11
0.3703301381555306
 21
4.114092905690688
 31
0.0
  0
LINE
  5
A21
330
17
100
AcDbEntity
  8
0
100
AcDbLine
 10
0.3125000000000071
 20
4.593271893059358
 30
0.0
 11
0.3125000000000071
 21
4.296923043846212
 31
0.0
  0
LINE
  5
A22
330
17
100
AcDbEntity
  8
0
100
AcDbLine
 10
0.3125000000000071
 20
4.296923043846212
 30
0.0
 11
0.3703301381555306
 21
4.417253182001742
 31
0.0
  0
LINE
  5
A23
330
17
100
AcDbEntity
  8
0
100
AcDbLine
 10
0.3125000000000071
 20
4.296923043846212
 30
0.0
 11
0.2546698618444765
 21
4.417253182001742
 31
0.0
  0
CIRCLE
  5
F0A
330
17
100
AcDbEntity
  8
0
  6
Continuous
100
AcDbCircle
 10
0.0
 20
6.279357999999998
 30
0.0
 40
0.0855
210
0.0
220
0.0
230
-1.0
  0
CIRCLE
  5
F0B
330
17
100
AcDbEntity
  8
0
  6
HIDDEN
100
AcDbCircle
 10
0.0
 20
6.279357999999998
 30
0.0
 40
0.0625
  0
ARC
  5
F0C
330
17
100
AcDbEntity
  8
0
  6
Continuous
100
AcDbCircle
 10
-8.327455091255064
 20
6.279349999487994
 30
0.0
 40
0.1124999999999972
100
AcDbArc
 50
300.6507699430412
 51
59.3492300569742
  0
ARC
  5
F0D
330
17
100
AcDbEntity
  8
0
  6
HIDDEN2
 62
     8
100
AcDbCircle
 10
-8.327455091255064
 20
6.279349999487994
 30
0.0
 40
0.0624999999999972
100
AcDbArc
 50
323.1301023542137
 51
36.86989764578633
  0
ARC
  5
F0E
330
17
100
AcDbEntity
  8
0
  6
Continuous
100
AcDbCircle
 10
-8.26245509125501
 20
6.3890370543178
 30
0.0
 40
0.015
100
AcDbArc
 50
180.0
 51
239.3492300569815
  0
ARC
  5
F0F
330
17
100
AcDbEntity
  8
0
  6
Continuous
100
AcDbCircle
 10
-8.26245509125501
 20
6.169662944658189
 30
0.0
 40
0.015
100
AcDbArc
 50
120.6507699430186
 51
180.0000000000554
  0
ENDSEC
  0
SECTION
  2
OBJECTS
  0
DICTIONARY
  5
C
330
0
100
AcDbDictionary
281
     1
  3
ACAD_COLOR
350
C4E
  3
ACAD_GROUP
350
D
  3
ACAD_LAYOUT
350
76A
  3
ACAD_MATERIAL
350
C4D
  3
ACAD_MLINESTYLE
350
1A
  3
ACAD_PLOTSETTINGS
350
76B
  3
ACAD_PLOTSTYLENAME
350
768
  3
ACAD_TABLESTYLE
350
C4F
  3
ACDBHEADERROUNDTRIPXREC
350
11B3
  3
ACDBVARIABLEDICTIONARY
350
59
  3
ASE_INDEX_DICTIONARY
350
1190
  0
DICTIONARY
  5
C79
330
2
100
AcDbDictionary
280
     1
281
     1
  3
ACAD_LAYERFILTERS
360
118F
  3
ACAD_LAYERSTATES
360
C7A
  3
ACLYDICTIONARY
360
118E
  0
DICTIONARY
  5
C4E
102
{ACAD_REACTORS
330
C
102
}
330
C
100
AcDbDictionary
281
     1
  0
DICTIONARY
  5
D
102
{ACAD_REACTORS
330
C
102
}
330
C
100
AcDbDictionary
281
     1
  0
DICTIONARY
  5
76A
102
{ACAD_REACTORS
330
C
102
}
330
C
100
AcDbDictionary
281
     1
  3
Layout1
350
76D
  3
Model
350
76C
  0
DICTIONARY
  5
C4D
102
{ACAD_REACTORS
330
C
102
}
330
C
100
AcDbDictionary
281
     1
  3
Global
350
C76
  0
DICTIONARY
  5
1A
102
{ACAD_REACTORS
330
C
102
}
330
C
100
AcDbDictionary
281
     1
  3
STANDARD
350
1B
  0
DICTIONARY
  5
76B
102
{ACAD_REACTORS
330
C
102
}
330
C
100
AcDbDictionary
281
     1
  0
ACDBDICTIONARYWDFLT
  5
768
102
{ACAD_REACTORS
330
C
102
}
330
C
100
AcDbDictionary
281
     1
  3
Normal
350
769
100
AcDbDictionaryWithDefault
340
769
  0
DICTIONARY
  5
C4F
102
{ACAD_REACTORS
330
C
102
}
330
C
100
AcDbDictionary
281
     1
  3
Standard
350
C50
  0
DICTIONARY
  5
11B3
102
{ACAD_REACTORS
330
C
102
}
330
C
100
AcDbDictionary
281
     1
  3
COLORDICT
350
11B4
  3
MATERIALDICT
350
11B5
  0
DICTIONARY
  5
59
102
{ACAD_REACTORS
330
C
102
}
330
C
100
AcDbDictionary
281
     1
  3
CTABLESTYLE
350
F12
  3
DIMADEC
350
5A
  0
DICTIONARY
  5
1190
102
{ACAD_REACTORS
330
C
102
}
330
C
100
AcDbDictionary
281
     1
  3
ASEBlockHierarchyIndexRecord
350
1191
1001
DCO15
1040
1650279257.617
  0
DICTIONARY
  5
118F
102
{ACAD_REACTORS
330
C79
102
}
330
C79
100
AcDbDictionary
281
     1
  0
DICTIONARY
  5
C7A
102
{ACAD_REACTORS
330
C79
102
}
330
C79
100
AcDbDictionary
281
     1
  0
DICTIONARY
  5
118E
102
{ACAD_REACTORS
330
C79
102
}
330
C79
100
AcDbDictionary
281
     1
1001
ACAD
1000
<All
  0
LAYOUT
  5
76D
102
{ACAD_REACTORS
330
76A
102
}
102
{ACAD_XDICTIONARY
360
11B6
102
}
330
76A
100
AcDbPlotSettings
  1

  2
HP LaserJet 2100 Series PS
  4

  6

 40
0.0
 41
0.0
 42
0.0
 43
0.0
 44
0.0
 45
0.0
 46
0.0
 47
0.0
 48
0.0
 49
0.0
140
0.0
141
0.0
142
1.0
143
1.0
 70
   688
 72
     0
 73
     0
 74
     5
  7
monochrome.ctb
 75
    16
147
1.0
148
0.0
149
0.0
100
AcDbLayout
  1
Layout1
 70
     0
 71
     1
 10
0.0
 20
0.0
 11
12.0
 21
9.0
 12
0.0
 22
0.0
 32
0.0
 14
1.000000000000000E+20
 24
1.000000000000000E+20
 34
1.000000000000000E+20
 15
-1.000000000000000E+20
 25
-1.000000000000000E+20
 35
-1.000000000000000E+20
146
0.0
 13
0.0
 23
0.0
 33
0.0
 16
1.0
 26
0.0
 36
0.0
 17
0.0
 27
1.0
 37
0.0
 76
     0
330
14
  0
LAYOUT
  5
76C
102
{ACAD_REACTORS
330
76A
102
}
102
{ACAD_XDICTIONARY
360
11B8
102
}
330
76A
100
AcDbPlotSettings
  1

  2
HP LaserJet 2100 Series PS
  4
Letter
  6

 40
5.365749835968018
 41
5.408073902130127
 42
5.132904052734375
 43
5.090576171875
 44
215.8999938964844
 45
279.3999938964844
 46
0.0
 47
0.0
 48
0.0
 49
0.0
140
0.0
141
0.0
142
1.0
143
2.975440689981091
 70
 11952
 72
     0
 73
     1
 74
     2
  7
monochrome.ctb
 75
     0
147
0.3360846691944497
148
0.0
149
0.0
100
AcDbLayout
  1
Model
 70
     1
 71
     0
 10
0.0
 20
0.0
 11
12.0
 21
9.0
 12
0.0
 22
0.0
 32
0.0
 14
0.0
 24
0.0
 34
0.0
 15
0.0
 25
0.0
 35
0.0
146
0.0
 13
0.0
 23
0.0
 33
0.0
 16
1.0
 26
0.0
 36
0.0
 17
0.0
 27
1.0
 37
0.0
 76
     0
330
17
1001
ACAD_PSEXT
1000
HP LaserJet 2100 Series PS
1000
HP LaserJet 2100 Series PS
1000
LPT1:
1000

1070
     0
  0
ACAD_PROXY_OBJECT
  5
C76
102
{ACAD_REACTORS
330
C4D
102
}
102
{ACAD_XDICTIONARY
360
C77
102
}
330
C4D
100
AcDbProxyObject
 90
      499
 91
      514
 95
   983063
 70
     0
 93
      566
310
4191DB1BD8985B2004014040405AA6A9AA4060050101016A9AA6A9018000000000000E03F4040405AA6A9AA40650101016A9AA6A90190101016A9AA6A90194040405AA6A9AA400
 94
        0
  0
MLINESTYLE
  5
1B
102
{ACAD_REACTORS
330
1A
102
}
330
1A
100
AcDbMlineStyle
  2
STANDARD
 70
     0
  3

 62
   256
 51
90.0
 52
90.0
 71
     2
 49
0.5
 62
   256
  6
BYLAYER
 49
-0.5
 62
   256
  6
BYLAYER
  0
ACDBPLACEHOLDER
  5
769
102
{ACAD_REACTORS
330
768
102
}
330
768
  0
ACAD_PROXY_OBJECT
  5
C50
102
{ACAD_REACTORS
330
C4F
102
}
330
C4F
100
AcDbProxyObject
 90
      499
 91
      513
 95
   983063
 70
     0
 93
     1841
310
4214DD185B99185C9928B81E85EB51B8AE3F2E07A17AD46E2B8FC02B5E8DC0F42B1CFD028000000C1008070000C3001FDFF8000000C1003FBFF000000182007F7FE00000030400FEFFC00000060801FDFF8000000C1003FBFF00000018200000000000000681FA0B0000001820100E000186003FBFF000000182007F7FE000
310
00030400FEFFC00000060801FDFF8000000C1003FBFF000000182007F7FE000000304000AD7A3703D0AC73F4160000003040201C00030C007F7FE00000030400FEFFC00000060801FDFF8000000C1003FBFF000000182007F7FE00000030400FEFFC000000608000
340
F
340
F
340
F
 94
        0
  0
XRECORD
  5
11B4
102
{ACAD_REACTORS
330
11B3
102
}
330
11B3
100
AcDbXrecord
340
C4E
  0
XRECORD
  5
11B5
102
{ACAD_REACTORS
330
11B3
102
}
330
11B3
100
AcDbXrecord
340
C4D
  0
DICTIONARYVAR
  5
F12
102
{ACAD_REACTORS
330
59
102
}
330
59
100
DictionaryVariables
280
     0
  1
STANDARD
  0
DICTIONARYVAR
  5
5A
102
{ACAD_REACTORS
330
59
102
}
330
59
100
DictionaryVariables
280
     0
  1
0
  0
XRECORD
  5
1191
102
{ACAD_REACTORS
330
1190
102
}
330
1190
100
AcDbXrecord
280
     1
330
0
330
0
  0
DICTIONARY
  5
11B6
330
76D
100
AcDbDictionary
280
     1
281
     1
  3
ACAD_XREC_ROUNDTRIP
360
11B7
  0
DICTIONARY
  5
11B8
330
76C
100
AcDbDictionary
280
     1
281
     1
  3
ACAD_XREC_ROUNDTRIP
360
11B9
  0
DICTIONARY
  5
C77
330
C76
100
AcDbDictionary
280
     1
281
     1
  3
ACAD_XREC_ROUNDTRIP
360
C78
  0
XRECORD
  5
11B7
102
{ACAD_REACTORS
330
11B6
102
}
330
11B6
100
AcDbXrecord
102
SHADEPLOT
 70
     0
102
SHADEPLOTRESLEVEL
 70
     2
102
SHADEPLOTCUSTOMDPI
 70
   300
  0
XRECORD
  5
11B9
102
{ACAD_REACTORS
330
11B8
102
}
330
11B8
100
AcDbXrecord
102
SHADEPLOT
 70
     0
102
SHADEPLOTRESLEVEL
 70
     2
102
SHADEPLOTCUSTOMDPI
 70
   300
  0
XRECORD
  5
C78
102
{ACAD_REACTORS
330
C77
102
}
330
C77
100
AcDbXrecord
280
     1
102
MATERIAL
148
0.0
149
0.0
149
0.0
 93
        0
 94
       63
282
     0
 72
     1
 77
     1
171
     1
175
     1
179
     1
273
     0
  0
ENDSEC
  0
EOF
