  0
SECTION
  2
HEADER
  9
$ACADVER
  1
AC1015
  9
$ACADMAINTVER
 70
     6
  9
$DWGCODEPAGE
  3
ANSI_1252
  9
$INSBASE
 10
0.0
 20
0.0
 30
0.0
  9
$EXTMIN
 10
-11.98646763182469
 20
-0.1575681114029423
 30
0.0
  9
$EXTMAX
 10
5.273935988195301
 20
20.2531598933779
 30
0.0
  9
$LIMMIN
 10
0.0
 20
0.0
  9
$LIMMAX
 10
26.6664
 20
34.99965
  9
$ORTHOMODE
 70
     1
  9
$REGENMODE
 70
     1
  9
$FILLMODE
 70
     1
  9
$QTEXTMODE
 70
     0
  9
$MIRRTEXT
 70
     1
  9
$LTSCALE
 40
0.5
  9
$ATTMODE
 70
     1
  9
$TEXTSIZE
 40
0.299997
  9
$TRACEWID
 40
0.05
  9
$TEXTSTYLE
  7
STANDARD
  9
$CLAYER
  8
0
  9
$CELTYPE
  6
BYLAYER
  9
$CECOLOR
 62
   256
  9
$CELTSCALE
 40
1.0
  9
$DISPSILH
 70
     0
  9
$DIMSCALE
 40
3.3333
  9
$DIMASZ
 40
0.125
  9
$DIMEXO
 40
0.062
  9
$DIMDLI
 40
0.375
  9
$DIMRND
 40
0.0
  9
$DIMDLE
 40
0.0
  9
$DIMEXE
 40
0.08
  9
$DIMTP
 40
0.0
  9
$DIMTM
 40
0.0
  9
$DIMTXT
 40
0.09
  9
$DIMCEN
 40
0.06
  9
$DIMTSZ
 40
0.0
  9
$DIMTOL
 70
     0
  9
$DIMLIM
 70
     0
  9
$DIMTIH
 70
     1
  9
$DIMTOH
 70
     1
  9
$DIMSE1
 70
     0
  9
$DIMSE2
 70
     0
  9
$DIMTAD
 70
     0
  9
$DIMZIN
 70
     0
  9
$DIMBLK
  1

  9
$DIMASO
 70
     0
  9
$DIMSHO
 70
     0
  9
$DIMPOST
  1

  9
$DIMAPOST
  1

  9
$DIMALT
 70
     0
  9
$DIMALTD
 70
     2
  9
$DIMALTF
 40
25.4
  9
$DIMLFAC
 40
1.0
  9
$DIMTOFL
 70
     0
  9
$DIMTVP
 40
0.0
  9
$DIMTIX
 70
     0
  9
$DIMSOXD
 70
     0
  9
$DIMSAH
 70
     0
  9
$DIMBLK1
  1

  9
$DIMBLK2
  1

  9
$DIMSTYLE
  2
STANDARD
  9
$DIMCLRD
 70
     0
  9
$DIMCLRE
 70
     0
  9
$DIMCLRT
 70
     0
  9
$DIMTFAC
 40
1.0
  9
$DIMGAP
 40
0.09375
  9
$DIMJUST
 70
     0
  9
$DIMSD1
 70
     0
  9
$DIMSD2
 70
     0
  9
$DIMTOLJ
 70
     1
  9
$DIMTZIN
 70
     0
  9
$DIMALTZ
 70
     0
  9
$DIMALTTZ
 70
     0
  9
$DIMUPT
 70
     0
  9
$DIMDEC
 70
     5
  9
$DIMTDEC
 70
     5
  9
$DIMALTU
 70
     5
  9
$DIMALTTD
 70
     2
  9
$DIMTXSTY
  7
STANDARD
  9
$DIMAUNIT
 70
     0
  9
$DIMADEC
 70
     0
  9
$DIMALTRND
 40
0.0
  9
$DIMAZIN
 70
     0
  9
$DIMDSEP
 70
    46
  9
$DIMATFIT
 70
     3
  9
$DIMFRAC
 70
     2
  9
$DIMLDRBLK
  1

  9
$DIMLUNIT
 70
     5
  9
$DIMLWD
 70
    -2
  9
$DIMLWE
 70
    -2
  9
$DIMTMOVE
 70
     2
  9
$LUNITS
 70
     5
  9
$LUPREC
 70
     5
  9
$SKETCHINC
 40
0.1
  9
$FILLETRAD
 40
0.04
  9
$AUNITS
 70
     0
  9
$AUPREC
 70
     0
  9
$MENU
  1
qa
  9
$ELEVATION
 40
0.0
  9
$PELEVATION
 40
0.0
  9
$THICKNESS
 40
0.0
  9
$LIMCHECK
 70
     0
  9
$CHAMFERA
 40
0.5
  9
$CHAMFERB
 40
0.5
  9
$CHAMFERC
 40
0.0
  9
$CHAMFERD
 40
0.0
  9
$SKPOLY
 70
     0
  9
$TDCREATE
 40
2450907.545796875
  9
$TDUCREATE
 40
2450907.879130208
  9
$TDUPDATE
 40
2454903.955663843
  9
$TDUUPDATE
 40
2454904.288997176
  9
$TDINDWG
 40
0.655044213
  9
$TDUSRTIMER
 40
0.655044213
  9
$USRTIMER
 70
     1
  9
$ANGBASE
 50
0.0
  9
$ANGDIR
 70
     0
  9
$PDMODE
 70
     0
  9
$PDSIZE
 40
0.0
  9
$PLINEWID
 40
0.0
  9
$SPLFRAME
 70
     0
  9
$SPLINETYPE
 70
     6
  9
$SPLINESEGS
 70
     8
  9
$HANDSEED
  5
10FC
  9
$SURFTAB1
 70
     6
  9
$SURFTAB2
 70
     6
  9
$SURFTYPE
 70
     6
  9
$SURFU
 70
     6
  9
$SURFV
 70
     6
  9
$UCSBASE
  2

  9
$UCSNAME
  2

  9
$UCSORG
 10
0.0
 20
0.0
 30
0.0
  9
$UCSXDIR
 10
1.0
 20
0.0
 30
0.0
  9
$UCSYDIR
 10
0.0
 20
1.0
 30
0.0
  9
$UCSORTHOREF
  2

  9
$UCSORTHOVIEW
 70
     0
  9
$UCSORGTOP
 10
0.0
 20
0.0
 30
0.0
  9
$UCSORGBOTTOM
 10
0.0
 20
0.0
 30
0.0
  9
$UCSORGLEFT
 10
0.0
 20
0.0
 30
0.0
  9
$UCSORGRIGHT
 10
0.0
 20
0.0
 30
0.0
  9
$UCSORGFRONT
 10
0.0
 20
0.0
 30
0.0
  9
$UCSORGBACK
 10
0.0
 20
0.0
 30
0.0
  9
$PUCSBASE
  2

  9
$PUCSNAME
  2

  9
$PUCSORG
 10
0.0
 20
0.0
 30
0.0
  9
$PUCSXDIR
 10
1.0
 20
0.0
 30
0.0
  9
$PUCSYDIR
 10
0.0
 20
1.0
 30
0.0
  9
$PUCSORTHOREF
  2

  9
$PUCSORTHOVIEW
 70
     0
  9
$PUCSORGTOP
 10
0.0
 20
0.0
 30
0.0
  9
$PUCSORGBOTTOM
 10
0.0
 20
0.0
 30
0.0
  9
$PUCSORGLEFT
 10
0.0
 20
0.0
 30
0.0
  9
$PUCSORGRIGHT
 10
0.0
 20
0.0
 30
0.0
  9
$PUCSORGFRONT
 10
0.0
 20
0.0
 30
0.0
  9
$PUCSORGBACK
 10
0.0
 20
0.0
 30
0.0
  9
$USERI1
 70
     0
  9
$USERI2
 70
     0
  9
$USERI3
 70
     0
  9
$USERI4
 70
     0
  9
$USERI5
 70
     0
  9
$USERR1
 40
0.0
  9
$USERR2
 40
0.0
  9
$USERR3
 40
0.0
  9
$USERR4
 40
0.0
  9
$USERR5
 40
0.0
  9
$WORLDVIEW
 70
     1
  9
$SHADEDGE
 70
     3
  9
$SHADEDIF
 70
    70
  9
$TILEMODE
 70
     1
  9
$MAXACTVP
 70
    16
  9
$PINSBASE
 10
0.0
 20
0.0
 30
0.0
  9
$PLIMCHECK
 70
     0
  9
$PEXTMIN
 10
1.000000000000000E+20
 20
1.000000000000000E+20
 30
1.000000000000000E+20
  9
$PEXTMAX
 10
-1.000000000000000E+20
 20
-1.000000000000000E+20
 30
-1.000000000000000E+20
  9
$PLIMMIN
 10
0.0
 20
0.0
  9
$PLIMMAX
 10
12.0
 20
9.0
  9
$UNITMODE
 70
     0
  9
$VISRETAIN
 70
     0
  9
$PLINEGEN
 70
     0
  9
$PSLTSCALE
 70
     0
  9
$TREEDEPTH
 70
  3020
  9
$CMLSTYLE
  2
STANDARD
  9
$CMLJUST
 70
     0
  9
$CMLSCALE
 40
1.0
  9
$PROXYGRAPHICS
 70
     1
  9
$MEASUREMENT
 70
     0
  9
$CELWEIGHT
370
    -1
  9
$ENDCAPS
280
     0
  9
$JOINSTYLE
280
     0
  9
$LWDISPLAY
290
     0
  9
$INSUNITS
 70
     0
  9
$HYPERLINKBASE
  1

  9
$STYLESHEET
  1
monochrome.ctb
  9
$XEDIT
290
     1
  9
$CEPSNTYPE
380
     0
  9
$PSTYLEMODE
290
     1
  9
$FINGERPRINTGUID
  2
{4DDCFF25-CC98-4327-A9E7-021E49314EB0}
  9
$VERSIONGUID
  2
{36FAF8C9-30F1-412F-853F-DB3F79BDD138}
  9
$EXTNAMES
290
     1
  9
$PSVPSCALE
 40
0.0
  9
$OLESTARTUP
290
     0
  0
ENDSEC
  0
SECTION
  2
CLASSES
  0
CLASS
  1
DICTIONARYVAR
  2
AcDbDictionaryVar
  3
AutoCAD 2000
 90
        0
280
     0
281
     0
  0
CLASS
  1
LWPOLYLINE
  2
AcDbPolyline
  3
AutoCAD 2000
 90
        0
280
     0
281
     1
  0
CLASS
  1
ACDBDICTIONARYWDFLT
  2
AcDbDictionaryWithDefault
  3
AutoCAD 2000
 90
        0
280
     0
281
     0
  0
CLASS
  1
TABLESTYLE
  2
AcDbTableStyle
  3
ObjectDBX Classes
 90
     2047
280
     1
281
     0
  0
CLASS
  1
SORTENTSTABLE
  2
AcDbSortentsTable
  3
AutoCAD 2000
 90
        0
280
     0
281
     0
  0
CLASS
  1
DIMASSOC
  2
AcDbDimAssoc
  3
"AcDbDimAssoc|Product Desc:     AcDim ARX App For Dimension|Company:          Autodesk, Inc.|WEB Address:      www.autodesk.com"
 90
        0
280
     0
281
     0
  0
CLASS
  1
ACDBPLACEHOLDER
  2
AcDbPlaceHolder
  3
ObjectDBX Classes
 90
        0
280
     0
281
     0
  0
CLASS
  1
LAYOUT
  2
AcDbLayout
  3
ObjectDBX Classes
 90
        0
280
     0
281
     0
  0
ENDSEC
  0
SECTION
  2
TABLES
  0
TABLE
  2
VPORT
  5
8
330
0
100
AcDbSymbolTable
 70
     3
  0
VPORT
  5
10EE
330
8
100
AcDbSymbolTableRecord
100
AcDbViewportTableRecord
  2
*Active
 70
     0
 10
0.0
 20
0.0
 11
1.0
 21
1.0
 12
3.668180908582986
 22
11.67917726007046
 13
0.0
 23
0.0
 14
0.063
 24
0.063
 15
0.25
 25
0.25
 16
0.0
 26
0.0
 36
1.0
 17
0.0
 27
0.0
 37
0.0
 40
35.48652481892794
 41
1.703065134099617
 42
50.0
 43
0.0
 44
0.0
 50
0.0
 51
0.0
 71
     0
 72
   100
 73
     1
 74
     0
 75
     0
 76
     0
 77
     0
 78
     0
281
     0
 65
     1
110
0.0
120
0.0
130
0.0
111
1.0
121
0.0
131
0.0
112
0.0
122
1.0
132
0.0
 79
     0
146
0.0
  0
ENDTAB
  0
TABLE
  2
LTYPE
  5
5
330
0
100
AcDbSymbolTable
 70
     3
  0
LTYPE
  5
11
330
5
100
AcDbSymbolTableRecord
100
AcDbLinetypeTableRecord
  2
BYBLOCK
 70
     0
  3

 72
    65
 73
     0
 40
0.0
  0
LTYPE
  5
12
330
5
100
AcDbSymbolTableRecord
100
AcDbLinetypeTableRecord
  2
BYLAYER
 70
     0
  3

 72
    65
 73
     0
 40
0.0
  0
LTYPE
  5
13
330
5
100
AcDbSymbolTableRecord
100
AcDbLinetypeTableRecord
  2
CONTINUOUS
 70
     0
  3
Solid line
 72
    65
 73
     0
 40
0.0
  0
LTYPE
  5
83A
330
5
100
AcDbSymbolTableRecord
100
AcDbLinetypeTableRecord
  2
THD
 70
     0
  3
_ _ _ _ _ _ _ _ _ _ _ _ _ _ _ _ _ _ _ _ _ _ _ _
 72
    65
 73
     2
 40
0.15
 49
0.11
 74
     0
 49
-0.04
 74
     0
  0
LTYPE
  5
BDA
330
5
100
AcDbSymbolTableRecord
100
AcDbLinetypeTableRecord
  2
HIDDEN2
 70
     0
  3
Hidden (.5x) _ _ _ _ _ _ _ _ _ _ _ _ _ _ _ _ _
 72
    65
 73
     2
 40
0.1875
 49
0.125
 74
     0
 49
-0.0625
 74
     0
  0
ENDTAB
  0
TABLE
  2
LAYER
  5
2
102
{ACAD_XDICTIONARY
360
83F
102
}
330
0
100
AcDbSymbolTable
 70
     2
  0
LAYER
  5
E
330
2
100
AcDbSymbolTableRecord
100
AcDbLayerTableRecord
  2
0
 70
     0
 62
     7
  6
CONTINUOUS
370
    -3
390
82D
  0
LAYER
  5
C73
330
2
100
AcDbSymbolTableRecord
100
AcDbLayerTableRecord
  2
Defpoints
 70
     0
 62
     7
  6
CONTINUOUS
290
     0
370
    -3
390
82D
  0
ENDTAB
  0
TABLE
  2
STYLE
  5
3
330
0
100
AcDbSymbolTable
 70
     1
  0
STYLE
  5
F
330
3
100
AcDbSymbolTableRecord
100
AcDbTextStyleTableRecord
  2
STANDARD
 70
     0
 40
0.0
 41
1.0
 50
0.0
 71
     0
 42
0.299997
  3
TXT
  4

  0
ENDTAB
  0
TABLE
  2
VIEW
  5
6
330
0
100
AcDbSymbolTable
 70
     0
  0
ENDTAB
  0
TABLE
  2
UCS
  5
7
330
0
100
AcDbSymbolTable
 70
     0
  0
ENDTAB
  0
TABLE
  2
APPID
  5
9
330
0
100
AcDbSymbolTable
 70
     7
  0
APPID
  5
10
330
9
100
AcDbSymbolTableRecord
100
AcDbRegAppTableRecord
  2
ACAD
 70
     0
  0
APPID
  5
36
330
9
100
AcDbSymbolTableRecord
100
AcDbRegAppTableRecord
  2
AME_SOL
 70
     0
  0
APPID
  5
83C
330
9
100
AcDbSymbolTableRecord
100
AcDbRegAppTableRecord
  2
ACAD_PSEXT
 70
     0
  0
APPID
  5
83D
330
9
100
AcDbSymbolTableRecord
100
AcDbRegAppTableRecord
  2
RAK
 70
     0
  0
APPID
  5
83E
330
9
100
AcDbSymbolTableRecord
100
AcDbRegAppTableRecord
  2
AcAecLayerStandard
 70
     0
  0
APPID
  5
D23
330
9
100
AcDbSymbolTableRecord
100
AcDbRegAppTableRecord
  2
ACAD_DSTYLE_DIMTEXT_FILL
 70
     0
  0
APPID
  5
10D5
330
9
100
AcDbSymbolTableRecord
100
AcDbRegAppTableRecord
  2
DCO15
 70
     0
  0
ENDTAB
  0
TABLE
  2
DIMSTYLE
  5
A
330
0
100
AcDbSymbolTable
 70
     1
100
AcDbDimStyleTable
  0
DIMSTYLE
105
4FF
330
A
100
AcDbSymbolTableRecord
100
AcDbDimStyleTableRecord
  2
STANDARD
 70
     0
  3

  4

340
F
  0
ENDTAB
  0
TABLE
  2
BLOCK_RECORD
  5
1
330
0
100
AcDbSymbolTable
 70
     0
  0
BLOCK_RECORD
  5
17
102
{ACAD_XDICTIONARY
360
D64
102
}
330
1
100
AcDbSymbolTableRecord
100
AcDbBlockTableRecord
  2
*MODEL_SPACE
340
834
  0
BLOCK_RECORD
  5
14
330
1
100
AcDbSymbolTableRecord
100
AcDbBlockTableRecord
  2
*PAPER_SPACE
340
835
  0
ENDTAB
  0
ENDSEC
  0
SECTION
  2
BLOCKS
  0
BLOCK
  5
4B
330
17
100
AcDbEntity
  8
0
100
AcDbBlockBegin
  2
*MODEL_SPACE
 70
     0
 10
0.0
 20
0.0
 30
0.0
  3
*MODEL_SPACE
  1

  4

  0
ENDBLK
  5
4C
330
17
100
AcDbEntity
  8
0
100
AcDbBlockEnd
  0
BLOCK
  5
49
330
14
100
AcDbEntity
 67
     1
  8
0
100
AcDbBlockBegin
  2
*PAPER_SPACE
 70
     0
 10
0.0
 20
0.0
 30
0.0
  3
*PAPER_SPACE
  1

  4

  0
ENDBLK
  5
4A
330
14
100
AcDbEntity
 67
     1
  8
0
100
AcDbBlockEnd
  0
ENDSEC
  0
SECTION
  2
ENTITIES
  0
LINE
  5
C09
330
17
100
AcDbEntity
  8
0
100
AcDbLine
 10
0.484375
 20
1.315650893377899
 30
0.0
 11
0.484375
 21
0.4843750000000001
 31
0.0
  0
ARC
  5
C0A
330
17
100
AcDbEntity
  8
0
100
AcDbCircle
 10
0.296875
 20
1.315650893377899
 30
0.0
 40
0.1875
100
AcDbArc
 50
0.0
 51
90.0
  0
LINE
  5
C0B
330
17
100
AcDbEntity
  8
0
100
AcDbLine
 10
0.2489059999999999
 20
0.4396418637935114
 30
0.0
 11
0.2489059999999999
 21
2.878151892865905
 31
0.0
  0
LINE
  5
C0C
330
17
100
AcDbEntity
  8
0
100
AcDbLine
 10
0.2968750000000018
 20
20.2531598933779
 30
0.0
 11
0.2968750000000018
 21
5.431555454712356
 31
0.0
  0
LINE
  5
C0D
330
17
100
AcDbEntity
  8
0
100
AcDbLine
 10
0.2489060000000016
 20
20.2531598933779
 30
0.0
 11
0.2968750000000018
 21
20.2531598933779
 31
0.0
  0
ARC
  5
C14
330
17
100
AcDbEntity
  8
0
100
AcDbCircle
 10
-0.4312168798309912
 20
-0.251601270252209
 30
0.0
 40
0.5
100
AcDbArc
 50
83.97269510052298
 51
107.9255159690136
  0
ARC
  5
C15
330
17
100
AcDbEntity
  8
0
100
AcDbCircle
 10
-0.4256936668995834
 20
-0.2006445889806443
 30
0.0
 40
0.5
100
AcDbArc
 50
84.02670601956757
 51
107.7739340243908
  0
LINE
  5
C16
330
17
100
AcDbEntity
  8
0
100
AcDbLine
 10
-0.5783247240803284
 20
0.2754895941903329
 30
0.0
 11
-1.126093999999998
 21
0.0998949684948017
 31
0.0
  0
LINE
  5
C17
330
17
100
AcDbEntity
  8
0
100
AcDbLine
 10
-0.5851070639025551
 20
0.2241274457681897
 30
0.0
 11
-1.111167463937811
 21
0.0539558141891661
 31
0.0
  0
LINE
  5
C18
330
17
100
AcDbEntity
  8
0
100
AcDbLine
 10
0.0378900622351406
 20
0.2016469449404995
 30
0.0
 11
-0.3787156792659552
 21
0.245634713903435
 31
0.0
  0
LINE
  5
C19
330
17
100
AcDbEntity
  8
0
100
AcDbLine
 10
0.0418938317475561
 20
0.2531598933779016
 30
0.0
 11
-0.373661218226399
 21
0.2966406654609842
 31
0.0
  0
LINE
  5
C1A
330
17
100
AcDbEntity
  8
0
100
AcDbLine
 10
0.0
 20
0.0000000000000001
 30
0.0
 11
-0.438625
 21
0.0000000000000001
 31
0.0
  0
LINE
  5
C1B
330
17
100
AcDbEntity
  8
0
100
AcDbLine
 10
-1.111142466108504
 20
0.0538788787814256
 30
0.0
 11
-1.126093999999998
 21
0.0998949684948017
 31
0.0
  0
LINE
  5
C1C
330
17
100
AcDbEntity
  8
0
100
AcDbLine
 10
-0.8782574661085008
 20
0.1292132328168663
 30
0.0
 11
-0.8932089999999988
 21
0.1752293225302424
 31
0.0
  0
LINE
  5
C1D
330
17
100
AcDbEntity
  8
0
100
AcDbLine
 10
-0.6261249999999983
 20
0.1875000000000001
 30
0.0
 11
-0.6261249999999983
 21
0.210858838001407
 31
0.0
  0
ARC
  5
C1E
330
17
100
AcDbEntity
  8
0
100
AcDbCircle
 10
-0.438625
 20
0.1875000000000001
 30
0.0
 40
0.1875
100
AcDbArc
 50
180.0
 51
270.0
  0
ARC
  5
C20
330
17
100
AcDbEntity
  8
0
100
AcDbCircle
 10
0.0614059999999999
 20
0.4396418637935114
 30
0.0
 40
0.1875
100
AcDbArc
 50
264.0267060195674
 51
0.0
  0
ARC
  5
C21
330
17
100
AcDbEntity
  8
0
100
AcDbCircle
 10
0.0625000000000018
 20
0.4347263125134582
 30
0.0
 40
0.234375
100
AcDbArc
 50
263.972695100523
 51
0.0
  0
ARC
  5
C22
330
17
100
AcDbEntity
  8
0
100
AcDbCircle
 10
0.0
 20
0.4843750000000001
 30
0.0
 40
0.484375
100
AcDbArc
 50
270.0
 51
0.0
  0
ARC
  5
C26
330
17
100
AcDbEntity
  8
0
  6
Continuous
100
AcDbCircle
 10
0.2989060000000627
 20
6.253151892865894
 30
0.0
 40
0.1124999999999972
100
AcDbArc
 50
120.6507699430258
 51
239.3492300569588
  0
ARC
  5
C27
330
17
100
AcDbEntity
  8
0
  6
HIDDEN2
 62
     8
100
AcDbCircle
 10
0.2989060000000627
 20
6.253151892865894
 30
0.0
 40
0.0624999999999972
100
AcDbArc
 50
143.1301023542137
 51
216.8698976457864
  0
ARC
  5
C28
330
17
100
AcDbEntity
  8
0
  6
Continuous
100
AcDbCircle
 10
0.2339060000000082
 20
6.362838947695702
 30
0.0
 40
0.015
100
AcDbArc
 50
300.6507699430185
 51
0.0
  0
ARC
  5
C29
330
17
100
AcDbEntity
  8
0
  6
Continuous
100
AcDbCircle
 10
0.2339060000000082
 20
6.143464838036088
 30
0.0
 40
0.015
100
AcDbArc
 50
359.9999999999446
 51
59.34923005698154
  0
LINE
  5
CAE
330
17
100
AcDbEntity
  8
0
100
AcDbLine
 10
1.896513826036808
 20
6.940651892865903
 30
0.0
 11
1.851513826036806
 21
6.940651892865903
 31
0.0
  0
LINE
  5
CAF
330
17
100
AcDbEntity
  8
0
100
AcDbLine
 10
0.3515138260368058
 20
6.940651892865906
 30
0.0
 11
0.3065138260368041
 21
6.940651892865906
 31
0.0
  0
LINE
  5
CB0
330
17
100
AcDbEntity
  8
0
100
AcDbLine
 10
1.781513826036806
 20
4.934151892865907
 30
0.0
 11
0.421513826036799
 21
4.934151892865907
 31
0.0
  0
ARC
  5
CB1
330
17
100
AcDbEntity
  8
0
100
AcDbCircle
 10
1.781513826036798
 20
5.004151892865908
 30
0.0
 40
0.07
100
AcDbArc
 50
269.9999999999998
 51
0.0
  0
LINE
  5
CB2
330
17
100
AcDbEntity
  8
0
100
AcDbLine
 10
1.781513826036813
 20
4.889151892865906
 30
0.0
 11
0.421513826036799
 21
4.889151892865899
 31
0.0
  0
ARC
  5
CB3
330
17
100
AcDbEntity
  8
0
100
AcDbCircle
 10
1.781513826036798
 20
5.004151892865908
 30
0.0
 40
0.115
100
AcDbArc
 50
270.0
 51
0.0
  0
LINE
  5
CB4
330
17
100
AcDbEntity
  8
0
100
AcDbLine
 10
1.101513826036806
 20
4.889151892865902
 30
0.0
 11
1.101513826036806
 21
4.934151892865907
 31
0.0
  0
LINE
  5
CB5
330
17
100
AcDbEntity
  8
0
100
AcDbLine
 10
0.4452638260368058
 20
4.889151892865902
 30
0.0
 11
0.4452638260368058
 21
4.934151892865907
 31
0.0
  0
LINE
  5
CB6
330
17
100
AcDbEntity
  8
0
100
AcDbLine
 10
1.757763826036806
 20
4.889151892865899
 30
0.0
 11
1.757763826036806
 21
4.934151892865907
 31
0.0
  0
LINE
  5
CB7
330
17
100
AcDbEntity
  8
0
100
AcDbLine
 10
0.3515138260368129
 20
5.004151892865908
 30
0.0
 11
0.3515138260368058
 21
6.940651892865906
 31
0.0
  0
ARC
  5
CB8
330
17
100
AcDbEntity
  8
0
100
AcDbCircle
 10
0.4215138260368061
 20
5.004151892865908
 30
0.0
 40
0.07
100
AcDbArc
 50
180.0000000000001
 51
269.9999999999998
  0
LINE
  5
CB9
330
17
100
AcDbEntity
  8
0
100
AcDbLine
 10
0.3065138260368041
 20
5.004151892865901
 30
0.0
 11
0.3065138260368041
 21
6.940651892865906
 31
0.0
  0
ARC
  5
CBA
330
17
100
AcDbEntity
  8
0
100
AcDbCircle
 10
0.4215138260367919
 20
5.004151892865901
 30
0.0
 40
0.115
100
AcDbArc
 50
179.9999999999999
 51
270.0
  0
LINE
  5
CBB
330
17
100
AcDbEntity
  8
0
100
AcDbLine
 10
0.1815138260368041
 20
5.956251892865902
 30
0.0
 11
0.1815138260368041
 21
6.550051892865914
 31
0.0
  0
LINE
  5
CBC
330
17
100
AcDbEntity
  8
0
100
AcDbLine
 10
1.851513826036806
 20
5.004151892865908
 30
0.0
 11
1.851513826036806
 21
6.940651892865903
 31
0.0
  0
LINE
  5
CBD
330
17
100
AcDbEntity
  8
0
100
AcDbLine
 10
1.896513826036808
 20
5.004151892865908
 30
0.0
 11
1.896513826036808
 21
6.940651892865903
 31
0.0
  0
LINE
  5
CBE
330
17
100
AcDbEntity
  8
0
100
AcDbLine
 10
2.021513826036808
 20
5.956251892865902
 30
0.0
 11
2.021513826036808
 21
6.550051892865911
 31
0.0
  0
LINE
  5
CBF
330
17
100
AcDbEntity
  8
0
100
AcDbLine
 10
1.851513826036806
 20
4.912910454911431
 30
0.0
 11
1.851513826036806
 21
2.878151892865903
 31
0.0
  0
LINE
  5
CC0
330
17
100
AcDbEntity
  8
0
  6
THD
100
AcDbLine
 10
1.896513826036808
 20
5.004151892865908
 30
0.0
 11
1.896513826036808
 21
2.878151892865903
 31
0.0
  0
LINE
  5
CC1
330
17
100
AcDbEntity
  8
0
100
AcDbLine
 10
0.3515138260367916
 20
4.912910454911428
 30
0.0
 11
0.3515138260368058
 21
2.878151892865903
 31
0.0
  0
LINE
  5
CC2
330
17
100
AcDbEntity
  8
0
100
AcDbLine
 10
0.3065138260368041
 20
5.004151892865901
 30
0.0
 11
0.3065138260368041
 21
2.878151892865903
 31
0.0
  0
LINE
  5
CC3
330
17
100
AcDbEntity
  8
0
100
AcDbLine
 10
2.021513826036808
 20
6.550051892865911
 30
0.0
 11
1.896513826036808
 21
6.550051892865904
 31
0.0
  0
LINE
  5
CC4
330
17
100
AcDbEntity
  8
0
100
AcDbLine
 10
2.021513826036808
 20
5.956251892865902
 30
0.0
 11
1.896513826036808
 21
5.956251892865902
 31
0.0
  0
LINE
  5
CC5
330
17
100
AcDbEntity
  8
0
100
AcDbLine
 10
0.3065138260368041
 20
6.550051892865911
 30
0.0
 11
0.1815138260368041
 21
6.550051892865911
 31
0.0
  0
LINE
  5
CC6
330
17
100
AcDbEntity
  8
0
100
AcDbLine
 10
0.3065138260368041
 20
5.956251892865902
 30
0.0
 11
0.1815138260368041
 21
5.956251892865906
 31
0.0
  0
LINE
  5
CC7
330
17
100
AcDbEntity
  8
0
100
AcDbLine
 10
1.664013826036806
 20
4.934151892865907
 30
0.0
 11
1.851513826036806
 21
5.121651892865907
 31
0.0
  0
LINE
  5
CC8
330
17
100
AcDbEntity
  8
0
  6
HIDDEN2
 62
     8
100
AcDbLine
 10
1.682653436343598
 20
4.889151892865906
 30
0.0
 11
1.896513826036808
 21
5.103012282559119
 31
0.0
  0
LINE
  5
CC9
330
17
100
AcDbEntity
  8
0
100
AcDbLine
 10
0.5390138260368058
 20
4.934151892865907
 30
0.0
 11
0.3515138260368058
 21
5.121651892865907
 31
0.0
  0
LINE
  5
CCA
330
17
100
AcDbEntity
  8
0
  6
HIDDEN2
 62
     8
100
AcDbLine
 10
0.5203742157300137
 20
4.889151892865906
 30
0.0
 11
0.3065138260368041
 21
5.103012282559119
 31
0.0
  0
LINE
  5
CCB
330
17
100
AcDbEntity
  8
0
100
AcDbLine
 10
2.46551382603681
 20
2.878151892865903
 30
0.0
 11
1.851513826036806
 21
2.878151892865903
 31
0.0
  0
LINE
  5
CCC
330
17
100
AcDbEntity
  8
0
100
AcDbLine
 10
2.465513826036803
 20
4.75315189286591
 30
0.0
 11
2.46551382603681
 21
2.878151892865903
 31
0.0
  0
LINE
  5
CCD
330
17
100
AcDbEntity
  8
0
100
AcDbLine
 10
-0.2624861739631985
 20
4.753151892865903
 30
0.0
 11
-0.2624861739631985
 21
2.878151892865903
 31
0.0
  0
LINE
  5
CCE
330
17
100
AcDbEntity
  8
0
100
AcDbLine
 10
-0.2624861739631985
 20
2.878151892865903
 30
0.0
 11
0.3515138260368058
 21
2.878151892865903
 31
0.0
  0
LINE
  5
CCF
330
17
100
AcDbEntity
  8
0
100
AcDbLine
 10
0.1600672166300807
 20
5.175705283459189
 30
0.0
 11
-0.2624861739631985
 21
4.753151892865903
 31
0.0
  0
ARC
  5
CD0
330
17
100
AcDbEntity
  8
0
100
AcDbCircle
 10
-0.1934861739632101
 20
5.529258674052462
 30
0.0
 40
0.5
100
AcDbArc
 50
315.0000000000009
 51
359.9999999999999
  0
LINE
  5
CD1
330
17
100
AcDbEntity
  8
0
100
AcDbLine
 10
2.042960435443531
 20
5.175705283459189
 30
0.0
 11
2.46551382603681
 21
4.753151892865903
 31
0.0
  0
ARC
  5
CD2
330
17
100
AcDbEntity
  8
0
100
AcDbCircle
 10
2.396513826036808
 20
5.529258674052462
 30
0.0
 40
0.5
100
AcDbArc
 50
180.0000000000001
 51
191.2684675810291
  0
LINE
  5
D5F
330
17
100
AcDbEntity
  8
0
  6
HIDDEN2
 62
     8
100
AcDbLine
 10
0.2265138260368076
 20
5.956251892865902
 30
0.0
 11
0.2265138260368058
 21
6.550051892865914
 31
0.0
  0
LINE
  5
D60
330
17
100
AcDbEntity
  8
0
  6
HIDDEN2
 62
     8
100
AcDbLine
 10
1.976513826036804
 20
5.956251892865902
 30
0.0
 11
1.976513826036806
 21
6.550051892865914
 31
0.0
  0
LINE
  5
D63
330
17
100
AcDbEntity
  8
0
100
AcDbLine
 10
0.2489059999999999
 20
6.550051892865911
 30
0.0
 11
0.2489060000000016
 21
20.2531598933779
 31
0.0
  0
LINE
  5
D66
330
17
100
AcDbEntity
  8
0
  6
HIDDEN2
 62
     8
100
AcDbLine
 10
0.2440138260368059
 20
5.956251892865902
 30
0.0
 11
0.2440138260368041
 21
6.550051892865914
 31
0.0
  0
LINE
  5
D67
330
17
100
AcDbEntity
  8
0
100
AcDbLine
 10
0.2489059999999999
 20
5.29625832122847
 30
0.0
 11
0.2489059999999999
 21
5.956251892865902
 31
0.0
  0
LINE
  5
D68
330
17
100
AcDbEntity
  8
0
100
AcDbLine
 10
0.2968750000000018
 20
2.878151892865903
 30
0.0
 11
0.2968750000000018
 21
0.4347263125134582
 31
0.0
  0
LINE
  5
D69
330
17
100
AcDbEntity
  8
0
  6
HIDDEN2
 62
     8
100
AcDbLine
 10
0.2489059999999999
 20
5.29625832122847
 30
0.0
 11
0.2489059999999999
 21
2.878151892865905
 31
0.0
  0
LINE
  5
D6A
330
17
100
AcDbEntity
  8
0
  6
HIDDEN2
 62
     8
100
AcDbLine
 10
0.2968750000000018
 20
2.878151892865903
 30
0.0
 11
0.2968750000000018
 21
5.431555454712356
 31
0.0
  0
LINE
  5
D7F
330
17
100
AcDbEntity
  8
0
100
AcDbLine
 10
1.718652652073605
 20
1.315650893377899
 30
0.0
 11
1.718652652073605
 21
0.4843750000000001
 31
0.0
  0
ARC
  5
D80
330
17
100
AcDbEntity
  8
0
100
AcDbCircle
 10
1.906152652073605
 20
1.315650893377899
 30
0.0
 40
0.1875
100
AcDbArc
 50
90.0
 51
180.0
  0
LINE
  5
D81
330
17
100
AcDbEntity
  8
0
100
AcDbLine
 10
1.954121652073605
 20
0.4396418637935114
 30
0.0
 11
1.954121652073605
 21
5.956251892865902
 31
0.0
  0
LINE
  5
D83
330
17
100
AcDbEntity
  8
0
100
AcDbLine
 10
1.954121652073605
 20
6.550051892865911
 30
0.0
 11
1.954121652073603
 21
20.2531598933779
 31
0.0
  0
LINE
  5
D84
330
17
100
AcDbEntity
  8
0
100
AcDbLine
 10
1.906152652073603
 20
20.2531598933779
 30
0.0
 11
1.906152652073603
 21
0.4347263125134582
 31
0.0
  0
LINE
  5
D86
330
17
100
AcDbEntity
  8
0
100
AcDbLine
 10
1.954121652073603
 20
20.2531598933779
 30
0.0
 11
1.906152652073603
 21
20.2531598933779
 31
0.0
  0
ARC
  5
D87
330
17
100
AcDbEntity
  8
0
100
AcDbCircle
 10
2.634244531904596
 20
-0.251601270252209
 30
0.0
 40
0.5
100
AcDbArc
 50
72.0744840309864
 51
96.02730489947702
  0
ARC
  5
D88
330
17
100
AcDbEntity
  8
0
100
AcDbCircle
 10
2.628721318973188
 20
-0.2006445889806443
 30
0.0
 40
0.5
100
AcDbArc
 50
72.22606597560922
 51
95.97329398043243
  0
LINE
  5
D89
330
17
100
AcDbEntity
  8
0
100
AcDbLine
 10
2.781352376153933
 20
0.2754895941903329
 30
0.0
 11
3.329121652073603
 21
0.0998949684948017
 31
0.0
  0
LINE
  5
D8A
330
17
100
AcDbEntity
  8
0
100
AcDbLine
 10
2.78813471597616
 20
0.2241274457681897
 30
0.0
 11
3.314195116011415
 21
0.0539558141891661
 31
0.0
  0
LINE
  5
D8B
330
17
100
AcDbEntity
  8
0
100
AcDbLine
 10
2.165137589838464
 20
0.2016469449404995
 30
0.0
 11
2.58174333133956
 21
0.245634713903435
 31
0.0
  0
LINE
  5
D8C
330
17
100
AcDbEntity
  8
0
100
AcDbLine
 10
2.161133820326048
 20
0.2531598933779016
 30
0.0
 11
2.576688870300004
 21
0.2966406654609842
 31
0.0
  0
LINE
  5
D8D
330
17
100
AcDbEntity
  8
0
100
AcDbLine
 10
2.203027652073605
 20
0.0000000000000001
 30
0.0
 11
2.641652652073605
 21
0.0000000000000001
 31
0.0
  0
LINE
  5
D8E
330
17
100
AcDbEntity
  8
0
100
AcDbLine
 10
3.314170118182108
 20
0.0538788787814256
 30
0.0
 11
3.329121652073603
 21
0.0998949684948017
 31
0.0
  0
LINE
  5
D8F
330
17
100
AcDbEntity
  8
0
100
AcDbLine
 10
3.081285118182105
 20
0.1292132328168663
 30
0.0
 11
3.096236652073603
 21
0.1752293225302424
 31
0.0
  0
LINE
  5
D90
330
17
100
AcDbEntity
  8
0
100
AcDbLine
 10
2.829152652073603
 20
0.1875000000000001
 30
0.0
 11
2.829152652073603
 21
0.210858838001407
 31
0.0
  0
ARC
  5
D91
330
17
100
AcDbEntity
  8
0
100
AcDbCircle
 10
2.641652652073605
 20
0.1875000000000001
 30
0.0
 40
0.1875
100
AcDbArc
 50
270.0
 51
0.000000000000007
  0
ARC
  5
D92
330
17
100
AcDbEntity
  8
0
100
AcDbCircle
 10
2.141621652073605
 20
0.4396418637935114
 30
0.0
 40
0.1875
100
AcDbArc
 50
180.0
 51
275.9732939804326
  0
ARC
  5
D93
330
17
100
AcDbEntity
  8
0
100
AcDbCircle
 10
2.140527652073603
 20
0.4347263125134582
 30
0.0
 40
0.234375
100
AcDbArc
 50
180.0
 51
276.027304899477
  0
ARC
  5
D94
330
17
100
AcDbEntity
  8
0
100
AcDbCircle
 10
2.203027652073605
 20
0.4843750000000001
 30
0.0
 40
0.484375
100
AcDbArc
 50
180.0
 51
270.0
  0
LINE
  5
D95
330
17
100
AcDbEntity
  8
0
  6
HIDDEN2
 62
     8
100
AcDbLine
 10
1.959013826036799
 20
5.956251892865902
 30
0.0
 11
1.9590138260368
 21
6.550051892865914
 31
0.0
  0
ARC
  5
FB8
330
17
100
AcDbEntity
  8
0
100
AcDbCircle
 10
2.396513826036808
 20
5.529258674052462
 30
0.0
 40
0.5
100
AcDbArc
 50
207.7750052424198
 51
224.999999999999
  0
ENDSEC
  0
SECTION
  2
OBJECTS
  0
DICTIONARY
  5
C
330
0
100
AcDbDictionary
281
     1
  3
ACAD_COLOR
350
82F
  3
ACAD_GROUP
350
D
  3
ACAD_LAYOUT
350
832
  3
ACAD_MATERIAL
350
82E
  3
ACAD_MLINESTYLE
350
1A
  3
ACAD_PLOTSETTINGS
350
833
  3
ACAD_PLOTSTYLENAME
350
82C
  3
ACAD_TABLESTYLE
350
830
  3
ACDBHEADERROUNDTRIPXREC
350
10F5
  3
ACDBVARIABLEDICTIONARY
350
4D
  3
ASE_INDEX_DICTIONARY
350
10D4
  0
DICTIONARY
  5
83F
330
2
100
AcDbDictionary
280
     1
281
     1
  3
ACAD_LAYERFILTERS
360
10D2
  3
ACAD_LAYERSTATES
360
840
  3
ACLYDICTIONARY
360
10D1
  0
DICTIONARY
  5
D64
330
17
100
AcDbDictionary
280
     1
281
     1
  3
ACAD_SORTENTS
360
D65
  0
DICTIONARY
  5
82F
102
{ACAD_REACTORS
330
C
102
}
330
C
100
AcDbDictionary
281
     1
  0
DICTIONARY
  5
D
102
{ACAD_REACTORS
330
C
102
}
330
C
100
AcDbDictionary
281
     1
  0
DICTIONARY
  5
832
102
{ACAD_REACTORS
330
C
102
}
330
C
100
AcDbDictionary
281
     1
  3
Layout1
350
835
  3
Model
350
834
  0
DICTIONARY
  5
82E
102
{ACAD_REACTORS
330
C
102
}
330
C
100
AcDbDictionary
281
     1
  0
DICTIONARY
  5
1A
102
{ACAD_REACTORS
330
C
102
}
330
C
100
AcDbDictionary
281
     1
  3
STANDARD
350
1B
  0
DICTIONARY
  5
833
102
{ACAD_REACTORS
330
C
102
}
330
C
100
AcDbDictionary
281
     1
  0
ACDBDICTIONARYWDFLT
  5
82C
102
{ACAD_REACTORS
330
C
102
}
330
C
100
AcDbDictionary
281
     1
  3
Normal
350
82D
100
AcDbDictionaryWithDefault
340
82D
  0
DICTIONARY
  5
830
102
{ACAD_REACTORS
330
C
102
}
330
C
100
AcDbDictionary
281
     1
  3
Standard
350
831
  0
DICTIONARY
  5
10F5
102
{ACAD_REACTORS
330
C
102
}
330
C
100
AcDbDictionary
281
     1
  3
COLORDICT
350
10F6
  3
MATERIALDICT
350
10F7
  0
DICTIONARY
  5
4D
102
{ACAD_REACTORS
330
C
102
}
330
C
100
AcDbDictionary
281
     1
  3
CTABLESTYLE
350
BC1
  3
DIMADEC
350
4E
  0
DICTIONARY
  5
10D4
102
{ACAD_REACTORS
330
C
102
}
330
C
100
AcDbDictionary
281
     1
  3
ASEBlockHierarchyIndexRecord
350
10D6
1001
DCO15
1040
1650279065.356
  0
DICTIONARY
  5
10D2
102
{ACAD_REACTORS
330
83F
102
}
330
83F
100
AcDbDictionary
281
     1
  0
DICTIONARY
  5
840
102
{ACAD_REACTORS
330
83F
102
}
330
83F
100
AcDbDictionary
281
     1
  0
DICTIONARY
  5
10D1
102
{ACAD_REACTORS
330
83F
102
}
330
83F
100
AcDbDictionary
281
     1
1001
ACAD
1000
<All
  0
SORTENTSTABLE
  5
D65
102
{ACAD_REACTORS
330
D64
102
}
330
D64
100
AcDbSortentsTable
330
17
331
0
  5
913
331
CC2
  5
CC7
331
CB1
  5
CB6
331
D63
  5
C15
331
C09
  5
C0B
331
D92
  5
D93
331
FB8
  5
D68
331
D67
  5
C14
331
D8E
  5
D8F
331
D83
  5
D84
331
D87
  5
D88
331
D90
  5
D91
331
D8B
  5
D8C
331
C17
  5
C1C
331
D94
  5
D95
331
D93
  5
D94
331
CB3
  5
CB8
331
D91
  5
D92
331
C19
  5
C1E
331
CBD
  5
CC2
331
CB8
  5
CBD
331
CBF
  5
CC4
331
CBA
  5
CBF
331
C1A
  5
C20
331
CB7
  5
CBC
331
C29
  5
CB2
331
CD2
  5
D66
331
CB9
  5
CBE
331
D66
  5
D6B
331
CB2
  5
CB7
331
D81
  5
D83
331
CAE
  5
CB3
331
CB0
  5
CB5
331
CB6
  5
CBB
331
C0A
  5
C0C
331
C1D
  5
C26
331
CBC
  5
CC1
331
CCE
  5
D5D
331
D80
  5
D81
331
D88
  5
D89
331
C1B
  5
C21
331
D8D
  5
D8E
331
D84
  5
D86
331
CCD
  5
CD2
331
C1E
  5
C27
331
D89
  5
D8A
331
C18
  5
C1D
331
CAF
  5
CB4
331
C26
  5
CAF
331
D8C
  5
D8D
331
CC9
  5
CCE
331
CC5
  5
CCA
331
CCC
  5
CD1
331
C27
  5
CB0
331
C15
  5
C1A
331
CC7
  5
CCC
331
D6A
  5
D6D
331
CC3
  5
CC8
331
CD1
  5
D63
331
D68
  5
C17
331
C1C
  5
C22
331
CC8
  5
CCD
331
C0B
  5
C0D
331
C16
  5
C1B
331
CBE
  5
CC3
331
C22
  5
CAE
331
D5F
  5
D69
331
C0D
  5
C18
331
C0C
  5
C16
331
CD0
  5
D60
331
D95
  5
DA4
331
CC4
  5
CC9
331
C21
  5
C29
331
CC6
  5
CCB
331
CC0
  5
CC5
331
D7F
  5
D80
331
CCF
  5
D5F
331
CC1
  5
CC6
331
CCA
  5
CCF
331
D60
  5
D6A
331
D8F
  5
D90
331
D69
  5
D6C
331
C14
  5
C19
331
CB4
  5
CB9
331
C20
  5
C28
331
C28
  5
CB1
331
CB5
  5
CBA
331
CCB
  5
CD0
331
CBB
  5
CC0
331
D86
  5
D87
331
D8A
  5
D8B
  0
LAYOUT
  5
835
102
{ACAD_REACTORS
330
832
102
}
102
{ACAD_XDICTIONARY
360
10F8
102
}
330
832
100
AcDbPlotSettings
  1

  2
HP LaserJet 2100 Series PS
  4

  6

 40
0.0
 41
0.0
 42
0.0
 43
0.0
 44
0.0
 45
0.0
 46
0.0
 47
0.0
 48
0.0
 49
0.0
140
0.0
141
0.0
142
1.0
143
1.0
 70
   688
 72
     0
 73
     0
 74
     5
  7
monochrome.ctb
 75
    16
147
1.0
148
0.0
149
0.0
100
AcDbLayout
  1
Layout1
 70
     0
 71
     1
 10
0.0
 20
0.0
 11
12.0
 21
9.0
 12
0.0
 22
0.0
 32
0.0
 14
1.000000000000000E+20
 24
1.000000000000000E+20
 34
1.000000000000000E+20
 15
-1.000000000000000E+20
 25
-1.000000000000000E+20
 35
-1.000000000000000E+20
146
0.0
 13
0.0
 23
0.0
 33
0.0
 16
1.0
 26
0.0
 36
0.0
 17
0.0
 27
1.0
 37
0.0
 76
     0
330
14
  0
LAYOUT
  5
834
102
{ACAD_REACTORS
330
832
102
}
102
{ACAD_XDICTIONARY
360
10FA
102
}
330
832
100
AcDbPlotSettings
  1

  2
HP LaserJet 2100 Series PS
  4
Letter
  6

 40
5.365749835968018
 41
5.408073902130127
 42
5.132904052734375
 43
5.090576171875
 44
215.8999938964844
 45
279.3999938964844
 46
0.0
 47
0.0
 48
0.0
 49
0.0
140
0.0
141
0.0
142
1.0
143
3.30601215063799
 70
 11952
 72
     0
 73
     0
 74
     2
  7
monochrome.ctb
 75
     0
147
0.3024792270672754
148
0.0
149
0.0
100
AcDbLayout
  1
Model
 70
     1
 71
     0
 10
0.0
 20
0.0
 11
12.0
 21
9.0
 12
0.0
 22
0.0
 32
0.0
 14
0.0
 24
0.0
 34
0.0
 15
0.0
 25
0.0
 35
0.0
146
0.0
 13
0.0
 23
0.0
 33
0.0
 16
1.0
 26
0.0
 36
0.0
 17
0.0
 27
1.0
 37
0.0
 76
     0
330
17
1001
ACAD_PSEXT
1000
HP LaserJet 2100 Series PS
1000
HP LaserJet 2100 Series PS
1000
LPT1:
1000

1070
     0
  0
MLINESTYLE
  5
1B
102
{ACAD_REACTORS
330
1A
102
}
330
1A
100
AcDbMlineStyle
  2
STANDARD
 70
     0
  3

 62
   256
 51
90.0
 52
90.0
 71
     2
 49
0.5
 62
   256
  6
BYLAYER
 49
-0.5
 62
   256
  6
BYLAYER
  0
ACDBPLACEHOLDER
  5
82D
102
{ACAD_REACTORS
330
82C
102
}
330
82C
  0
ACAD_PROXY_OBJECT
  5
831
102
{ACAD_REACTORS
330
830
102
}
330
830
100
AcDbProxyObject
 90
      499
 91
      503
 95
   983063
 70
     0
 93
     1841
310
4214DD185B99185C9928B81E85EB51B8AE3F2E07A17AD46E2B8FC02B5E8DC0F42B1CFD028000000C1008070000C3001FDFF8000000C1003FBFF000000182007F7FE00000030400FEFFC00000060801FDFF8000000C1003FBFF00000018200000000000000681FA0B0000001820100E000186003FBFF000000182007F7FE000
310
00030400FEFFC00000060801FDFF8000000C1003FBFF000000182007F7FE000000304000AD7A3703D0AC73F4160000003040201C00030C007F7FE00000030400FEFFC00000060801FDFF8000000C1003FBFF000000182007F7FE00000030400FEFFC000000608000
340
F
340
F
340
F
 94
        0
  0
XRECORD
  5
10F6
102
{ACAD_REACTORS
330
10F5
102
}
330
10F5
100
AcDbXrecord
340
82F
  0
XRECORD
  5
10F7
102
{ACAD_REACTORS
330
10F5
102
}
330
10F5
100
AcDbXrecord
340
82E
  0
DICTIONARYVAR
  5
BC1
102
{ACAD_REACTORS
330
4D
102
}
330
4D
100
DictionaryVariables
280
     0
  1
STANDARD
  0
DICTIONARYVAR
  5
4E
102
{ACAD_REACTORS
330
4D
102
}
330
4D
100
DictionaryVariables
280
     0
  1
0
  0
XRECORD
  5
10D6
102
{ACAD_REACTORS
330
10D4
102
}
330
10D4
100
AcDbXrecord
280
     1
330
0
  0
DICTIONARY
  5
10F8
330
835
100
AcDbDictionary
280
     1
281
     1
  3
ACAD_XREC_ROUNDTRIP
360
10F9
  0
DICTIONARY
  5
10FA
330
834
100
AcDbDictionary
280
     1
281
     1
  3
ACAD_XREC_ROUNDTRIP
360
10FB
  0
XRECORD
  5
10F9
102
{ACAD_REACTORS
330
10F8
102
}
330
10F8
100
AcDbXrecord
102
SHADEPLOT
 70
     0
102
SHADEPLOTRESLEVEL
 70
     2
102
SHADEPLOTCUSTOMDPI
 70
   300
  0
XRECORD
  5
10FB
102
{ACAD_REACTORS
330
10FA
102
}
330
10FA
100
AcDbXrecord
102
SHADEPLOT
 70
     0
102
SHADEPLOTRESLEVEL
 70
     2
102
SHADEPLOTCUSTOMDPI
 70
   300
  0
ENDSEC
  0
EOF
