  0
SECTION
  2
HEADER
  9
$ACADVER
  1
AC1015
  9
$ACADMAINTVER
 70
     6
  9
$DWGCODEPAGE
  3
ANSI_1252
  9
$INSBASE
 10
0.0
 20
0.0
 30
0.0
  9
$EXTMIN
 10
-11.98799856026675
 20
-0.1575681114029423
 30
-0.0000000000000058
  9
$EXTMAX
 10
18.9097230633115
 20
24.55182605570661
 30
0.0000000000000104
  9
$LIMMIN
 10
0.0
 20
0.0
  9
$LIMMAX
 10
26.6664
 20
34.99965
  9
$ORTHOMODE
 70
     1
  9
$REGENMODE
 70
     1
  9
$FILLMODE
 70
     1
  9
$QTEXTMODE
 70
     0
  9
$MIRRTEXT
 70
     1
  9
$LTSCALE
 40
0.5
  9
$ATTMODE
 70
     1
  9
$TEXTSIZE
 40
0.299997
  9
$TRACEWID
 40
0.05
  9
$TEXTSTYLE
  7
STANDARD
  9
$CLAYER
  8
0
  9
$CELTYPE
  6
BYLAYER
  9
$CECOLOR
 62
   256
  9
$CELTSCALE
 40
1.0
  9
$DISPSILH
 70
     0
  9
$DIMSCALE
 40
3.3333
  9
$DIMASZ
 40
0.125
  9
$DIMEXO
 40
0.062
  9
$DIMDLI
 40
0.375
  9
$DIMRND
 40
0.0
  9
$DIMDLE
 40
0.0
  9
$DIMEXE
 40
0.08
  9
$DIMTP
 40
0.0
  9
$DIMTM
 40
0.0
  9
$DIMTXT
 40
0.09
  9
$DIMCEN
 40
0.06
  9
$DIMTSZ
 40
0.0
  9
$DIMTOL
 70
     0
  9
$DIMLIM
 70
     0
  9
$DIMTIH
 70
     1
  9
$DIMTOH
 70
     1
  9
$DIMSE1
 70
     0
  9
$DIMSE2
 70
     0
  9
$DIMTAD
 70
     0
  9
$DIMZIN
 70
     0
  9
$DIMBLK
  1

  9
$DIMASO
 70
     0
  9
$DIMSHO
 70
     0
  9
$DIMPOST
  1

  9
$DIMAPOST
  1

  9
$DIMALT
 70
     0
  9
$DIMALTD
 70
     2
  9
$DIMALTF
 40
25.4
  9
$DIMLFAC
 40
1.0
  9
$DIMTOFL
 70
     0
  9
$DIMTVP
 40
0.0
  9
$DIMTIX
 70
     0
  9
$DIMSOXD
 70
     0
  9
$DIMSAH
 70
     0
  9
$DIMBLK1
  1

  9
$DIMBLK2
  1

  9
$DIMSTYLE
  2
STANDARD
  9
$DIMCLRD
 70
     0
  9
$DIMCLRE
 70
     0
  9
$DIMCLRT
 70
     0
  9
$DIMTFAC
 40
1.0
  9
$DIMGAP
 40
0.09375
  9
$DIMJUST
 70
     0
  9
$DIMSD1
 70
     0
  9
$DIMSD2
 70
     0
  9
$DIMTOLJ
 70
     1
  9
$DIMTZIN
 70
     0
  9
$DIMALTZ
 70
     0
  9
$DIMALTTZ
 70
     0
  9
$DIMUPT
 70
     0
  9
$DIMDEC
 70
     5
  9
$DIMTDEC
 70
     5
  9
$DIMALTU
 70
     5
  9
$DIMALTTD
 70
     2
  9
$DIMTXSTY
  7
STANDARD
  9
$DIMAUNIT
 70
     0
  9
$DIMADEC
 70
     0
  9
$DIMALTRND
 40
0.0
  9
$DIMAZIN
 70
     0
  9
$DIMDSEP
 70
    46
  9
$DIMATFIT
 70
     3
  9
$DIMFRAC
 70
     2
  9
$DIMLDRBLK
  1

  9
$DIMLUNIT
 70
     5
  9
$DIMLWD
 70
    -2
  9
$DIMLWE
 70
    -2
  9
$DIMTMOVE
 70
     2
  9
$LUNITS
 70
     5
  9
$LUPREC
 70
     5
  9
$SKETCHINC
 40
0.1
  9
$FILLETRAD
 40
0.04
  9
$AUNITS
 70
     0
  9
$AUPREC
 70
     0
  9
$MENU
  1
qa
  9
$ELEVATION
 40
0.0
  9
$PELEVATION
 40
0.0
  9
$THICKNESS
 40
0.0
  9
$LIMCHECK
 70
     0
  9
$CHAMFERA
 40
0.5
  9
$CHAMFERB
 40
0.5
  9
$CHAMFERC
 40
0.0
  9
$CHAMFERD
 40
0.0
  9
$SKPOLY
 70
     0
  9
$TDCREATE
 40
2450907.545796875
  9
$TDUCREATE
 40
2450907.879130208
  9
$TDUPDATE
 40
2454903.95526654
  9
$TDUUPDATE
 40
2454904.288599873
  9
$TDINDWG
 40
0.6548427662
  9
$TDUSRTIMER
 40
0.6548427662
  9
$USRTIMER
 70
     1
  9
$ANGBASE
 50
0.0
  9
$ANGDIR
 70
     0
  9
$PDMODE
 70
     0
  9
$PDSIZE
 40
0.0
  9
$PLINEWID
 40
0.0
  9
$SPLFRAME
 70
     0
  9
$SPLINETYPE
 70
     6
  9
$SPLINESEGS
 70
     8
  9
$HANDSEED
  5
10ED
  9
$SURFTAB1
 70
     6
  9
$SURFTAB2
 70
     6
  9
$SURFTYPE
 70
     6
  9
$SURFU
 70
     6
  9
$SURFV
 70
     6
  9
$UCSBASE
  2

  9
$UCSNAME
  2

  9
$UCSORG
 10
0.0
 20
0.0
 30
0.0
  9
$UCSXDIR
 10
1.0
 20
0.0
 30
0.0
  9
$UCSYDIR
 10
0.0
 20
1.0
 30
0.0
  9
$UCSORTHOREF
  2

  9
$UCSORTHOVIEW
 70
     0
  9
$UCSORGTOP
 10
0.0
 20
0.0
 30
0.0
  9
$UCSORGBOTTOM
 10
0.0
 20
0.0
 30
0.0
  9
$UCSORGLEFT
 10
0.0
 20
0.0
 30
0.0
  9
$UCSORGRIGHT
 10
0.0
 20
0.0
 30
0.0
  9
$UCSORGFRONT
 10
0.0
 20
0.0
 30
0.0
  9
$UCSORGBACK
 10
0.0
 20
0.0
 30
0.0
  9
$PUCSBASE
  2

  9
$PUCSNAME
  2

  9
$PUCSORG
 10
0.0
 20
0.0
 30
0.0
  9
$PUCSXDIR
 10
1.0
 20
0.0
 30
0.0
  9
$PUCSYDIR
 10
0.0
 20
1.0
 30
0.0
  9
$PUCSORTHOREF
  2

  9
$PUCSORTHOVIEW
 70
     0
  9
$PUCSORGTOP
 10
0.0
 20
0.0
 30
0.0
  9
$PUCSORGBOTTOM
 10
0.0
 20
0.0
 30
0.0
  9
$PUCSORGLEFT
 10
0.0
 20
0.0
 30
0.0
  9
$PUCSORGRIGHT
 10
0.0
 20
0.0
 30
0.0
  9
$PUCSORGFRONT
 10
0.0
 20
0.0
 30
0.0
  9
$PUCSORGBACK
 10
0.0
 20
0.0
 30
0.0
  9
$USERI1
 70
     0
  9
$USERI2
 70
     0
  9
$USERI3
 70
     0
  9
$USERI4
 70
     0
  9
$USERI5
 70
     0
  9
$USERR1
 40
0.0
  9
$USERR2
 40
0.0
  9
$USERR3
 40
0.0
  9
$USERR4
 40
0.0
  9
$USERR5
 40
0.0
  9
$WORLDVIEW
 70
     1
  9
$SHADEDGE
 70
     3
  9
$SHADEDIF
 70
    70
  9
$TILEMODE
 70
     1
  9
$MAXACTVP
 70
    16
  9
$PINSBASE
 10
0.0
 20
0.0
 30
0.0
  9
$PLIMCHECK
 70
     0
  9
$PEXTMIN
 10
1.000000000000000E+20
 20
1.000000000000000E+20
 30
1.000000000000000E+20
  9
$PEXTMAX
 10
-1.000000000000000E+20
 20
-1.000000000000000E+20
 30
-1.000000000000000E+20
  9
$PLIMMIN
 10
0.0
 20
0.0
  9
$PLIMMAX
 10
12.0
 20
9.0
  9
$UNITMODE
 70
     0
  9
$VISRETAIN
 70
     0
  9
$PLINEGEN
 70
     0
  9
$PSLTSCALE
 70
     0
  9
$TREEDEPTH
 70
  3020
  9
$CMLSTYLE
  2
STANDARD
  9
$CMLJUST
 70
     0
  9
$CMLSCALE
 40
1.0
  9
$PROXYGRAPHICS
 70
     1
  9
$MEASUREMENT
 70
     0
  9
$CELWEIGHT
370
    -1
  9
$ENDCAPS
280
     0
  9
$JOINSTYLE
280
     0
  9
$LWDISPLAY
290
     0
  9
$INSUNITS
 70
     0
  9
$HYPERLINKBASE
  1

  9
$STYLESHEET
  1
monochrome.ctb
  9
$XEDIT
290
     1
  9
$CEPSNTYPE
380
     0
  9
$PSTYLEMODE
290
     1
  9
$FINGERPRINTGUID
  2
{4DDCFF25-CC98-4327-A9E7-021E49314EB0}
  9
$VERSIONGUID
  2
{0805AB82-152B-4D43-988B-A9DB92876D23}
  9
$EXTNAMES
290
     1
  9
$PSVPSCALE
 40
0.0
  9
$OLESTARTUP
290
     0
  0
ENDSEC
  0
SECTION
  2
CLASSES
  0
CLASS
  1
DICTIONARYVAR
  2
AcDbDictionaryVar
  3
AutoCAD 2000
 90
        0
280
     0
281
     0
  0
CLASS
  1
LWPOLYLINE
  2
AcDbPolyline
  3
AutoCAD 2000
 90
        0
280
     0
281
     1
  0
CLASS
  1
ACDBDICTIONARYWDFLT
  2
AcDbDictionaryWithDefault
  3
AutoCAD 2000
 90
        0
280
     0
281
     0
  0
CLASS
  1
TABLESTYLE
  2
AcDbTableStyle
  3
ObjectDBX Classes
 90
     2047
280
     1
281
     0
  0
CLASS
  1
SORTENTSTABLE
  2
AcDbSortentsTable
  3
AutoCAD 2000
 90
        0
280
     0
281
     0
  0
CLASS
  1
DIMASSOC
  2
AcDbDimAssoc
  3
"AcDbDimAssoc|Product Desc:     AcDim ARX App For Dimension|Company:          Autodesk, Inc.|WEB Address:      www.autodesk.com"
 90
        0
280
     0
281
     0
  0
CLASS
  1
ACDBPLACEHOLDER
  2
AcDbPlaceHolder
  3
ObjectDBX Classes
 90
        0
280
     0
281
     0
  0
CLASS
  1
LAYOUT
  2
AcDbLayout
  3
ObjectDBX Classes
 90
        0
280
     0
281
     0
  0
ENDSEC
  0
SECTION
  2
TABLES
  0
TABLE
  2
VPORT
  5
8
330
0
100
AcDbSymbolTable
 70
     3
  0
VPORT
  5
10DD
330
8
100
AcDbSymbolTableRecord
100
AcDbViewportTableRecord
  2
*Active
 70
     0
 10
0.0
 20
0.0
 11
1.0
 21
1.0
 12
3.668180908582986
 22
11.67917726007046
 13
0.0
 23
0.0
 14
0.063
 24
0.063
 15
0.25
 25
0.25
 16
0.0
 26
0.0
 36
1.0
 17
0.0
 27
0.0
 37
0.0
 40
35.48652481892794
 41
1.703065134099617
 42
50.0
 43
0.0
 44
0.0
 50
0.0
 51
0.0
 71
     0
 72
   100
 73
     1
 74
     0
 75
     0
 76
     0
 77
     0
 78
     0
281
     0
 65
     1
110
0.0
120
0.0
130
0.0
111
1.0
121
0.0
131
0.0
112
0.0
122
1.0
132
0.0
 79
     0
146
0.0
  0
ENDTAB
  0
TABLE
  2
LTYPE
  5
5
330
0
100
AcDbSymbolTable
 70
     5
  0
LTYPE
  5
11
330
5
100
AcDbSymbolTableRecord
100
AcDbLinetypeTableRecord
  2
BYBLOCK
 70
     0
  3

 72
    65
 73
     0
 40
0.0
  0
LTYPE
  5
12
330
5
100
AcDbSymbolTableRecord
100
AcDbLinetypeTableRecord
  2
BYLAYER
 70
     0
  3

 72
    65
 73
     0
 40
0.0
  0
LTYPE
  5
13
330
5
100
AcDbSymbolTableRecord
100
AcDbLinetypeTableRecord
  2
CONTINUOUS
 70
     0
  3
Solid line
 72
    65
 73
     0
 40
0.0
  0
LTYPE
  5
83A
330
5
100
AcDbSymbolTableRecord
100
AcDbLinetypeTableRecord
  2
THD
 70
     0
  3
_ _ _ _ _ _ _ _ _ _ _ _ _ _ _ _ _ _ _ _ _ _ _ _
 72
    65
 73
     2
 40
0.15
 49
0.11
 74
     0
 49
-0.04
 74
     0
  0
LTYPE
  5
BDA
330
5
100
AcDbSymbolTableRecord
100
AcDbLinetypeTableRecord
  2
HIDDEN2
 70
     0
  3
Hidden (.5x) _ _ _ _ _ _ _ _ _ _ _ _ _ _ _ _ _
 72
    65
 73
     2
 40
0.1875
 49
0.125
 74
     0
 49
-0.0625
 74
     0
  0
ENDTAB
  0
TABLE
  2
LAYER
  5
2
102
{ACAD_XDICTIONARY
360
83F
102
}
330
0
100
AcDbSymbolTable
 70
    15
  0
LAYER
  5
E
330
2
100
AcDbSymbolTableRecord
100
AcDbLayerTableRecord
  2
0
 70
     0
 62
     7
  6
CONTINUOUS
370
    -3
390
82D
  0
LAYER
  5
C73
330
2
100
AcDbSymbolTableRecord
100
AcDbLayerTableRecord
  2
Defpoints
 70
     0
 62
     7
  6
CONTINUOUS
290
     0
370
    -3
390
82D
  0
ENDTAB
  0
TABLE
  2
STYLE
  5
3
330
0
100
AcDbSymbolTable
 70
     4
  0
STYLE
  5
F
330
3
100
AcDbSymbolTableRecord
100
AcDbTextStyleTableRecord
  2
STANDARD
 70
     0
 40
0.0
 41
1.0
 50
0.0
 71
     0
 42
0.299997
  3
TXT
  4

  0
ENDTAB
  0
TABLE
  2
VIEW
  5
6
330
0
100
AcDbSymbolTable
 70
     0
  0
ENDTAB
  0
TABLE
  2
UCS
  5
7
330
0
100
AcDbSymbolTable
 70
     0
  0
ENDTAB
  0
TABLE
  2
APPID
  5
9
330
0
100
AcDbSymbolTable
 70
     7
  0
APPID
  5
10
330
9
100
AcDbSymbolTableRecord
100
AcDbRegAppTableRecord
  2
ACAD
 70
     0
  0
APPID
  5
36
330
9
100
AcDbSymbolTableRecord
100
AcDbRegAppTableRecord
  2
AME_SOL
 70
     0
  0
APPID
  5
83C
330
9
100
AcDbSymbolTableRecord
100
AcDbRegAppTableRecord
  2
ACAD_PSEXT
 70
     0
  0
APPID
  5
83D
330
9
100
AcDbSymbolTableRecord
100
AcDbRegAppTableRecord
  2
RAK
 70
     0
  0
APPID
  5
83E
330
9
100
AcDbSymbolTableRecord
100
AcDbRegAppTableRecord
  2
AcAecLayerStandard
 70
     0
  0
APPID
  5
D23
330
9
100
AcDbSymbolTableRecord
100
AcDbRegAppTableRecord
  2
ACAD_DSTYLE_DIMTEXT_FILL
 70
     0
  0
APPID
  5
10D5
330
9
100
AcDbSymbolTableRecord
100
AcDbRegAppTableRecord
  2
DCO15
 70
     0
  0
ENDTAB
  0
TABLE
  2
DIMSTYLE
  5
A
330
0
100
AcDbSymbolTable
 70
     1
100
AcDbDimStyleTable
  0
DIMSTYLE
105
4FF
330
A
100
AcDbSymbolTableRecord
100
AcDbDimStyleTableRecord
  2
STANDARD
 70
     0
  3

  4

340
F
  0
ENDTAB
  0
TABLE
  2
BLOCK_RECORD
  5
1
330
0
100
AcDbSymbolTable
 70
     7
  0
BLOCK_RECORD
  5
17
102
{ACAD_XDICTIONARY
360
D64
102
}
330
1
100
AcDbSymbolTableRecord
100
AcDbBlockTableRecord
  2
*MODEL_SPACE
340
834
  0
BLOCK_RECORD
  5
14
330
1
100
AcDbSymbolTableRecord
100
AcDbBlockTableRecord
  2
*PAPER_SPACE
340
835
  0
ENDTAB
  0
ENDSEC
  0
SECTION
  2
BLOCKS
  0
BLOCK
  5
4B
330
17
100
AcDbEntity
  8
0
100
AcDbBlockBegin
  2
*MODEL_SPACE
 70
     0
 10
0.0
 20
0.0
 30
0.0
  3
*MODEL_SPACE
  1

  4

  0
ENDBLK
  5
4C
330
17
100
AcDbEntity
  8
0
100
AcDbBlockEnd
  0
BLOCK
  5
49
330
14
100
AcDbEntity
 67
     1
  8
0
100
AcDbBlockBegin
  2
*PAPER_SPACE
 70
     0
 10
0.0
 20
0.0
 30
0.0
  3
*PAPER_SPACE
  1

  4

  0
ENDBLK
  5
4A
330
14
100
AcDbEntity
 67
     1
  8
0
100
AcDbBlockEnd
  0
ENDSEC
  0
SECTION
  2
ENTITIES
  0
LINE
  5
90B
330
17
100
AcDbEntity
  8
0
  6
HIDDEN2
 62
     8
100
AcDbLine
 10
4.641302602302655
 20
4.876901128600192
 30
0.0
 11
2.639439527833691
 21
4.876901128600192
 31
0.0
  0
LINE
  5
90C
330
17
100
AcDbEntity
  8
0
  6
HIDDEN2
 62
     8
100
AcDbLine
 10
-0.5681271022980035
 20
4.876901128600196
 30
0.0
 11
-2.968430625912053
 21
4.876901128600196
 31
0.0
  0
LINE
  5
90D
330
17
100
AcDbEntity
  8
0
100
AcDbLine
 10
-3.601064011804699
 20
4.876901128600188
 30
0.0
 11
-3.601064011804699
 21
4.831901128600194
 31
0.0
  0
LINE
  5
90E
330
17
100
AcDbEntity
  8
0
100
AcDbLine
 10
5.273935988195301
 20
4.83190112860019
 30
0.0
 11
5.273935988195301
 21
4.876901128600188
 31
0.0
  0
LINE
  5
90F
330
17
100
AcDbEntity
  8
0
100
AcDbLine
 10
5.273935988195301
 20
4.83190112860019
 30
0.0
 11
2.627381814174289
 21
4.83190112860019
 31
0.0
  0
LINE
  5
910
330
17
100
AcDbEntity
  8
0
100
AcDbLine
 10
-0.8198140118047022
 20
4.831901128600194
 30
0.0
 11
-3.601064011804699
 21
4.831901128600194
 31
0.0
  0
LINE
  5
911
330
17
100
AcDbEntity
  8
0
100
AcDbLine
 10
4.641302602302655
 20
4.876901128600192
 30
0.0
 11
5.273935988195301
 21
4.876901128600188
 31
0.0
  0
LINE
  5
912
330
17
100
AcDbEntity
  8
0
100
AcDbLine
 10
-2.968430625912053
 20
4.876901128600196
 30
0.0
 11
-3.601064011804699
 21
4.876901128600188
 31
0.0
  0
LINE
  5
913
330
17
100
AcDbEntity
  8
0
100
AcDbLine
 10
2.867919895295305
 20
4.83190112860019
 30
0.0
 11
2.979983770474856
 21
5.020772921902708
 31
0.0
  0
LINE
  5
914
330
17
100
AcDbEntity
  8
0
100
AcDbLine
 10
3.179952081095305
 20
4.83190112860019
 30
0.0
 11
3.067888205915754
 21
5.020772921902708
 31
0.0
  0
ARC
  5
915
330
17
100
AcDbEntity
  8
0
100
AcDbCircle
 10
3.023935988195301
 20
4.994694618973696
 30
0.0
 40
0.0511065096264946
100
AcDbArc
 50
30.68205618136283
 51
149.3179438186372
  0
LINE
  5
916
330
17
100
AcDbEntity
  8
0
100
AcDbLine
 10
3.492919895295305
 20
4.83190112860019
 30
0.0
 11
3.604983770474856
 21
5.020772921902708
 31
0.0
  0
LINE
  5
917
330
17
100
AcDbEntity
  8
0
100
AcDbLine
 10
3.804952081095305
 20
4.83190112860019
 30
0.0
 11
3.692888205915754
 21
5.020772921902708
 31
0.0
  0
ARC
  5
918
330
17
100
AcDbEntity
  8
0
100
AcDbCircle
 10
3.648935988195301
 20
4.994694618973696
 30
0.0
 40
0.0511065096264946
100
AcDbArc
 50
30.68205618136283
 51
149.3179438186372
  0
LINE
  5
919
330
17
100
AcDbEntity
  8
0
100
AcDbLine
 10
4.117919895295305
 20
4.83190112860019
 30
0.0
 11
4.229983770474856
 21
5.020772921902708
 31
0.0
  0
LINE
  5
91A
330
17
100
AcDbEntity
  8
0
100
AcDbLine
 10
4.429952081095305
 20
4.83190112860019
 30
0.0
 11
4.317888205915754
 21
5.020772921902708
 31
0.0
  0
ARC
  5
91B
330
17
100
AcDbEntity
  8
0
100
AcDbCircle
 10
4.273935988195301
 20
4.994694618973696
 30
0.0
 40
0.0511065096264946
100
AcDbArc
 50
30.68205618136283
 51
149.3179438186372
  0
LINE
  5
91C
330
17
100
AcDbEntity
  8
0
100
AcDbLine
 10
-1.195047918904702
 20
4.83190112860019
 30
0.0
 11
-1.307111794084253
 21
5.020772921902712
 31
0.0
  0
LINE
  5
91D
330
17
100
AcDbEntity
  8
0
100
AcDbLine
 10
-1.507080104704702
 20
4.83190112860019
 30
0.0
 11
-1.395016229525158
 21
5.020772921902712
 31
0.0
  0
ARC
  5
91E
330
17
100
AcDbEntity
  8
0
100
AcDbCircle
 10
-1.351064011804713
 20
4.9946946189737
 30
0.0
 40
0.0511065096264946
100
AcDbArc
 50
30.68205618136283
 51
149.3179438186372
  0
LINE
  5
91F
330
17
100
AcDbEntity
  8
0
100
AcDbLine
 10
-1.820047918904702
 20
4.83190112860019
 30
0.0
 11
-1.932111794084253
 21
5.020772921902712
 31
0.0
  0
LINE
  5
920
330
17
100
AcDbEntity
  8
0
100
AcDbLine
 10
-2.132080104704702
 20
4.83190112860019
 30
0.0
 11
-2.020016229525158
 21
5.020772921902712
 31
0.0
  0
ARC
  5
921
330
17
100
AcDbEntity
  8
0
100
AcDbCircle
 10
-1.976064011804713
 20
4.9946946189737
 30
0.0
 40
0.0511065096264946
100
AcDbArc
 50
30.68205618136283
 51
149.3179438186372
  0
LINE
  5
922
330
17
100
AcDbEntity
  8
0
100
AcDbLine
 10
-2.445047918904702
 20
4.83190112860019
 30
0.0
 11
-2.557111794084253
 21
5.020772921902712
 31
0.0
  0
LINE
  5
923
330
17
100
AcDbEntity
  8
0
100
AcDbLine
 10
-2.757080104704702
 20
4.83190112860019
 30
0.0
 11
-2.645016229525158
 21
5.020772921902712
 31
0.0
  0
ARC
  5
924
330
17
100
AcDbEntity
  8
0
100
AcDbCircle
 10
-2.601064011804713
 20
4.9946946189737
 30
0.0
 40
0.0511065096264946
100
AcDbArc
 50
30.68205618136283
 51
149.3179438186372
  0
LINE
  5
925
330
17
100
AcDbEntity
  8
0
100
AcDbLine
 10
4.465756598937876
 20
6.883401128600188
 30
0.0
 11
0.2426859881952943
 21
6.883401128600188
 31
0.0
  0
LINE
  5
926
330
17
100
AcDbEntity
  8
0
100
AcDbLine
 10
-0.7573140118047022
 20
6.883401128600188
 30
0.0
 11
-2.792884622547273
 21
6.883401128600195
 31
0.0
  0
LINE
  5
927
330
17
100
AcDbEntity
  8
0
100
AcDbLine
 10
1.648935988195301
 20
4.945901128600188
 30
0.0
 11
1.648935988195301
 21
2.820901128600191
 31
0.0
  0
LINE
  5
928
330
17
100
AcDbEntity
  8
0
100
AcDbLine
 10
1.6039359881953
 20
4.945901128600188
 30
0.0
 11
1.6039359881953
 21
2.820901128600191
 31
0.0
  0
LINE
  5
930
330
17
100
AcDbEntity
  8
0
100
AcDbLine
 10
-2.972367615770718
 20
4.83190112860019
 30
0.0
 11
-2.792884622547273
 21
6.883401128600195
 31
0.0
  0
CIRCLE
  5
931
330
17
100
AcDbEntity
  8
0
100
AcDbCircle
 10
3.211435988195294
 20
6.383401128600195
 30
0.0
 40
0.0855
  0
CIRCLE
  5
932
330
17
100
AcDbEntity
  8
0
100
AcDbCircle
 10
3.961435988195294
 20
5.883401128600195
 30
0.0
 40
0.0855
  0
CIRCLE
  5
933
330
17
100
AcDbEntity
  8
0
100
AcDbCircle
 10
2.461435988195294
 20
5.508401128600195
 30
0.0
 40
0.0855
  0
LINE
  5
934
330
17
100
AcDbEntity
  8
0
100
AcDbLine
 10
1.6039359881953
 20
2.820901128600191
 30
0.0
 11
1.992620114697932
 21
2.820901128600191
 31
0.0
  0
ARC
  5
935
330
17
100
AcDbEntity
  8
0
100
AcDbCircle
 10
1.992620114697925
 20
2.945901128600188
 30
0.0
 40
0.125
100
AcDbArc
 50
270.0
 51
344.9999999999999
  0
LINE
  5
936
330
17
100
AcDbEntity
  8
0
100
AcDbLine
 10
1.086435988195301
 20
5.445901128600184
 30
0.0
 11
0.3051859881952979
 21
5.445901128600188
 31
0.0
  0
LINE
  5
937
330
17
100
AcDbEntity
  8
0
  6
HIDDEN2
 62
     8
100
AcDbLine
 10
-0.5801848159574057
 20
4.831901128600194
 30
0.0
 11
-0.4404888665934585
 21
5.353253509238005
 31
0.0
  0
ARC
  5
938
330
17
100
AcDbEntity
  8
0
  6
HIDDEN2
 62
     8
100
AcDbCircle
 10
-0.319748138307336
 20
5.320901128600191
 30
0.0
 40
0.125
100
AcDbArc
 50
90.0
 51
164.9999999999998
  0
ARC
  5
939
330
17
100
AcDbEntity
  8
0
100
AcDbCircle
 10
1.148935988195294
 20
4.945901128600191
 30
0.0
 40
0.5
100
AcDbArc
 50
0.0
 51
90.0
  0
LINE
  5
93A
330
17
100
AcDbEntity
  8
0
  6
THD
100
AcDbLine
 10
1.148935988195301
 20
5.445901128600188
 30
0.0
 11
1.086435988195301
 21
5.445901128600188
 31
0.0
  0
LINE
  5
93B
330
17
100
AcDbEntity
  8
0
100
AcDbLine
 10
4.645239592161328
 20
4.83190112860019
 30
0.0
 11
4.465756598937876
 21
6.883401128600188
 31
0.0
  0
ARC
  5
93C
330
17
100
AcDbEntity
  8
0
100
AcDbCircle
 10
1.103940104020136
 20
4.947929874000796
 30
0.0
 40
0.5
100
AcDbArc
 50
359.7675222637853
 51
84.83686646958195
  0
LINE
  5
93D
330
17
100
AcDbEntity
  8
0
  6
HIDDEN2
 62
     8
100
AcDbLine
 10
0.0239359881953014
 20
4.945901128600188
 30
0.0
 11
0.0239359881952943
 21
2.820901128600191
 31
0.0
  0
LINE
  5
93E
330
17
100
AcDbEntity
  8
0
  6
HIDDEN2
 62
     8
100
AcDbLine
 10
0.0689359881953031
 20
4.945901128600188
 30
0.0
 11
0.068935988195296
 21
2.820901128600191
 31
0.0
  0
LINE
  5
93F
330
17
100
AcDbEntity
  8
0
  6
HIDDEN2
 62
     8
100
AcDbLine
 10
0.068935988195296
 20
2.820901128600191
 30
0.0
 11
-0.319748138307336
 21
2.820901128600191
 31
0.0
  0
ARC
  5
940
330
17
100
AcDbEntity
  8
0
  6
HIDDEN2
 62
     8
100
AcDbCircle
 10
-0.3197481383073431
 20
2.945901128600191
 30
0.0
 40
0.125
100
AcDbArc
 50
194.9999999999999
 51
270.0
  0
LINE
  5
941
330
17
100
AcDbEntity
  8
0
100
AcDbLine
 10
-0.8198140118047057
 20
4.329209462479149
 30
0.0
 11
-0.9545098377836929
 21
4.831901128600194
 31
0.0
  0
ARC
  5
942
330
17
100
AcDbEntity
  8
0
  6
HIDDEN2
 62
     8
100
AcDbCircle
 10
0.5239359881952943
 20
4.945901128600191
 30
0.0
 40
0.5
100
AcDbArc
 50
90.0
 51
180.0
  0
ARC
  5
943
330
17
100
AcDbEntity
  8
0
  6
HIDDEN2
 62
     8
100
AcDbCircle
 10
0.5689318723704524
 20
4.947929874000796
 30
0.0
 40
0.5
100
AcDbArc
 50
95.16313353041805
 51
180.2324777362148
  0
LINE
  5
944
330
17
100
AcDbEntity
  8
0
100
AcDbLine
 10
2.113360842984069
 20
2.913548747962373
 30
0.0
 11
2.639439527833691
 21
4.876901128600192
 31
0.0
  0
LINE
  5
945
330
17
100
AcDbEntity
  8
0
100
AcDbLine
 10
0.8364109881953006
 20
6.492801128600188
 30
0.0
 11
-1.351039011804705
 21
6.492801128600188
 31
0.0
  0
LINE
  5
946
330
17
100
AcDbEntity
  8
0
100
AcDbLine
 10
0.8364109881953006
 20
5.89900112860018
 30
0.0
 11
-1.351039011804705
 21
5.89900112860018
 31
0.0
  0
LINE
  5
947
330
17
100
AcDbEntity
  8
0
  6
THD
100
AcDbLine
 10
0.7926609881952977
 20
6.492801128600188
 30
0.0
 11
0.7926609881952977
 21
5.89900112860018
 31
0.0
  0
LINE
  5
948
330
17
100
AcDbEntity
  8
0
  6
THD
100
AcDbLine
 10
-1.307289011804706
 20
5.89900112860018
 30
0.0
 11
-1.307289011804706
 21
6.492801128600188
 31
0.0
  0
ARC
  5
949
330
17
100
AcDbEntity
  8
0
100
AcDbCircle
 10
0.0864359881952979
 20
6.19590112860018
 30
0.0
 40
0.0855
100
AcDbArc
 50
270.0
 51
90.0
  0
ARC
  5
94A
330
17
100
AcDbEntity
  8
0
100
AcDbCircle
 10
-0.6010640118047022
 20
6.19590112860018
 30
0.0
 40
0.0855
100
AcDbArc
 50
90.0
 51
270.0
  0
LINE
  5
94B
330
17
100
AcDbEntity
  8
0
100
AcDbLine
 10
-0.6010640118047022
 20
6.281401128600184
 30
0.0
 11
0.0864359881952979
 21
6.281401128600184
 31
0.0
  0
LINE
  5
94C
330
17
100
AcDbEntity
  8
0
100
AcDbLine
 10
-0.6010640118047022
 20
6.110401128600184
 30
0.0
 11
0.0864359881952979
 21
6.110401128600184
 31
0.0
  0
CIRCLE
  5
94D
330
17
100
AcDbEntity
  8
0
100
AcDbCircle
 10
-0.2573140118047022
 20
19.44590112860018
 30
0.0
 40
0.0855
  0
LINE
  5
94E
330
17
100
AcDbEntity
  8
0
100
AcDbLine
 10
-0.8198140118047022
 20
7.32090112860018
 30
0.0
 11
-0.8198140118047022
 21
20.19590112860018
 31
0.0
  0
LINE
  5
94F
330
17
100
AcDbEntity
  8
0
100
AcDbLine
 10
0.3051859881952979
 20
20.19590112860018
 30
0.0
 11
0.3051859881952979
 21
7.32090112860018
 31
0.0
  0
LINE
  5
950
330
17
100
AcDbEntity
  8
0
100
AcDbLine
 10
0.3051859881952979
 20
20.19590112860018
 30
0.0
 11
-0.8198140118047022
 21
20.19590112860018
 31
0.0
  0
CIRCLE
  5
951
330
17
100
AcDbEntity
  8
0
100
AcDbCircle
 10
0.0551859881952979
 20
19.85216712860018
 30
0.0
 40
0.0855
  0
LINE
  5
952
330
17
100
AcDbEntity
  8
0
100
AcDbLine
 10
0.0551859881952979
 20
4.601390528948897
 30
0.0
 11
0.0551859881952979
 21
4.305041679735751
 31
0.0
  0
LINE
  5
953
330
17
100
AcDbEntity
  8
0
100
AcDbLine
 10
0.0551859881952979
 20
4.305041679735751
 30
0.0
 11
0.1130161263508249
 21
4.425371817891278
 31
0.0
  0
LINE
  5
954
330
17
100
AcDbEntity
  8
0
100
AcDbLine
 10
0.0551859881952979
 20
4.305041679735751
 30
0.0
 11
-0.0026441499602292
 21
4.425371817891278
 31
0.0
  0
LINE
  5
955
330
17
100
AcDbEntity
  8
0
100
AcDbLine
 10
-0.8198140118047022
 20
6.82090112860018
 30
0.0
 11
-0.8198140118047022
 21
6.492801128600188
 31
0.0
  0
LINE
  5
956
330
17
100
AcDbEntity
  8
0
100
AcDbLine
 10
0.3051859881952979
 20
6.82090112860018
 30
0.0
 11
0.3051859881952979
 21
6.492801128600188
 31
0.0
  0
CIRCLE
  5
957
330
17
100
AcDbEntity
  8
0
100
AcDbCircle
 10
-0.5698140118047022
 20
18.63341712860018
 30
0.0
 40
0.0855
  0
CIRCLE
  5
958
330
17
100
AcDbEntity
  8
0
100
AcDbCircle
 10
0.0551859881952979
 20
17.41466712860018
 30
0.0
 40
0.0855
  0
CIRCLE
  5
959
330
17
100
AcDbEntity
  8
0
100
AcDbCircle
 10
-0.5698140118047022
 20
16.19591712860018
 30
0.0
 40
0.0855
  0
POINT
  5
95A
330
17
100
AcDbEntity
  8
0
100
AcDbPoint
 10
-0.8198140118047022
 20
16.19590112860018
 30
0.0
  0
CIRCLE
  5
95B
330
17
100
AcDbEntity
  8
0
100
AcDbCircle
 10
-0.5698140118047022
 20
13.75841712860018
 30
0.0
 40
0.0855
  0
CIRCLE
  5
95C
330
17
100
AcDbEntity
  8
0
100
AcDbCircle
 10
-0.2573140118047022
 20
15.44590112860018
 30
0.0
 40
0.0855
  0
CIRCLE
  5
95D
330
17
100
AcDbEntity
  8
0
100
AcDbCircle
 10
0.0551859881952979
 20
14.97716712860018
 30
0.0
 40
0.0855
  0
CIRCLE
  5
95E
330
17
100
AcDbEntity
  8
0
100
AcDbCircle
 10
-0.2573140118047022
 20
13.44590112860018
 30
0.0
 40
0.0855
  0
CIRCLE
  5
95F
330
17
100
AcDbEntity
  8
0
100
AcDbCircle
 10
0.0551859881952979
 20
12.53966712860018
 30
0.0
 40
0.0855
  0
CIRCLE
  5
960
330
17
100
AcDbEntity
  8
0
100
AcDbCircle
 10
0.0551859881952979
 20
10.10216712860018
 30
0.0
 40
0.0855
  0
CIRCLE
  5
961
330
17
100
AcDbEntity
  8
0
100
AcDbCircle
 10
-0.5698140118047022
 20
11.32091712860018
 30
0.0
 40
0.0855
  0
CIRCLE
  5
962
330
17
100
AcDbEntity
  8
0
100
AcDbCircle
 10
-0.2573140118047022
 20
9.69590112860018
 30
0.0
 40
0.0855
  0
CIRCLE
  5
963
330
17
100
AcDbEntity
  8
0
100
AcDbCircle
 10
-0.5698140118047022
 20
8.883417128600183
 30
0.0
 40
0.0855
  0
TEXT
  5
964
330
17
100
AcDbEntity
  8
0
100
AcDbText
 10
0.1268877974289318
 20
4.731090239490239
 30
0.0
 40
0.131486625
  1
EMBEDMENT  I  
 50
90.0
100
AcDbText
  0
LINE
  5
965
330
17
100
AcDbEntity
  8
0
100
AcDbLine
 10
0.2426859881952979
 20
7.25840112860018
 30
0.0
 11
0.2426859881952979
 21
6.88340112860018
 31
0.0
  0
CIRCLE
  5
966
330
17
100
AcDbEntity
  8
0
100
AcDbCircle
 10
-0.2573140118047022
 20
7.94590112860018
 30
0.0
 40
0.0855
  0
ARC
  5
967
330
17
100
AcDbEntity
  8
0
100
AcDbCircle
 10
0.3051859881952979
 20
7.25840112860018
 30
0.0
 40
0.0625
100
AcDbArc
 50
90.0
 51
180.0
  0
ARC
  5
968
330
17
100
AcDbEntity
  8
0
100
AcDbCircle
 10
0.3051859881952979
 20
6.88340112860018
 30
0.0
 40
0.0625
100
AcDbArc
 50
180.0
 51
270.0
  0
LINE
  5
969
330
17
100
AcDbEntity
  8
0
100
AcDbLine
 10
-0.7573140118047022
 20
6.88340112860018
 30
0.0
 11
-0.7573140118047022
 21
7.25840112860018
 31
0.0
  0
ARC
  5
96A
330
17
100
AcDbEntity
  8
0
100
AcDbCircle
 10
-0.8198140118047022
 20
7.25840112860018
 30
0.0
 40
0.0625
100
AcDbArc
 50
0.0
 51
90.0
  0
ARC
  5
96B
330
17
100
AcDbEntity
  8
0
100
AcDbCircle
 10
-0.8198140118047022
 20
6.88340112860018
 30
0.0
 40
0.0625
100
AcDbArc
 50
270.0
 51
0.0
  0
CIRCLE
  5
96C
330
17
100
AcDbEntity
  8
0
100
AcDbCircle
 10
-0.2573140118047022
 20
6.19590112860018
 30
0.0
 40
0.0855
  0
CIRCLE
  5
96D
330
17
100
AcDbEntity
  8
0
100
AcDbCircle
 10
-0.2573140118047057
 20
4.69590112860018
 30
0.0
 40
0.0855
  0
LINE
  5
96E
330
17
100
AcDbEntity
  8
0
100
AcDbLine
 10
-0.2209030118047117
 20
0.541020978210156
 30
0.0
 11
-0.2209030118047117
 21
0.7948304919010951
 31
0.0
  0
LINE
  5
96F
330
17
100
AcDbEntity
  8
0
100
AcDbLine
 10
-0.4812250118047068
 20
0.1681566621057264
 30
0.0
 11
-0.4812250118047068
 21
1.102156929279733
 31
0.0
  0
LINE
  5
970
330
17
100
AcDbEntity
  8
0
100
AcDbLine
 10
-0.0334030118047117
 20
0.16815666210573
 30
0.0
 11
-0.0334030118047117
 21
1.102156929279712
 31
0.0
  0
LINE
  5
971
330
17
100
AcDbEntity
  8
0
100
AcDbLine
 10
-0.2937250118047068
 20
0.5363208020306942
 30
0.0
 11
-0.2937250118047068
 21
0.904109588073581
 31
0.0
  0
LINE
  5
972
330
17
100
AcDbEntity
  8
0
100
AcDbLine
 10
0.0290969881952883
 20
0.195791128600181
 30
0.0
 11
0.0290969881952883
 21
1.102985128600182
 31
0.0
  0
LINE
  5
973
330
17
100
AcDbEntity
  8
0
100
AcDbLine
 10
-0.5437250118047068
 20
0.195791128600181
 30
0.0
 11
-0.5437250118047068
 21
1.102985128600182
 31
0.0
  0
LINE
  5
974
330
17
100
AcDbEntity
  8
0
100
AcDbLine
 10
-0.1010640118047022
 20
4.19590112860018
 30
0.0
 11
0.2114359881952979
 21
4.19590112860018
 31
0.0
  0
LINE
  5
975
330
17
100
AcDbEntity
  8
0
100
AcDbLine
 10
-0.1010640118047022
 20
4.19590112860018
 30
0.0
 11
0.2114359881952979
 21
4.19590112860018
 31
0.0
  0
LINE
  5
976
330
17
100
AcDbEntity
  8
0
100
AcDbLine
 10
-0.1010640118047022
 20
4.18027612860018
 30
0.0
 11
0.2114359881952979
 21
4.18027612860018
 31
0.0
  0
SOLID
  5
977
330
17
100
AcDbEntity
  8
0
100
AcDbTrace
 10
-0.1010640118047022
 20
4.18027612860018
 30
0.0
 11
-0.1010640118047022
 21
4.19590112860018
 31
0.0
 12
0.2114359881952979
 22
4.18027612860018
 32
0.0
 13
0.2114359881952979
 23
4.19590112860018
 33
0.0
  0
LINE
  5
978
330
17
100
AcDbEntity
  8
0
100
AcDbLine
 10
0.2114359881952979
 20
4.18027612860018
 30
0.0
 11
0.2114359881952979
 21
4.19590112860018
 31
0.0
  0
LINE
  5
979
330
17
100
AcDbEntity
  8
0
100
AcDbLine
 10
-0.1010640118047022
 20
4.18027612860018
 30
0.0
 11
-0.1010640118047022
 21
4.19590112860018
 31
0.0
  0
CIRCLE
  5
97A
330
17
100
AcDbEntity
  8
0
100
AcDbCircle
 10
-0.4448140118047057
 20
2.44590112860018
 30
0.0
 40
0.0855
  0
ARC
  5
97B
330
17
100
AcDbEntity
  8
0
100
AcDbCircle
 10
-0.2573140118047093
 20
1.09584312860018
 30
0.0
 40
0.224
100
AcDbArc
 50
358.5716720000002
 51
181.4283279999999
  0
ARC
  5
97C
330
17
100
AcDbEntity
  8
0
100
AcDbCircle
 10
-0.2573140118047093
 20
1.09584312860018
 30
0.0
 40
0.2865
100
AcDbArc
 50
358.5716720000002
 51
181.4283279999999
  0
LINE
  5
97D
330
17
100
AcDbEntity
  8
0
100
AcDbLine
 10
-0.2209030118047117
 20
0.8571078262789627
 30
0.0
 11
-0.2209030118047117
 21
1.102985128600182
 31
0.0
  0
LINE
  5
97E
330
17
100
AcDbEntity
  8
0
100
AcDbLine
 10
-0.2937250118047068
 20
0.9934129354833559
 30
0.0
 11
-0.2937250118047068
 21
1.102985128600182
 31
0.0
  0
ARC
  5
97F
330
17
100
AcDbEntity
  8
0
100
AcDbCircle
 10
-0.2573140118047093
 20
1.09584312860018
 30
0.0
 40
0.0365
100
AcDbArc
 50
358.5716720000002
 51
181.4283279999999
  0
LINE
  5
980
330
17
100
AcDbEntity
  8
0
100
AcDbLine
 10
-0.5698140118047093
 20
0.0
 30
0.0
 11
-0.0551859881952872
 21
0.0
 31
0.0
  0
LINE
  5
981
330
17
100
AcDbEntity
  8
0
100
AcDbLine
 10
-0.5690357660622638
 20
0.0508000000000024
 30
0.0
 11
-0.0146119726826015
 21
0.0508000000000024
 31
0.0
  0
ARC
  5
982
330
17
100
AcDbEntity
  8
0
100
AcDbCircle
 10
-0.2573140118047093
 20
0.7590634694617577
 30
0.0
 40
0.6319074227295306
100
AcDbArc
 50
243.0257162459244
 51
296.9742837540754
  0
LINE
  5
983
330
17
100
AcDbEntity
  8
0
100
AcDbLine
 10
-0.2209030118047117
 20
0.1550187895898425
 30
0.0
 11
-0.2209030118047117
 21
0.4611179831593049
 31
0.0
  0
LINE
  5
984
330
17
100
AcDbEntity
  8
0
100
AcDbLine
 10
-0.2937250118047068
 20
0.1679439629689199
 30
0.0
 11
-0.2937250118047068
 21
0.4787433327178405
 31
0.0
  0
LINE
  5
985
330
17
100
AcDbEntity
  8
0
100
AcDbLine
 10
-0.0551859881952907
 20
0.0
 30
0.0
 11
0.0551859881952907
 21
0.0
 31
0.0
  0
LINE
  5
986
330
17
100
AcDbEntity
  8
0
100
AcDbLine
 10
-0.0146119726826051
 20
0.0508000000000024
 30
0.0
 11
0.0559642339377362
 21
0.0508000000000024
 31
0.0
  0
LINE
  5
987
330
17
100
AcDbEntity
  8
0
100
AcDbLine
 10
0.0551859881952907
 20
0.0
 30
0.0
 11
0.0559642339377362
 21
0.0508000000000024
 31
0.0
  0
LINE
  5
988
330
17
100
AcDbEntity
  8
0
100
AcDbLine
 10
0.3051859881952908
 20
0.1959011286001768
 30
0.0
 11
0.0293132177740674
 21
0.1959011286001804
 31
0.0
  0
LINE
  5
989
330
17
100
AcDbEntity
  8
0
100
AcDbLine
 10
0.0551859881952907
 20
0.0
 30
0.0
 11
0.3051859881952908
 21
0.0508000000000024
 31
0.0
  0
LINE
  5
98A
330
17
100
AcDbEntity
  8
0
100
AcDbLine
 10
0.0559642339377362
 20
0.0508000000000024
 30
0.0
 11
0.3051859881952908
 21
0.1015999999999977
 31
0.0
  0
ARC
  5
98B
330
17
100
AcDbEntity
  8
0
100
AcDbCircle
 10
-0.2573140118047093
 20
0.2030431286001857
 30
0.0
 40
0.2865
100
AcDbArc
 50
225.1294059666963
 51
314.8705940333037
  0
LINE
  5
98C
330
17
100
AcDbEntity
  8
0
100
AcDbLine
 10
-0.5698140118047093
 20
0.0
 30
0.0
 11
-0.5690357660622638
 21
0.0508000000000024
 31
0.0
  0
LINE
  5
98D
330
17
100
AcDbEntity
  8
0
100
AcDbLine
 10
-0.5439412413834859
 20
0.1959011286001804
 30
0.0
 11
-0.8198140118047128
 21
0.1959011286001839
 31
0.0
  0
LINE
  5
98E
330
17
100
AcDbEntity
  8
0
100
AcDbLine
 10
-0.8198140118047093
 20
0.0508000000000024
 30
0.0
 11
-0.5698140118047093
 21
0.0
 31
0.0
  0
LINE
  5
98F
330
17
100
AcDbEntity
  8
0
100
AcDbLine
 10
-0.8198140118047093
 20
0.1015999999999977
 30
0.0
 11
-0.5690357660622638
 21
0.0508000000000024
 31
0.0
  0
CIRCLE
  5
990
330
17
100
AcDbEntity
  8
0
100
AcDbCircle
 10
1.930185988195305
 20
19.44590112860018
 30
0.0
 40
0.0855
  0
LINE
  5
991
330
17
100
AcDbEntity
  8
0
100
AcDbLine
 10
2.492685988195305
 20
7.32090112860018
 30
0.0
 11
2.492685988195305
 21
20.19590112860018
 31
0.0
  0
LINE
  5
992
330
17
100
AcDbEntity
  8
0
100
AcDbLine
 10
1.367685988195305
 20
20.19590112860018
 30
0.0
 11
1.367685988195305
 21
7.32090112860018
 31
0.0
  0
LINE
  5
993
330
17
100
AcDbEntity
  8
0
100
AcDbLine
 10
1.367685988195305
 20
20.19590112860018
 30
0.0
 11
2.492685988195305
 21
20.19590112860018
 31
0.0
  0
CIRCLE
  5
994
330
17
100
AcDbEntity
  8
0
100
AcDbCircle
 10
1.617685988195305
 20
19.85216712860018
 30
0.0
 40
0.0855
  0
LINE
  5
998
330
17
100
AcDbEntity
  8
0
100
AcDbLine
 10
2.492685988195305
 20
4.329209462479145
 30
0.0
 11
2.492685988195305
 21
0.0508000000000024
 31
0.0
  0
LINE
  5
999
330
17
100
AcDbEntity
  8
0
100
AcDbLine
 10
1.367685988195305
 20
5.395510333910753
 30
0.0
 11
1.367685988195305
 21
0.0508000000000024
 31
0.0
  0
CIRCLE
  5
99A
330
17
100
AcDbEntity
  8
0
100
AcDbCircle
 10
2.242685988195305
 20
18.63341712860018
 30
0.0
 40
0.0855
  0
CIRCLE
  5
99B
330
17
100
AcDbEntity
  8
0
100
AcDbCircle
 10
1.617685988195305
 20
17.41466712860018
 30
0.0
 40
0.0855
  0
CIRCLE
  5
99C
330
17
100
AcDbEntity
  8
0
100
AcDbCircle
 10
2.242685988195305
 20
16.19591712860018
 30
0.0
 40
0.0855
  0
POINT
  5
99D
330
17
100
AcDbEntity
  8
0
100
AcDbPoint
 10
2.492685988195305
 20
16.19590112860018
 30
0.0
 50
360.0
  0
CIRCLE
  5
99E
330
17
100
AcDbEntity
  8
0
100
AcDbCircle
 10
2.242685988195305
 20
13.75841712860018
 30
0.0
 40
0.0855
  0
CIRCLE
  5
99F
330
17
100
AcDbEntity
  8
0
100
AcDbCircle
 10
1.930185988195305
 20
15.44590112860018
 30
0.0
 40
0.0855
  0
CIRCLE
  5
9A0
330
17
100
AcDbEntity
  8
0
100
AcDbCircle
 10
1.617685988195305
 20
14.97716712860018
 30
0.0
 40
0.0855
  0
CIRCLE
  5
9A1
330
17
100
AcDbEntity
  8
0
100
AcDbCircle
 10
1.930185988195305
 20
13.44590112860018
 30
0.0
 40
0.0855
  0
CIRCLE
  5
9A2
330
17
100
AcDbEntity
  8
0
100
AcDbCircle
 10
1.617685988195305
 20
12.53966712860018
 30
0.0
 40
0.0855
  0
CIRCLE
  5
9A3
330
17
100
AcDbEntity
  8
0
100
AcDbCircle
 10
1.617685988195305
 20
10.10216712860018
 30
0.0
 40
0.0855
  0
CIRCLE
  5
9A4
330
17
100
AcDbEntity
  8
0
100
AcDbCircle
 10
2.242685988195305
 20
11.32091712860018
 30
0.0
 40
0.0855
  0
CIRCLE
  5
9A5
330
17
100
AcDbEntity
  8
0
100
AcDbCircle
 10
1.930185988195305
 20
9.69590112860018
 30
0.0
 40
0.0855
  0
CIRCLE
  5
9A6
330
17
100
AcDbEntity
  8
0
100
AcDbCircle
 10
2.242685988195305
 20
8.883417128600183
 30
0.0
 40
0.0855
  0
LINE
  5
9A7
330
17
100
AcDbEntity
  8
0
100
AcDbLine
 10
1.430185988195305
 20
7.25840112860018
 30
0.0
 11
1.430185988195305
 21
6.88340112860018
 31
0.0
  0
CIRCLE
  5
9A8
330
17
100
AcDbEntity
  8
0
100
AcDbCircle
 10
1.930185988195305
 20
7.94590112860018
 30
0.0
 40
0.0855
  0
ARC
  5
9A9
330
17
100
AcDbEntity
  8
0
100
AcDbCircle
 10
1.367685988195305
 20
7.25840112860018
 30
0.0
 40
0.0625
100
AcDbArc
 50
0.0
 51
90.0
  0
ARC
  5
9AA
330
17
100
AcDbEntity
  8
0
  6
HIDDEN2
 62
     8
100
AcDbCircle
 10
1.367685988195305
 20
6.88340112860018
 30
0.0
 40
0.0625
100
AcDbArc
 50
270.0
 51
0.0
  0
LINE
  5
9AB
330
17
100
AcDbEntity
  8
0
100
AcDbLine
 10
2.430185988195305
 20
6.88340112860018
 30
0.0
 11
2.430185988195305
 21
7.25840112860018
 31
0.0
  0
ARC
  5
9AC
330
17
100
AcDbEntity
  8
0
100
AcDbCircle
 10
2.492685988195305
 20
7.25840112860018
 30
0.0
 40
0.0625
100
AcDbArc
 50
90.0
 51
180.0
  0
ARC
  5
9AD
330
17
100
AcDbEntity
  8
0
  6
HIDDEN2
 62
     8
100
AcDbCircle
 10
2.492685988195305
 20
6.88340112860018
 30
0.0
 40
0.0625
100
AcDbArc
 50
180.0
 51
270.0
  0
CIRCLE
  5
9AE
330
17
100
AcDbEntity
  8
0
  6
HIDDEN2
 62
     8
100
AcDbCircle
 10
1.930185988195305
 20
6.19590112860018
 30
0.0
 40
0.0855
  0
CIRCLE
  5
9AF
330
17
100
AcDbEntity
  8
0
  6
HIDDEN2
 62
     8
100
AcDbCircle
 10
1.930185988195301
 20
4.69590112860018
 30
0.0
 40
0.0855
  0
LINE
  5
9B0
330
17
100
AcDbEntity
  8
0
100
AcDbLine
 10
1.893774988195307
 20
0.541020978210156
 30
0.0
 11
1.893774988195307
 21
0.7948304919010951
 31
0.0
  0
LINE
  5
9B1
330
17
100
AcDbEntity
  8
0
100
AcDbLine
 10
2.154096988195303
 20
0.0121210962693219
 30
0.0
 11
2.154096988195303
 21
1.102156929279733
 31
0.0
  0
LINE
  5
9B2
330
17
100
AcDbEntity
  8
0
100
AcDbLine
 10
1.706274988195307
 20
0.0121210962693254
 30
0.0
 11
1.706274988195307
 21
1.102156929279712
 31
0.0
  0
LINE
  5
9B3
330
17
100
AcDbEntity
  8
0
100
AcDbLine
 10
1.966596988195303
 20
0.5363208020306942
 30
0.0
 11
1.966596988195303
 21
0.904109588073581
 31
0.0
  0
LINE
  5
9B4
330
17
100
AcDbEntity
  8
0
100
AcDbLine
 10
1.643774988195307
 20
0.0397555627637622
 30
0.0
 11
1.643774988195307
 21
1.102985128600182
 31
0.0
  0
LINE
  5
9B5
330
17
100
AcDbEntity
  8
0
100
AcDbLine
 10
2.216596988195299
 20
0.0397555627637622
 30
0.0
 11
2.216596988195303
 21
1.102985128600182
 31
0.0
  0
CIRCLE
  5
9BC
330
17
100
AcDbEntity
  8
0
100
AcDbCircle
 10
2.117685988195301
 20
2.44590112860018
 30
0.0
 40
0.0855
  0
ARC
  5
9BD
330
17
100
AcDbEntity
  8
0
100
AcDbCircle
 10
1.930185988195305
 20
1.09584312860018
 30
0.0
 40
0.224
100
AcDbArc
 50
358.5716720000002
 51
181.4283279999999
  0
ARC
  5
9BE
330
17
100
AcDbEntity
  8
0
100
AcDbCircle
 10
1.930185988195305
 20
1.09584312860018
 30
0.0
 40
0.2865
100
AcDbArc
 50
358.5716720000002
 51
181.4283279999999
  0
LINE
  5
9BF
330
17
100
AcDbEntity
  8
0
100
AcDbLine
 10
1.893774988195307
 20
0.8571078262789627
 30
0.0
 11
1.893774988195307
 21
1.102985128600182
 31
0.0
  0
LINE
  5
9C0
330
17
100
AcDbEntity
  8
0
100
AcDbLine
 10
1.966596988195303
 20
0.9934129354833559
 30
0.0
 11
1.966596988195303
 21
1.102985128600182
 31
0.0
  0
ARC
  5
9C1
330
17
100
AcDbEntity
  8
0
100
AcDbCircle
 10
1.930185988195305
 20
1.09584312860018
 30
0.0
 40
0.0365
100
AcDbArc
 50
358.5716720000002
 51
181.4283279999999
  0
LINE
  5
9C2
330
17
100
AcDbEntity
  8
0
100
AcDbLine
 10
1.893774988195304
 20
-0.0278296317815681
 30
0.0
 11
1.893774988195307
 21
0.4611179831593049
 31
0.0
  0
LINE
  5
9C3
330
17
100
AcDbEntity
  8
0
100
AcDbLine
 10
1.966596988195303
 20
-0.0278296317815681
 30
0.0
 11
1.966596988195303
 21
0.4787433327178405
 31
0.0
  0
LINE
  5
9C4
330
17
100
AcDbEntity
  8
0
100
AcDbLine
 10
1.728057964585887
 20
0.0
 30
0.0
 11
1.617685988195305
 21
0.0
 31
0.0
  0
LINE
  5
9C5
330
17
100
AcDbEntity
  8
0
100
AcDbLine
 10
1.617685988195305
 20
0.0
 30
0.0
 11
1.367685988195305
 21
0.0508000000000024
 31
0.0
  0
ARC
  5
9C6
330
17
100
AcDbEntity
  8
0
100
AcDbCircle
 10
1.930185988195305
 20
0.2030431286001857
 30
0.0
 40
0.2865
100
AcDbArc
 50
225.1294059666963
 51
314.8705940333037
  0
LINE
  5
9C7
330
17
100
AcDbEntity
  8
0
100
AcDbLine
 10
2.492685988195305
 20
0.0508000000000024
 30
0.0
 11
2.242685988195305
 21
0.0
 31
0.0
  0
LINE
  5
9C8
330
17
100
AcDbEntity
  8
0
100
AcDbLine
 10
2.132314011804724
 20
0.0
 30
0.0
 11
2.242685988195305
 21
0.0
 31
0.0
  0
LINE
  5
9C9
330
17
100
AcDbEntity
  8
0
  6
HIDDEN2
 62
     8
100
AcDbLine
 10
2.492685988195305
 20
4.329209462479145
 30
0.0
 11
2.492685988195305
 21
6.82090112860018
 31
0.0
  0
LINE
  5
9CA
330
17
100
AcDbEntity
  8
0
  6
HIDDEN2
 62
     8
100
AcDbLine
 10
1.367685988195305
 20
5.395510333910753
 30
0.0
 11
1.367685988195305
 21
6.82090112860018
 31
0.0
  0
LINE
  5
9CB
330
17
100
AcDbEntity
  8
0
  6
HIDDEN2
 62
     8
100
AcDbLine
 10
-0.8198140118047057
 20
4.329209462479149
 30
0.0
 11
-0.4404888665934763
 21
2.913548747962377
 31
0.0
  0
LINE
  5
9CC
330
17
100
AcDbEntity
  8
0
  6
HIDDEN2
 62
     8
100
AcDbLine
 10
-0.319748138307336
 20
5.445901128600191
 30
0.0
 11
0.3051859881952979
 21
5.445901128600188
 31
0.0
  0
LINE
  5
9CD
330
17
100
AcDbEntity
  8
0
  6
HIDDEN2
 62
     8
100
AcDbLine
 10
-0.7573140118047022
 20
6.883401128600188
 30
0.0
 11
0.2426859881952979
 21
6.88340112860018
 31
0.0
  0
TEXT
  5
9CE
330
17
100
AcDbEntity
  8
0
  6
HIDDEN2
 62
     8
100
AcDbText
 10
0.1260427514782769
 20
6.040778631095176
 30
0.0
 40
0.131486625
  1
LINE  
 50
90.0
100
AcDbText
  0
LINE
  5
BD2
330
17
100
AcDbEntity
  8
0
  6
HIDDEN2
 62
     8
100
AcDbLine
 10
0.8364609881952987
 20
6.492801128600188
 30
0.0
 11
3.023910988195304
 21
6.492801128600188
 31
0.0
  0
LINE
  5
BD3
330
17
100
AcDbEntity
  8
0
  6
HIDDEN2
 62
     8
100
AcDbLine
 10
0.8364609881952987
 20
5.89900112860018
 30
0.0
 11
3.023910988195304
 21
5.89900112860018
 31
0.0
  0
LINE
  5
BD4
330
17
100
AcDbEntity
  8
0
  6
HIDDEN2
 62
     8
100
AcDbLine
 10
0.8802109881953015
 20
6.492801128600188
 30
0.0
 11
0.8802109881953015
 21
5.89900112860018
 31
0.0
  0
LINE
  5
BD5
330
17
100
AcDbEntity
  8
0
  6
HIDDEN2
 62
     8
100
AcDbLine
 10
2.980160988195305
 20
5.89900112860018
 30
0.0
 11
2.980160988195305
 21
6.492801128600188
 31
0.0
  0
ARC
  5
BD6
330
17
100
AcDbEntity
  8
0
  6
HIDDEN2
 62
     8
100
AcDbCircle
 10
1.586435988195301
 20
6.19590112860018
 30
0.0
 40
0.0855
100
AcDbArc
 50
90.0
 51
270.0
  0
ARC
  5
BD7
330
17
100
AcDbEntity
  8
0
  6
HIDDEN2
 62
     8
100
AcDbCircle
 10
2.273935988195301
 20
6.19590112860018
 30
0.0
 40
0.0855
100
AcDbArc
 50
270.0
 51
90.0
  0
LINE
  5
BD8
330
17
100
AcDbEntity
  8
0
  6
HIDDEN2
 62
     8
100
AcDbLine
 10
2.273935988195301
 20
6.281401128600184
 30
0.0
 11
1.586435988195301
 21
6.281401128600184
 31
0.0
  0
LINE
  5
BD9
330
17
100
AcDbEntity
  8
0
  6
HIDDEN2
 62
     8
100
AcDbLine
 10
2.273935988195301
 20
6.110401128600184
 30
0.0
 11
1.586435988195301
 21
6.110401128600184
 31
0.0
  0
LINE
  5
C09
330
17
100
AcDbEntity
  8
0
100
AcDbLine
 10
-10.37599863182469
 20
1.258400129112191
 30
0.0
 11
-10.37599863182469
 21
0.4271242357342917
 31
0.0
  0
ARC
  5
C0A
330
17
100
AcDbEntity
  8
0
100
AcDbCircle
 10
-10.56349863182469
 20
1.258400129112191
 30
0.0
 40
0.1875
100
AcDbArc
 50
0.0
 51
90.0
  0
LINE
  5
C0B
330
17
100
AcDbEntity
  8
0
100
AcDbLine
 10
-10.61146763182469
 20
0.382391099527803
 30
0.0
 11
-10.61146763182469
 21
2.820901128600196
 31
0.0
  0
LINE
  5
C0C
330
17
100
AcDbEntity
  8
0
100
AcDbLine
 10
-10.56349863182469
 20
20.19590912911219
 30
0.0
 11
-10.56349863182469
 21
5.374304690446648
 31
0.0
  0
LINE
  5
C0D
330
17
100
AcDbEntity
  8
0
100
AcDbLine
 10
-10.61146763182469
 20
20.19590912911219
 30
0.0
 11
-10.56349863182469
 21
20.19590912911219
 31
0.0
  0
ARC
  5
C14
330
17
100
AcDbEntity
  8
0
100
AcDbCircle
 10
-11.29159051165568
 20
-0.3088520345179173
 30
0.0
 40
0.5
100
AcDbArc
 50
83.97269510052298
 51
107.9255159690136
  0
ARC
  5
C15
330
17
100
AcDbEntity
  8
0
100
AcDbCircle
 10
-11.28606729872427
 20
-0.2578953532463526
 30
0.0
 40
0.5
100
AcDbArc
 50
84.02670601956757
 51
107.7739340243908
  0
LINE
  5
C16
330
17
100
AcDbEntity
  8
0
100
AcDbLine
 10
-11.43869835590502
 20
0.2182388299246245
 30
0.0
 11
-11.98646763182469
 21
0.0426442042290933
 31
0.0
  0
LINE
  5
C17
330
17
100
AcDbEntity
  8
0
100
AcDbLine
 10
-11.44548069572724
 20
0.1668766815024814
 30
0.0
 11
-11.9715410957625
 21
-0.0032949500765422
 31
0.0
  0
LINE
  5
C18
330
17
100
AcDbEntity
  8
0
100
AcDbLine
 10
-10.82248356958955
 20
0.1443961806747911
 30
0.0
 11
-11.23908931109064
 21
0.1883839496377266
 31
0.0
  0
LINE
  5
C19
330
17
100
AcDbEntity
  8
0
100
AcDbLine
 10
-10.81847980007713
 20
0.1959091291121933
 30
0.0
 11
-11.23403485005109
 21
0.2393899011952758
 31
0.0
  0
LINE
  5
C1A
330
17
100
AcDbEntity
  8
0
100
AcDbLine
 10
-10.86037363182469
 20
-0.0572507642657083
 30
0.0
 11
-11.29899863182469
 21
-0.0572507642657083
 31
0.0
  0
LINE
  5
C1B
330
17
100
AcDbEntity
  8
0
100
AcDbLine
 10
-11.97151609793319
 20
-0.0033718854842828
 30
0.0
 11
-11.98646763182469
 21
0.0426442042290933
 31
0.0
  0
LINE
  5
C1C
330
17
100
AcDbEntity
  8
0
100
AcDbLine
 10
-11.73863109793319
 20
0.071962468551158
 30
0.0
 11
-11.75358263182469
 21
0.1179785582645341
 31
0.0
  0
LINE
  5
C1D
330
17
100
AcDbEntity
  8
0
100
AcDbLine
 10
-11.48649863182469
 20
0.1302492357342917
 30
0.0
 11
-11.48649863182469
 21
0.1536080737356986
 31
0.0
  0
ARC
  5
C1E
330
17
100
AcDbEntity
  8
0
100
AcDbCircle
 10
-11.29899863182469
 20
0.1302492357342917
 30
0.0
 40
0.1875
100
AcDbArc
 50
180.0
 51
270.0
  0
ARC
  5
C20
330
17
100
AcDbEntity
  8
0
100
AcDbCircle
 10
-10.79896763182469
 20
0.382391099527803
 30
0.0
 40
0.1875
100
AcDbArc
 50
264.0267060195674
 51
0.0
  0
ARC
  5
C21
330
17
100
AcDbEntity
  8
0
100
AcDbCircle
 10
-10.79787363182469
 20
0.3774755482477499
 30
0.0
 40
0.234375
100
AcDbArc
 50
263.972695100523
 51
0.0
  0
ARC
  5
C22
330
17
100
AcDbEntity
  8
0
100
AcDbCircle
 10
-10.86037363182469
 20
0.4271242357342917
 30
0.0
 40
0.484375
100
AcDbArc
 50
270.0
 51
0.0
  0
ARC
  5
C26
330
17
100
AcDbEntity
  8
0
  6
Continuous
100
AcDbCircle
 10
-10.56146763182463
 20
6.195901128600186
 30
0.0
 40
0.1124999999999972
100
AcDbArc
 50
120.6507699430258
 51
239.3492300569588
  0
ARC
  5
C27
330
17
100
AcDbEntity
  8
0
  6
HIDDEN2
 62
     8
100
AcDbCircle
 10
-10.56146763182463
 20
6.195901128600186
 30
0.0
 40
0.0624999999999972
100
AcDbArc
 50
143.1301023542137
 51
216.8698976457864
  0
ARC
  5
C28
330
17
100
AcDbEntity
  8
0
  6
Continuous
100
AcDbCircle
 10
-10.62646763182468
 20
6.305588183429993
 30
0.0
 40
0.015
100
AcDbArc
 50
300.6507699430185
 51
0.0
  0
ARC
  5
C29
330
17
100
AcDbEntity
  8
0
  6
Continuous
100
AcDbCircle
 10
-10.62646763182468
 20
6.08621407377038
 30
0.0
 40
0.015
100
AcDbArc
 50
359.9999999999446
 51
59.34923005698154
  0
LINE
  5
CAE
330
17
100
AcDbEntity
  8
0
100
AcDbLine
 10
-8.96385980578788
 20
6.883401128600195
 30
0.0
 11
-9.008859805787882
 21
6.883401128600195
 31
0.0
  0
LINE
  5
CAF
330
17
100
AcDbEntity
  8
0
100
AcDbLine
 10
-10.50885980578788
 20
6.883401128600198
 30
0.0
 11
-10.55385980578788
 21
6.883401128600198
 31
0.0
  0
LINE
  5
CB0
330
17
100
AcDbEntity
  8
0
100
AcDbLine
 10
-9.078859805787882
 20
4.876901128600199
 30
0.0
 11
-10.43885980578789
 21
4.876901128600199
 31
0.0
  0
ARC
  5
CB1
330
17
100
AcDbEntity
  8
0
100
AcDbCircle
 10
-9.078859805787889
 20
4.946901128600199
 30
0.0
 40
0.07
100
AcDbArc
 50
269.9999999999998
 51
0.0
  0
LINE
  5
CB2
330
17
100
AcDbEntity
  8
0
100
AcDbLine
 10
-9.078859805787875
 20
4.831901128600197
 30
0.0
 11
-10.43885980578789
 21
4.83190112860019
 31
0.0
  0
ARC
  5
CB3
330
17
100
AcDbEntity
  8
0
100
AcDbCircle
 10
-9.078859805787889
 20
4.946901128600199
 30
0.0
 40
0.115
100
AcDbArc
 50
270.0
 51
0.0
  0
LINE
  5
CB4
330
17
100
AcDbEntity
  8
0
100
AcDbLine
 10
-9.758859805787882
 20
4.831901128600194
 30
0.0
 11
-9.758859805787882
 21
4.876901128600199
 31
0.0
  0
LINE
  5
CB5
330
17
100
AcDbEntity
  8
0
100
AcDbLine
 10
-10.41510980578788
 20
4.831901128600194
 30
0.0
 11
-10.41510980578788
 21
4.876901128600199
 31
0.0
  0
LINE
  5
CB6
330
17
100
AcDbEntity
  8
0
100
AcDbLine
 10
-9.102609805787882
 20
4.83190112860019
 30
0.0
 11
-9.102609805787882
 21
4.876901128600199
 31
0.0
  0
LINE
  5
CB7
330
17
100
AcDbEntity
  8
0
100
AcDbLine
 10
-10.50885980578788
 20
4.946901128600199
 30
0.0
 11
-10.50885980578788
 21
6.883401128600198
 31
0.0
  0
ARC
  5
CB8
330
17
100
AcDbEntity
  8
0
100
AcDbCircle
 10
-10.43885980578788
 20
4.946901128600199
 30
0.0
 40
0.07
100
AcDbArc
 50
180.0000000000001
 51
269.9999999999998
  0
LINE
  5
CB9
330
17
100
AcDbEntity
  8
0
100
AcDbLine
 10
-10.55385980578788
 20
4.946901128600192
 30
0.0
 11
-10.55385980578788
 21
6.883401128600198
 31
0.0
  0
ARC
  5
CBA
330
17
100
AcDbEntity
  8
0
100
AcDbCircle
 10
-10.4388598057879
 20
4.946901128600192
 30
0.0
 40
0.115
100
AcDbArc
 50
179.9999999999999
 51
270.0
  0
LINE
  5
CBB
330
17
100
AcDbEntity
  8
0
100
AcDbLine
 10
-10.67885980578788
 20
5.899001128600194
 30
0.0
 11
-10.67885980578788
 21
6.492801128600206
 31
0.0
  0
LINE
  5
CBC
330
17
100
AcDbEntity
  8
0
100
AcDbLine
 10
-9.008859805787882
 20
4.946901128600199
 30
0.0
 11
-9.008859805787882
 21
6.883401128600195
 31
0.0
  0
LINE
  5
CBD
330
17
100
AcDbEntity
  8
0
100
AcDbLine
 10
-8.96385980578788
 20
4.946901128600199
 30
0.0
 11
-8.96385980578788
 21
6.883401128600195
 31
0.0
  0
LINE
  5
CBE
330
17
100
AcDbEntity
  8
0
100
AcDbLine
 10
-8.83885980578788
 20
5.899001128600194
 30
0.0
 11
-8.83885980578788
 21
6.492801128600203
 31
0.0
  0
LINE
  5
CBF
330
17
100
AcDbEntity
  8
0
100
AcDbLine
 10
-9.008859805787882
 20
4.855659690645723
 30
0.0
 11
-9.008859805787882
 21
2.820901128600195
 31
0.0
  0
LINE
  5
CC0
330
17
100
AcDbEntity
  8
0
  6
THD
100
AcDbLine
 10
-8.96385980578788
 20
4.946901128600199
 30
0.0
 11
-8.96385980578788
 21
2.820901128600195
 31
0.0
  0
LINE
  5
CC1
330
17
100
AcDbEntity
  8
0
100
AcDbLine
 10
-10.5088598057879
 20
4.85565969064572
 30
0.0
 11
-10.50885980578788
 21
2.820901128600195
 31
0.0
  0
LINE
  5
CC2
330
17
100
AcDbEntity
  8
0
100
AcDbLine
 10
-10.55385980578788
 20
4.946901128600192
 30
0.0
 11
-10.55385980578788
 21
2.820901128600195
 31
0.0
  0
LINE
  5
CC3
330
17
100
AcDbEntity
  8
0
100
AcDbLine
 10
-8.83885980578788
 20
6.492801128600203
 30
0.0
 11
-8.96385980578788
 21
6.492801128600195
 31
0.0
  0
LINE
  5
CC4
330
17
100
AcDbEntity
  8
0
100
AcDbLine
 10
-8.83885980578788
 20
5.899001128600194
 30
0.0
 11
-8.96385980578788
 21
5.899001128600194
 31
0.0
  0
LINE
  5
CC5
330
17
100
AcDbEntity
  8
0
100
AcDbLine
 10
-10.55385980578788
 20
6.492801128600203
 30
0.0
 11
-10.67885980578788
 21
6.492801128600203
 31
0.0
  0
LINE
  5
CC6
330
17
100
AcDbEntity
  8
0
100
AcDbLine
 10
-10.55385980578788
 20
5.899001128600194
 30
0.0
 11
-10.67885980578788
 21
5.899001128600197
 31
0.0
  0
LINE
  5
CC7
330
17
100
AcDbEntity
  8
0
100
AcDbLine
 10
-9.196359805787882
 20
4.876901128600199
 30
0.0
 11
-9.008859805787882
 21
5.064401128600199
 31
0.0
  0
LINE
  5
CC8
330
17
100
AcDbEntity
  8
0
  6
HIDDEN2
 62
     8
100
AcDbLine
 10
-9.17772019548109
 20
4.831901128600197
 30
0.0
 11
-8.96385980578788
 21
5.045761518293411
 31
0.0
  0
LINE
  5
CC9
330
17
100
AcDbEntity
  8
0
100
AcDbLine
 10
-10.32135980578788
 20
4.876901128600199
 30
0.0
 11
-10.50885980578788
 21
5.064401128600199
 31
0.0
  0
LINE
  5
CCA
330
17
100
AcDbEntity
  8
0
  6
HIDDEN2
 62
     8
100
AcDbLine
 10
-10.33999941609467
 20
4.831901128600197
 30
0.0
 11
-10.55385980578788
 21
5.045761518293411
 31
0.0
  0
LINE
  5
CCB
330
17
100
AcDbEntity
  8
0
100
AcDbLine
 10
-8.394859805787878
 20
2.820901128600195
 30
0.0
 11
-9.008859805787882
 21
2.820901128600195
 31
0.0
  0
LINE
  5
CCC
330
17
100
AcDbEntity
  8
0
100
AcDbLine
 10
-8.394859805787885
 20
4.695901128600202
 30
0.0
 11
-8.394859805787878
 21
2.820901128600195
 31
0.0
  0
LINE
  5
CCD
330
17
100
AcDbEntity
  8
0
100
AcDbLine
 10
-11.12285980578789
 20
4.695901128600195
 30
0.0
 11
-11.12285980578789
 21
2.820901128600195
 31
0.0
  0
LINE
  5
CCE
330
17
100
AcDbEntity
  8
0
100
AcDbLine
 10
-11.12285980578789
 20
2.820901128600195
 30
0.0
 11
-10.50885980578788
 21
2.820901128600195
 31
0.0
  0
LINE
  5
CCF
330
17
100
AcDbEntity
  8
0
100
AcDbLine
 10
-10.70030641519461
 20
5.118454519193481
 30
0.0
 11
-11.12285980578789
 21
4.695901128600195
 31
0.0
  0
ARC
  5
CD0
330
17
100
AcDbEntity
  8
0
100
AcDbCircle
 10
-11.0538598057879
 20
5.472007909786754
 30
0.0
 40
0.5
100
AcDbArc
 50
315.0000000000009
 51
359.9999999999999
  0
LINE
  5
CD1
330
17
100
AcDbEntity
  8
0
100
AcDbLine
 10
-8.817413196381157
 20
5.118454519193481
 30
0.0
 11
-8.394859805787878
 21
4.695901128600195
 31
0.0
  0
ARC
  5
CD2
330
17
100
AcDbEntity
  8
0
100
AcDbCircle
 10
-8.46385980578788
 20
5.472007909786754
 30
0.0
 40
0.5
100
AcDbArc
 50
180.0000000000001
 51
191.2684675810291
  0
LINE
  5
D5F
330
17
100
AcDbEntity
  8
0
  6
HIDDEN2
 62
     8
100
AcDbLine
 10
-10.63385980578788
 20
5.899001128600194
 30
0.0
 11
-10.63385980578788
 21
6.492801128600206
 31
0.0
  0
LINE
  5
D60
330
17
100
AcDbEntity
  8
0
  6
HIDDEN2
 62
     8
100
AcDbLine
 10
-8.883859805787884
 20
5.899001128600194
 30
0.0
 11
-8.883859805787882
 21
6.492801128600206
 31
0.0
  0
LINE
  5
D63
330
17
100
AcDbEntity
  8
0
100
AcDbLine
 10
-10.61146763182469
 20
6.492801128600203
 30
0.0
 11
-10.61146763182469
 21
20.19590912911219
 31
0.0
  0
LINE
  5
D66
330
17
100
AcDbEntity
  8
0
  6
HIDDEN2
 62
     8
100
AcDbLine
 10
-10.61635980578788
 20
5.899001128600194
 30
0.0
 11
-10.61635980578788
 21
6.492801128600206
 31
0.0
  0
LINE
  5
D67
330
17
100
AcDbEntity
  8
0
100
AcDbLine
 10
-10.61146763182469
 20
5.239007556962761
 30
0.0
 11
-10.61146763182469
 21
5.899001128600194
 31
0.0
  0
LINE
  5
D68
330
17
100
AcDbEntity
  8
0
100
AcDbLine
 10
-10.56349863182469
 20
2.820901128600195
 30
0.0
 11
-10.56349863182469
 21
0.3774755482477499
 31
0.0
  0
LINE
  5
D69
330
17
100
AcDbEntity
  8
0
  6
HIDDEN2
 62
     8
100
AcDbLine
 10
-10.61146763182469
 20
5.239007556962761
 30
0.0
 11
-10.61146763182469
 21
2.820901128600196
 31
0.0
  0
LINE
  5
D6A
330
17
100
AcDbEntity
  8
0
  6
HIDDEN2
 62
     8
100
AcDbLine
 10
-10.56349863182469
 20
2.820901128600195
 30
0.0
 11
-10.56349863182469
 21
5.374304690446648
 31
0.0
  0
LINE
  5
D6B
330
17
100
AcDbEntity
  8
0
100
AcDbLine
 10
-0.8198140118047022
 20
5.89900112860018
 30
0.0
 11
-0.8198140118047093
 21
0.0508000000000024
 31
0.0
  0
LINE
  5
D6C
330
17
100
AcDbEntity
  8
0
100
AcDbLine
 10
0.3051859881952979
 20
5.89900112860018
 30
0.0
 11
0.3051859881952908
 21
0.0508000000000024
 31
0.0
  0
LINE
  5
D6D
330
17
100
AcDbEntity
  8
0
  6
HIDDEN2
 62
     8
100
AcDbLine
 10
-0.8198140118047022
 20
6.492801128600188
 30
0.0
 11
-0.8198140118047022
 21
5.89900112860018
 31
0.0
  0
LINE
  5
D6E
330
17
100
AcDbEntity
  8
0
  6
HIDDEN2
 62
     8
100
AcDbLine
 10
0.3051859881952979
 20
6.492801128600188
 30
0.0
 11
0.3051859881952979
 21
5.89900112860018
 31
0.0
  0
LINE
  5
D6F
330
17
100
AcDbEntity
  8
0
  6
HIDDEN2
 62
     8
100
AcDbLine
 10
-0.8198140118047022
 20
4.831901128600194
 30
0.0
 11
-0.5801848159574057
 21
4.831901128600194
 31
0.0
  0
LINE
  5
D7F
330
17
100
AcDbEntity
  8
0
100
AcDbLine
 10
-9.141720979751083
 20
1.258400129112191
 30
0.0
 11
-9.141720979751083
 21
0.4271242357342917
 31
0.0
  0
ARC
  5
D80
330
17
100
AcDbEntity
  8
0
100
AcDbCircle
 10
-8.954220979751083
 20
1.258400129112191
 30
0.0
 40
0.1875
100
AcDbArc
 50
90.0
 51
180.0
  0
LINE
  5
D81
330
17
100
AcDbEntity
  8
0
100
AcDbLine
 10
-8.906251979751083
 20
0.382391099527803
 30
0.0
 11
-8.906251979751083
 21
5.899001128600194
 31
0.0
  0
LINE
  5
D83
330
17
100
AcDbEntity
  8
0
100
AcDbLine
 10
-8.906251979751083
 20
6.492801128600203
 30
0.0
 11
-8.906251979751085
 21
20.19590912911219
 31
0.0
  0
LINE
  5
D84
330
17
100
AcDbEntity
  8
0
100
AcDbLine
 10
-8.954220979751085
 20
20.19590912911219
 30
0.0
 11
-8.954220979751085
 21
0.3774755482477499
 31
0.0
  0
LINE
  5
D86
330
17
100
AcDbEntity
  8
0
100
AcDbLine
 10
-8.906251979751085
 20
20.19590912911219
 30
0.0
 11
-8.954220979751085
 21
20.19590912911219
 31
0.0
  0
ARC
  5
D87
330
17
100
AcDbEntity
  8
0
100
AcDbCircle
 10
-8.226129099920092
 20
-0.3088520345179173
 30
0.0
 40
0.5
100
AcDbArc
 50
72.0744840309864
 51
96.02730489947702
  0
ARC
  5
D88
330
17
100
AcDbEntity
  8
0
100
AcDbCircle
 10
-8.2316523128515
 20
-0.2578953532463526
 30
0.0
 40
0.5
100
AcDbArc
 50
72.22606597560922
 51
95.97329398043243
  0
LINE
  5
D89
330
17
100
AcDbEntity
  8
0
100
AcDbLine
 10
-8.079021255670755
 20
0.2182388299246245
 30
0.0
 11
-7.531251979751085
 21
0.0426442042290933
 31
0.0
  0
LINE
  5
D8A
330
17
100
AcDbEntity
  8
0
100
AcDbLine
 10
-8.072238915848528
 20
0.1668766815024814
 30
0.0
 11
-7.546178515813272
 21
-0.0032949500765422
 31
0.0
  0
LINE
  5
D8B
330
17
100
AcDbEntity
  8
0
100
AcDbLine
 10
-8.695236041986224
 20
0.1443961806747911
 30
0.0
 11
-8.278630300485128
 21
0.1883839496377266
 31
0.0
  0
LINE
  5
D8C
330
17
100
AcDbEntity
  8
0
100
AcDbLine
 10
-8.699239811498639
 20
0.1959091291121933
 30
0.0
 11
-8.283684761524684
 21
0.2393899011952758
 31
0.0
  0
LINE
  5
D8D
330
17
100
AcDbEntity
  8
0
100
AcDbLine
 10
-8.657345979751083
 20
-0.0572507642657083
 30
0.0
 11
-8.218720979751083
 21
-0.0572507642657083
 31
0.0
  0
LINE
  5
D8E
330
17
100
AcDbEntity
  8
0
100
AcDbLine
 10
-7.546203513642579
 20
-0.0033718854842828
 30
0.0
 11
-7.531251979751085
 21
0.0426442042290933
 31
0.0
  0
LINE
  5
D8F
330
17
100
AcDbEntity
  8
0
100
AcDbLine
 10
-7.779088513642583
 20
0.071962468551158
 30
0.0
 11
-7.764136979751084
 21
0.1179785582645341
 31
0.0
  0
LINE
  5
D90
330
17
100
AcDbEntity
  8
0
100
AcDbLine
 10
-8.031220979751085
 20
0.1302492357342917
 30
0.0
 11
-8.031220979751085
 21
0.1536080737356986
 31
0.0
  0
ARC
  5
D91
330
17
100
AcDbEntity
  8
0
100
AcDbCircle
 10
-8.218720979751083
 20
0.1302492357342917
 30
0.0
 40
0.1875
100
AcDbArc
 50
270.0
 51
0.000000000000007
  0
ARC
  5
D92
330
17
100
AcDbEntity
  8
0
100
AcDbCircle
 10
-8.718751979751083
 20
0.382391099527803
 30
0.0
 40
0.1875
100
AcDbArc
 50
180.0
 51
275.9732939804326
  0
ARC
  5
D93
330
17
100
AcDbEntity
  8
0
100
AcDbCircle
 10
-8.719845979751085
 20
0.3774755482477499
 30
0.0
 40
0.234375
100
AcDbArc
 50
180.0
 51
276.027304899477
  0
ARC
  5
D94
330
17
100
AcDbEntity
  8
0
100
AcDbCircle
 10
-8.657345979751083
 20
0.4271242357342917
 30
0.0
 40
0.484375
100
AcDbArc
 50
180.0
 51
270.0
  0
LINE
  5
D95
330
17
100
AcDbEntity
  8
0
  6
HIDDEN2
 62
     8
100
AcDbLine
 10
-8.901359805787889
 20
5.899001128600194
 30
0.0
 11
-8.901359805787887
 21
6.492801128600206
 31
0.0
  0
LINE
  5
E1A
330
17
100
AcDbEntity
  8
0
  6
HIDDEN2
 62
     8
100
AcDbLine
 10
-0.9885120118047013
 20
5.508401128600195
 30
0.0
 11
-0.5885160118046997
 21
5.508401128600195
 31
0.0
  0
LINE
  5
E1B
330
17
100
AcDbEntity
  8
0
  6
HIDDEN2
 62
     8
100
AcDbLine
 10
-0.7885140118047005
 20
5.308403128600194
 30
0.0
 11
-0.7885140118047005
 21
5.708399128600195
 31
0.0
  0
LINE
  5
E1C
330
17
100
AcDbEntity
  8
0
  6
HIDDEN2
 62
     8
100
AcDbLine
 10
-1.738512011804701
 20
6.383401128600195
 30
0.0
 11
-1.3385160118047
 21
6.383401128600195
 31
0.0
  0
LINE
  5
E1D
330
17
100
AcDbEntity
  8
0
  6
HIDDEN2
 62
     8
100
AcDbLine
 10
-1.538514011804701
 20
6.183403128600194
 30
0.0
 11
-1.538514011804701
 21
6.583399128600195
 31
0.0
  0
LINE
  5
E1E
330
17
100
AcDbEntity
  8
0
  6
HIDDEN2
 62
     8
100
AcDbLine
 10
-2.488512011804701
 20
5.883401128600195
 30
0.0
 11
-2.0885160118047
 21
5.883401128600195
 31
0.0
  0
LINE
  5
E1F
330
17
100
AcDbEntity
  8
0
  6
HIDDEN2
 62
     8
100
AcDbLine
 10
-2.288514011804701
 20
5.683403128600194
 30
0.0
 11
-2.288514011804701
 21
6.083399128600195
 31
0.0
  0
ARC
  5
FB8
330
17
100
AcDbEntity
  8
0
100
AcDbCircle
 10
-8.46385980578788
 20
5.472007909786754
 30
0.0
 40
0.5
100
AcDbArc
 50
207.7750052424198
 51
224.999999999999
  0
ENDSEC
  0
SECTION
  2
OBJECTS
  0
DICTIONARY
  5
C
330
0
100
AcDbDictionary
281
     1
  3
ACAD_COLOR
350
82F
  3
ACAD_GROUP
350
D
  3
ACAD_LAYOUT
350
832
  3
ACAD_MATERIAL
350
82E
  3
ACAD_MLINESTYLE
350
1A
  3
ACAD_PLOTSETTINGS
350
833
  3
ACAD_PLOTSTYLENAME
350
82C
  3
ACAD_TABLESTYLE
350
830
  3
ACDBHEADERROUNDTRIPXREC
350
10E6
  3
ACDBVARIABLEDICTIONARY
350
4D
  3
ASE_INDEX_DICTIONARY
350
10D4
  0
DICTIONARY
  5
83F
330
2
100
AcDbDictionary
280
     1
281
     1
  3
ACAD_LAYERFILTERS
360
10D2
  3
ACAD_LAYERSTATES
360
840
  3
ACLYDICTIONARY
360
10D1
  0
DICTIONARY
  5
D64
330
17
100
AcDbDictionary
280
     1
281
     1
  3
ACAD_SORTENTS
360
D65
  0
DICTIONARY
  5
82F
102
{ACAD_REACTORS
330
C
102
}
330
C
100
AcDbDictionary
281
     1
  0
DICTIONARY
  5
D
102
{ACAD_REACTORS
330
C
102
}
330
C
100
AcDbDictionary
281
     1
  0
DICTIONARY
  5
832
102
{ACAD_REACTORS
330
C
102
}
330
C
100
AcDbDictionary
281
     1
  3
Layout1
350
835
  3
Model
350
834
  0
DICTIONARY
  5
82E
102
{ACAD_REACTORS
330
C
102
}
330
C
100
AcDbDictionary
281
     1
  0
DICTIONARY
  5
1A
102
{ACAD_REACTORS
330
C
102
}
330
C
100
AcDbDictionary
281
     1
  3
STANDARD
350
1B
  0
DICTIONARY
  5
833
102
{ACAD_REACTORS
330
C
102
}
330
C
100
AcDbDictionary
281
     1
  0
ACDBDICTIONARYWDFLT
  5
82C
102
{ACAD_REACTORS
330
C
102
}
330
C
100
AcDbDictionary
281
     1
  3
Normal
350
82D
100
AcDbDictionaryWithDefault
340
82D
  0
DICTIONARY
  5
830
102
{ACAD_REACTORS
330
C
102
}
330
C
100
AcDbDictionary
281
     1
  3
Standard
350
831
  0
DICTIONARY
  5
10E6
102
{ACAD_REACTORS
330
C
102
}
330
C
100
AcDbDictionary
281
     1
  3
COLORDICT
350
10E7
  3
MATERIALDICT
350
10E8
  0
DICTIONARY
  5
4D
102
{ACAD_REACTORS
330
C
102
}
330
C
100
AcDbDictionary
281
     1
  3
CTABLESTYLE
350
BC1
  3
DIMADEC
350
4E
  0
DICTIONARY
  5
10D4
102
{ACAD_REACTORS
330
C
102
}
330
C
100
AcDbDictionary
281
     1
  3
ASEBlockHierarchyIndexRecord
350
10D6
1001
DCO15
1040
1650279031.029
  0
DICTIONARY
  5
10D2
102
{ACAD_REACTORS
330
83F
102
}
330
83F
100
AcDbDictionary
281
     1
  0
DICTIONARY
  5
840
102
{ACAD_REACTORS
330
83F
102
}
330
83F
100
AcDbDictionary
281
     1
  0
DICTIONARY
  5
10D1
102
{ACAD_REACTORS
330
83F
102
}
330
83F
100
AcDbDictionary
281
     1
1001
ACAD
1000
<All
  0
SORTENTSTABLE
  5
D65
102
{ACAD_REACTORS
330
D64
102
}
330
D64
100
AcDbSortentsTable
330
17
331
0
  5
4D3
331
CB6
  5
CBB
331
D5F
  5
D69
331
CB3
  5
CB8
331
D67
  5
C14
331
CBE
  5
CC3
331
964
  5
966
331
D88
  5
D89
331
D87
  5
D88
331
D8B
  5
D8C
331
D6D
  5
D6E
331
9C7
  5
9C9
331
9AE
  5
9B0
331
CC5
  5
CCA
331
D91
  5
D92
331
9BC
  5
9BE
331
953
  5
953
331
978
  5
97A
331
928
  5
928
331
9C8
  5
9CA
331
914
  5
914
331
937
  5
937
331
BD7
  5
BD9
331
C27
  5
CB0
331
992
  5
994
331
91C
  5
91C
331
999
  5
99B
331
9A9
  5
9AB
331
97D
  5
97F
331
9B1
  5
9B3
331
919
  5
919
331
9C0
  5
9C2
331
98E
  5
990
331
9BF
  5
9C1
331
D6A
  5
D6D
331
CB0
  5
CB5
331
9A3
  5
9A5
331
984
  5
986
331
E1D
  5
E1E
331
924
  5
924
331
9A7
  5
9A9
331
987
  5
989
331
990
  5
992
331
C21
  5
C29
331
98B
  5
98D
331
D89
  5
D8A
331
C15
  5
C1A
331
9CA
  5
9CC
331
940
  5
940
331
994
  5
996
331
993
  5
995
331
D63
  5
C15
331
D8D
  5
D8E
331
911
  5
911
331
921
  5
921
331
D86
  5
D87
331
9CE
  5
BB9
331
D6E
  5
D6F
331
955
  5
955
331
991
  5
993
331
942
  5
942
331
CB1
  5
CB6
331
95F
  5
961
331
95A
  5
95C
331
D90
  5
D91
331
961
  5
963
331
95C
  5
95E
331
943
  5
943
331
959
  5
95B
331
99F
  5
9A1
331
D84
  5
D86
331
94E
  5
94E
331
C1E
  5
C27
331
923
  5
923
331
D8A
  5
D8B
331
974
  5
976
331
C1B
  5
C21
331
95B
  5
95D
331
9C2
  5
9C4
331
97C
  5
97E
331
D66
  5
D6B
331
954
  5
954
331
90B
  5
90B
331
930
  5
930
331
D8C
  5
D8D
331
926
  5
926
331
916
  5
916
331
99E
  5
9A0
331
9C9
  5
9CB
331
D8E
  5
D8F
331
9A1
  5
9A3
331
CCB
  5
CD0
331
FB8
  5
D68
331
CB8
  5
CBD
331
C14
  5
C19
331
9B5
  5
9B7
331
9A5
  5
9A7
331
D6C
  5
958
331
CC7
  5
CCC
331
CCF
  5
D5F
331
9A2
  5
9A4
331
CC2
  5
CC7
331
90E
  5
90E
331
918
  5
918
331
9BE
  5
9C0
331
CAE
  5
CB3
331
94F
  5
94F
331
983
  5
985
331
950
  5
950
331
CC6
  5
CCB
331
91B
  5
91B
331
952
  5
952
331
D92
  5
D93
331
91D
  5
91D
331
9AB
  5
9AD
331
958
  5
95A
331
936
  5
936
331
975
  5
977
331
938
  5
938
331
CD0
  5
D60
331
9AD
  5
9AF
331
946
  5
946
331
9B3
  5
9B5
331
9C6
  5
9C8
331
95E
  5
960
331
970
  5
972
331
982
  5
984
331
CCE
  5
D5D
331
9B0
  5
9B2
331
91E
  5
91E
331
979
  5
97B
331
C0A
  5
C0C
331
9AF
  5
9B1
331
99C
  5
99E
331
D8F
  5
D90
331
988
  5
98A
331
9C5
  5
9C7
331
9B2
  5
9B4
331
9A6
  5
9A8
331
97B
  5
97D
331
944
  5
944
331
98D
  5
98F
331
97A
  5
97C
331
985
  5
987
331
96F
  5
971
331
947
  5
947
331
9CB
  5
9CD
331
989
  5
98B
331
941
  5
941
331
951
  5
951
331
94B
  5
94B
331
933
  5
933
331
98C
  5
98E
331
922
  5
922
331
925
  5
925
331
934
  5
934
331
935
  5
935
331
912
  5
912
331
CD1
  5
D63
331
9C1
  5
9C3
331
D68
  5
C17
331
932
  5
932
331
920
  5
920
331
CC9
  5
CCE
331
96B
  5
96D
331
BD9
  5
C0A
331
BD4
  5
BD6
331
9A0
  5
9A2
331
967
  5
969
331
917
  5
917
331
9AC
  5
9AE
331
96E
  5
970
331
94C
  5
94C
331
CB5
  5
CBA
331
C26
  5
CAF
331
CBA
  5
CBF
331
93E
  5
93E
331
99B
  5
99D
331
D69
  5
D6C
331
969
  5
96B
331
980
  5
982
331
931
  5
931
331
D95
  5
DA4
331
E1A
  5
E1B
331
965
  5
967
331
CCC
  5
CD1
331
915
  5
915
331
CB9
  5
CBE
331
C0C
  5
C16
331
91A
  5
91A
331
913
  5
913
331
C1C
  5
C22
331
90D
  5
90D
331
973
  5
975
331
D94
  5
D95
331
97E
  5
980
331
945
  5
945
331
9C4
  5
9C6
331
CBB
  5
CC0
331
BD3
  5
BD5
331
BD2
  5
BD4
331
96A
  5
96C
331
CC3
  5
CC8
331
CAF
  5
CB4
331
D83
  5
D84
331
939
  5
939
331
90C
  5
90C
331
9C3
  5
9C5
331
CBF
  5
CC4
331
C28
  5
CB1
331
927
  5
927
331
93F
  5
93F
331
90F
  5
90F
331
9BD
  5
9BF
331
960
  5
962
331
94A
  5
94A
331
CD2
  5
D66
331
D93
  5
D94
331
976
  5
978
331
93B
  5
93B
331
93A
  5
93A
331
C29
  5
CB2
331
C0B
  5
C0D
331
972
  5
974
331
998
  5
99A
331
99D
  5
99F
331
966
  5
968
331
949
  5
949
331
C22
  5
CAE
331
CBD
  5
CC2
331
968
  5
96A
331
962
  5
964
331
CB7
  5
CBC
331
C20
  5
C28
331
99A
  5
99C
331
9A8
  5
9AA
331
981
  5
983
331
971
  5
973
331
BD6
  5
BD8
331
BD5
  5
BD7
331
963
  5
965
331
96C
  5
96E
331
977
  5
979
331
C18
  5
C1D
331
CC1
  5
CC6
331
98F
  5
991
331
E1C
  5
E1D
331
CB2
  5
CB7
331
97F
  5
981
331
CB4
  5
CB9
331
9B4
  5
9B6
331
93D
  5
93D
331
956
  5
957
331
CBC
  5
CC1
331
948
  5
948
331
C0D
  5
C18
331
CCD
  5
CD2
331
D60
  5
D6A
331
93C
  5
93C
331
94D
  5
94D
331
9CD
  5
B54
331
D6F
  5
D73
331
957
  5
959
331
C1D
  5
C26
331
C17
  5
C1C
331
96D
  5
96F
331
910
  5
910
331
95D
  5
95F
331
CC8
  5
CCD
331
E1F
  5
E20
331
9A4
  5
9A6
331
C16
  5
C1B
331
CC0
  5
CC5
331
E1E
  5
E1F
331
9AA
  5
9AC
331
E1B
  5
E1C
331
986
  5
988
331
CC4
  5
CC9
331
C1A
  5
C20
331
98A
  5
98C
331
C19
  5
C1E
331
BD8
  5
C09
331
D80
  5
D81
331
D81
  5
D83
331
91F
  5
91F
331
9CC
  5
9CE
331
D7F
  5
D80
331
CCA
  5
CCF
331
C09
  5
C0B
331
D6B
  5
956
  0
LAYOUT
  5
835
102
{ACAD_REACTORS
330
832
102
}
102
{ACAD_XDICTIONARY
360
10E9
102
}
330
832
100
AcDbPlotSettings
  1

  2
HP LaserJet 2100 Series PS
  4

  6

 40
0.0
 41
0.0
 42
0.0
 43
0.0
 44
0.0
 45
0.0
 46
0.0
 47
0.0
 48
0.0
 49
0.0
140
0.0
141
0.0
142
1.0
143
1.0
 70
   688
 72
     0
 73
     0
 74
     5
  7
monochrome.ctb
 75
    16
147
1.0
148
0.0
149
0.0
100
AcDbLayout
  1
Layout1
 70
     0
 71
     1
 10
0.0
 20
0.0
 11
12.0
 21
9.0
 12
0.0
 22
0.0
 32
0.0
 14
1.000000000000000E+20
 24
1.000000000000000E+20
 34
1.000000000000000E+20
 15
-1.000000000000000E+20
 25
-1.000000000000000E+20
 35
-1.000000000000000E+20
146
0.0
 13
0.0
 23
0.0
 33
0.0
 16
1.0
 26
0.0
 36
0.0
 17
0.0
 27
1.0
 37
0.0
 76
     0
330
14
  0
LAYOUT
  5
834
102
{ACAD_REACTORS
330
832
102
}
102
{ACAD_XDICTIONARY
360
10EB
102
}
330
832
100
AcDbPlotSettings
  1

  2
HP LaserJet 2100 Series PS
  4
Letter
  6

 40
5.365749835968018
 41
5.408073902130127
 42
5.132904052734375
 43
5.090576171875
 44
215.8999938964844
 45
279.3999938964844
 46
0.0
 47
0.0
 48
0.0
 49
0.0
140
0.0
141
0.0
142
1.0
143
3.30601215063799
 70
 11952
 72
     0
 73
     0
 74
     2
  7
monochrome.ctb
 75
     0
147
0.3024792270672754
148
0.0
149
0.0
100
AcDbLayout
  1
Model
 70
     1
 71
     0
 10
0.0
 20
0.0
 11
12.0
 21
9.0
 12
0.0
 22
0.0
 32
0.0
 14
0.0
 24
0.0
 34
0.0
 15
0.0
 25
0.0
 35
0.0
146
0.0
 13
0.0
 23
0.0
 33
0.0
 16
1.0
 26
0.0
 36
0.0
 17
0.0
 27
1.0
 37
0.0
 76
     0
330
17
1001
ACAD_PSEXT
1000
HP LaserJet 2100 Series PS
1000
HP LaserJet 2100 Series PS
1000
LPT1:
1000

1070
     0
  0
MLINESTYLE
  5
1B
102
{ACAD_REACTORS
330
1A
102
}
330
1A
100
AcDbMlineStyle
  2
STANDARD
 70
     0
  3

 62
   256
 51
90.0
 52
90.0
 71
     2
 49
0.5
 62
   256
  6
BYLAYER
 49
-0.5
 62
   256
  6
BYLAYER
  0
ACDBPLACEHOLDER
  5
82D
102
{ACAD_REACTORS
330
82C
102
}
330
82C
  0
ACAD_PROXY_OBJECT
  5
831
102
{ACAD_REACTORS
330
830
102
}
330
830
100
AcDbProxyObject
 90
      499
 91
      503
 95
   983063
 70
     0
 93
     1841
310
4214DD185B99185C9928B81E85EB51B8AE3F2E07A17AD46E2B8FC02B5E8DC0F42B1CFD028000000C1008070000C3001FDFF8000000C1003FBFF000000182007F7FE00000030400FEFFC00000060801FDFF8000000C1003FBFF00000018200000000000000681FA0B0000001820100E000186003FBFF000000182007F7FE000
310
00030400FEFFC00000060801FDFF8000000C1003FBFF000000182007F7FE000000304000AD7A3703D0AC73F4160000003040201C00030C007F7FE00000030400FEFFC00000060801FDFF8000000C1003FBFF000000182007F7FE00000030400FEFFC000000608000
340
F
340
F
340
F
 94
        0
  0
XRECORD
  5
10E7
102
{ACAD_REACTORS
330
10E6
102
}
330
10E6
100
AcDbXrecord
340
82F
  0
XRECORD
  5
10E8
102
{ACAD_REACTORS
330
10E6
102
}
330
10E6
100
AcDbXrecord
340
82E
  0
DICTIONARYVAR
  5
BC1
102
{ACAD_REACTORS
330
4D
102
}
330
4D
100
DictionaryVariables
280
     0
  1
STANDARD
  0
DICTIONARYVAR
  5
4E
102
{ACAD_REACTORS
330
4D
102
}
330
4D
100
DictionaryVariables
280
     0
  1
0
  0
XRECORD
  5
10D6
102
{ACAD_REACTORS
330
10D4
102
}
330
10D4
100
AcDbXrecord
280
     1
330
0
  0
DICTIONARY
  5
10E9
330
835
100
AcDbDictionary
280
     1
281
     1
  3
ACAD_XREC_ROUNDTRIP
360
10EA
  0
DICTIONARY
  5
10EB
330
834
100
AcDbDictionary
280
     1
281
     1
  3
ACAD_XREC_ROUNDTRIP
360
10EC
  0
XRECORD
  5
10EA
102
{ACAD_REACTORS
330
10E9
102
}
330
10E9
100
AcDbXrecord
102
SHADEPLOT
 70
     0
102
SHADEPLOTRESLEVEL
 70
     2
102
SHADEPLOTCUSTOMDPI
 70
   300
  0
XRECORD
  5
10EC
102
{ACAD_REACTORS
330
10EB
102
}
330
10EB
100
AcDbXrecord
102
SHADEPLOT
 70
     0
102
SHADEPLOTRESLEVEL
 70
     2
102
SHADEPLOTCUSTOMDPI
 70
   300
  0
ENDSEC
  0
EOF
