  0
SECTION
  2
HEADER
  9
$ACADVER
  1
AC1015
  9
$ACADMAINTVER
 70
    20
  9
$DWGCODEPAGE
  3
ANSI_1252
  9
$INSBASE
 10
0.0
 20
0.0
 30
0.0
  9
$EXTMIN
 10
-4.674208411207175
 20
-0.0270999386206512
 30
-0.000000000000013
  9
$EXTMAX
 10
7.173565147620209
 20
7.442645264558613
 30
0.0000000000000023
  9
$LIMMIN
 10
0.0
 20
0.0
  9
$LIMMAX
 10
31.5
 20
24.0
  9
$ORTHOMODE
 70
     1
  9
$REGENMODE
 70
     1
  9
$FILLMODE
 70
     1
  9
$QTEXTMODE
 70
     0
  9
$MIRRTEXT
 70
     1
  9
$LTSCALE
 40
1.0
  9
$ATTMODE
 70
     1
  9
$TEXTSIZE
 40
0.265
  9
$TRACEWID
 40
0.05
  9
$TEXTSTYLE
  7
STANDARD
  9
$CLAYER
  8
0
  9
$CELTYPE
  6
BYLAYER
  9
$CECOLOR
 62
   256
  9
$CELTSCALE
 40
1.0
  9
$DISPSILH
 70
     0
  9
$DIMSCALE
 40
1.0
  9
$DIMASZ
 40
0.375
  9
$DIMEXO
 40
0.0625
  9
$DIMDLI
 40
0.75
  9
$DIMRND
 40
0.0
  9
$DIMDLE
 40
0.0
  9
$DIMEXE
 40
0.18
  9
$DIMTP
 40
0.0
  9
$DIMTM
 40
0.0
  9
$DIMTXT
 40
0.27
  9
$DIMCEN
 40
-0.06
  9
$DIMTSZ
 40
0.0
  9
$DIMTOL
 70
     0
  9
$DIMLIM
 70
     0
  9
$DIMTIH
 70
     1
  9
$DIMTOH
 70
     1
  9
$DIMSE1
 70
     0
  9
$DIMSE2
 70
     0
  9
$DIMTAD
 70
     0
  9
$DIMZIN
 70
     0
  9
$DIMBLK
  1

  9
$DIMASO
 70
     0
  9
$DIMSHO
 70
     0
  9
$DIMPOST
  1

  9
$DIMAPOST
  1

  9
$DIMALT
 70
     0
  9
$DIMALTD
 70
     2
  9
$DIMALTF
 40
25.4
  9
$DIMLFAC
 40
1.0
  9
$DIMTOFL
 70
     0
  9
$DIMTVP
 40
0.0
  9
$DIMTIX
 70
     0
  9
$DIMSOXD
 70
     0
  9
$DIMSAH
 70
     0
  9
$DIMBLK1
  1

  9
$DIMBLK2
  1

  9
$DIMSTYLE
  2
STANDARD
  9
$DIMCLRD
 70
     0
  9
$DIMCLRE
 70
     0
  9
$DIMCLRT
 70
     0
  9
$DIMTFAC
 40
1.0
  9
$DIMGAP
 40
0.09
  9
$DIMJUST
 70
     0
  9
$DIMSD1
 70
     0
  9
$DIMSD2
 70
     0
  9
$DIMTOLJ
 70
     1
  9
$DIMTZIN
 70
     0
  9
$DIMALTZ
 70
     0
  9
$DIMALTTZ
 70
     0
  9
$DIMUPT
 70
     0
  9
$DIMDEC
 70
     4
  9
$DIMTDEC
 70
     4
  9
$DIMALTU
 70
     5
  9
$DIMALTTD
 70
     2
  9
$DIMTXSTY
  7
STANDARD
  9
$DIMAUNIT
 70
     0
  9
$DIMADEC
 70
     0
  9
$DIMALTRND
 40
0.0
  9
$DIMAZIN
 70
     0
  9
$DIMDSEP
 70
    46
  9
$DIMATFIT
 70
     3
  9
$DIMFRAC
 70
     0
  9
$DIMLDRBLK
  1

  9
$DIMLUNIT
 70
     5
  9
$DIMLWD
 70
    -2
  9
$DIMLWE
 70
    -2
  9
$DIMTMOVE
 70
     2
  9
$LUNITS
 70
     5
  9
$LUPREC
 70
     4
  9
$SKETCHINC
 40
0.1
  9
$FILLETRAD
 40
0.125
  9
$AUNITS
 70
     0
  9
$AUPREC
 70
     0
  9
$MENU
  1
ACAD
  9
$ELEVATION
 40
0.0
  9
$PELEVATION
 40
0.0
  9
$THICKNESS
 40
0.0
  9
$LIMCHECK
 70
     0
  9
$CHAMFERA
 40
0.0
  9
$CHAMFERB
 40
0.0
  9
$CHAMFERC
 40
0.0
  9
$CHAMFERD
 40
0.0
  9
$SKPOLY
 70
     0
  9
$TDCREATE
 40
2448959.404680902
  9
$TDUCREATE
 40
2448959.696347570
  9
$TDUPDATE
 40
2455440.623879248
  9
$TDUUPDATE
 40
2455440.915545914
  9
$TDINDWG
 40
0.0560584491
  9
$TDUSRTIMER
 40
0.0560584491
  9
$USRTIMER
 70
     1
  9
$ANGBASE
 50
0.0
  9
$ANGDIR
 70
     0
  9
$PDMODE
 70
     0
  9
$PDSIZE
 40
0.0
  9
$PLINEWID
 40
0.0
  9
$SPLFRAME
 70
     0
  9
$SPLINETYPE
 70
     6
  9
$SPLINESEGS
 70
     8
  9
$HANDSEED
  5
803
  9
$SURFTAB1
 70
     6
  9
$SURFTAB2
 70
     6
  9
$SURFTYPE
 70
     6
  9
$SURFU
 70
     6
  9
$SURFV
 70
     6
  9
$UCSBASE
  2

  9
$UCSNAME
  2

  9
$UCSORG
 10
0.0
 20
0.0
 30
0.0
  9
$UCSXDIR
 10
1.0
 20
0.0
 30
0.0
  9
$UCSYDIR
 10
0.0
 20
1.0
 30
0.0
  9
$UCSORTHOREF
  2

  9
$UCSORTHOVIEW
 70
     0
  9
$UCSORGTOP
 10
0.0
 20
0.0
 30
0.0
  9
$UCSORGBOTTOM
 10
0.0
 20
0.0
 30
0.0
  9
$UCSORGLEFT
 10
0.0
 20
0.0
 30
0.0
  9
$UCSORGRIGHT
 10
0.0
 20
0.0
 30
0.0
  9
$UCSORGFRONT
 10
0.0
 20
0.0
 30
0.0
  9
$UCSORGBACK
 10
0.0
 20
0.0
 30
0.0
  9
$PUCSBASE
  2

  9
$PUCSNAME
  2

  9
$PUCSORG
 10
0.0
 20
0.0
 30
0.0
  9
$PUCSXDIR
 10
1.0
 20
0.0
 30
0.0
  9
$PUCSYDIR
 10
0.0
 20
1.0
 30
0.0
  9
$PUCSORTHOREF
  2

  9
$PUCSORTHOVIEW
 70
     0
  9
$PUCSORGTOP
 10
0.0
 20
0.0
 30
0.0
  9
$PUCSORGBOTTOM
 10
0.0
 20
0.0
 30
0.0
  9
$PUCSORGLEFT
 10
0.0
 20
0.0
 30
0.0
  9
$PUCSORGRIGHT
 10
0.0
 20
0.0
 30
0.0
  9
$PUCSORGFRONT
 10
0.0
 20
0.0
 30
0.0
  9
$PUCSORGBACK
 10
0.0
 20
0.0
 30
0.0
  9
$USERI1
 70
     0
  9
$USERI2
 70
     0
  9
$USERI3
 70
     0
  9
$USERI4
 70
     0
  9
$USERI5
 70
     0
  9
$USERR1
 40
0.0
  9
$USERR2
 40
0.0
  9
$USERR3
 40
0.0
  9
$USERR4
 40
0.0
  9
$USERR5
 40
0.0
  9
$WORLDVIEW
 70
     1
  9
$SHADEDGE
 70
     3
  9
$SHADEDIF
 70
    70
  9
$TILEMODE
 70
     1
  9
$MAXACTVP
 70
    16
  9
$PINSBASE
 10
0.0
 20
0.0
 30
0.0
  9
$PLIMCHECK
 70
     0
  9
$PEXTMIN
 10
1.000000000000000E+20
 20
1.000000000000000E+20
 30
1.000000000000000E+20
  9
$PEXTMAX
 10
-1.000000000000000E+20
 20
-1.000000000000000E+20
 30
-1.000000000000000E+20
  9
$PLIMMIN
 10
0.0
 20
0.0
  9
$PLIMMAX
 10
12.0
 20
9.0
  9
$UNITMODE
 70
     0
  9
$VISRETAIN
 70
     0
  9
$PLINEGEN
 70
     0
  9
$PSLTSCALE
 70
     0
  9
$TREEDEPTH
 70
  3020
  9
$CMLSTYLE
  2
STANDARD
  9
$CMLJUST
 70
     0
  9
$CMLSCALE
 40
1.0
  9
$PROXYGRAPHICS
 70
     1
  9
$MEASUREMENT
 70
     0
  9
$CELWEIGHT
370
    -1
  9
$ENDCAPS
280
     0
  9
$JOINSTYLE
280
     0
  9
$LWDISPLAY
290
     0
  9
$INSUNITS
 70
     0
  9
$HYPERLINKBASE
  1

  9
$STYLESHEET
  1
monochrome.ctb
  9
$XEDIT
290
     1
  9
$CEPSNTYPE
380
     0
  9
$PSTYLEMODE
290
     1
  9
$FINGERPRINTGUID
  2
{A56850ED-C481-11D5-BE3F-00508B5FCD51}
  9
$VERSIONGUID
  2
{28B285CA-4CCB-4FC0-9A7F-B52089B34461}
  9
$EXTNAMES
290
     1
  9
$PSVPSCALE
 40
0.0
  9
$OLESTARTUP
290
     0
  0
ENDSEC
  0
SECTION
  2
CLASSES
  0
CLASS
  1
DICTIONARYVAR
  2
AcDbDictionaryVar
  3
ObjectDBX Classes
 90
        0
280
     0
281
     0
  0
CLASS
  1
ACDBDICTIONARYWDFLT
  2
AcDbDictionaryWithDefault
  3
ObjectDBX Classes
 90
        0
280
     0
281
     0
  0
CLASS
  1
ACDBPLACEHOLDER
  2
AcDbPlaceHolder
  3
ObjectDBX Classes
 90
        0
280
     0
281
     0
  0
CLASS
  1
LAYOUT
  2
AcDbLayout
  3
ObjectDBX Classes
 90
        0
280
     0
281
     0
  0
CLASS
  1
TABLESTYLE
  2
AcDbTableStyle
  3
ObjectDBX Classes
 90
     2047
280
     0
281
     0
  0
CLASS
  1
SORTENTSTABLE
  2
AcDbSortentsTable
  3
ObjectDBX Classes
 90
    32768
280
     0
281
     0
  0
ENDSEC
  0
SECTION
  2
TABLES
  0
TABLE
  2
VPORT
  5
8
330
0
100
AcDbSymbolTable
 70
     2
  0
VPORT
  5
7FD
330
8
100
AcDbSymbolTableRecord
100
AcDbViewportTableRecord
  2
*Active
 70
     0
 10
0.0
 20
0.0
 11
1.0
 21
1.0
 12
3.821741307976301
 22
4.317681959355249
 13
0.0
 23
0.0
 14
0.0625
 24
0.0625
 15
0.5
 25
0.5
 16
0.0
 26
0.0
 36
1.0
 17
0.0
 27
0.0
 37
0.0
 40
12.02396990231898
 41
1.79054054054054
 42
50.0
 43
0.0
 44
0.0
 50
0.0
 51
0.0
 71
     0
 72
   100
 73
     1
 74
     0
 75
     0
 76
     0
 77
     0
 78
     0
281
     0
 65
     1
110
0.0
120
0.0
130
0.0
111
1.0
121
0.0
131
0.0
112
0.0
122
1.0
132
0.0
 79
     0
146
0.0
  0
ENDTAB
  0
TABLE
  2
LTYPE
  5
5
330
0
100
AcDbSymbolTable
 70
     1
  0
LTYPE
  5
11
330
5
100
AcDbSymbolTableRecord
100
AcDbLinetypeTableRecord
  2
BYBLOCK
 70
     0
  3

 72
    65
 73
     0
 40
0.0
  0
LTYPE
  5
12
330
5
100
AcDbSymbolTableRecord
100
AcDbLinetypeTableRecord
  2
BYLAYER
 70
     0
  3

 72
    65
 73
     0
 40
0.0
  0
LTYPE
  5
13
330
5
100
AcDbSymbolTableRecord
100
AcDbLinetypeTableRecord
  2
CONTINUOUS
 70
     0
  3
Solid line
 72
    65
 73
     0
 40
0.0
  0
ENDTAB
  0
TABLE
  2
LAYER
  5
2
102
{ACAD_XDICTIONARY
360
74F
102
}
330
0
100
AcDbSymbolTable
 70
     1
  0
LAYER
  5
E
330
2
100
AcDbSymbolTableRecord
100
AcDbLayerTableRecord
  2
0
 70
     0
 62
     7
  6
CONTINUOUS
370
    -3
390
6E9
  0
ENDTAB
  0
TABLE
  2
STYLE
  5
3
330
0
100
AcDbSymbolTable
 70
     2
  0
STYLE
  5
F
330
3
100
AcDbSymbolTableRecord
100
AcDbTextStyleTableRecord
  2
STANDARD
 70
     0
 40
0.0
 41
1.0
 50
0.0
 71
     0
 42
0.265
  3
TXT
  4

  0
ENDTAB
  0
TABLE
  2
VIEW
  5
6
330
0
100
AcDbSymbolTable
 70
     0
  0
ENDTAB
  0
TABLE
  2
UCS
  5
7
330
0
100
AcDbSymbolTable
 70
     0
  0
ENDTAB
  0
TABLE
  2
APPID
  5
9
330
0
100
AcDbSymbolTable
 70
     2
  0
APPID
  5
10
330
9
100
AcDbSymbolTableRecord
100
AcDbRegAppTableRecord
  2
ACAD
 70
     0
  0
APPID
  5
74E
330
9
100
AcDbSymbolTableRecord
100
AcDbRegAppTableRecord
  2
ACAD_PSEXT
 70
     0
  0
ENDTAB
  0
TABLE
  2
DIMSTYLE
  5
A
330
0
100
AcDbSymbolTable
 70
     2
100
AcDbDimStyleTable
 71
     1
340
68E
  0
DIMSTYLE
105
68E
330
A
100
AcDbSymbolTableRecord
100
AcDbDimStyleTableRecord
  2
STANDARD
 70
     0
340
F
  0
ENDTAB
  0
TABLE
  2
BLOCK_RECORD
  5
1
330
0
100
AcDbSymbolTable
 70
     1
  0
BLOCK_RECORD
  5
17
102
{ACAD_XDICTIONARY
360
718
102
}
330
1
100
AcDbSymbolTableRecord
100
AcDbBlockTableRecord
  2
*MODEL_SPACE
340
6EC
  0
BLOCK_RECORD
  5
14
102
{ACAD_XDICTIONARY
360
716
102
}
330
1
100
AcDbSymbolTableRecord
100
AcDbBlockTableRecord
  2
*PAPER_SPACE
340
6ED
  0
ENDTAB
  0
ENDSEC
  0
SECTION
  2
BLOCKS
  0
BLOCK
  5
4D
330
17
100
AcDbEntity
  8
0
100
AcDbBlockBegin
  2
*MODEL_SPACE
 70
     0
 10
0.0
 20
0.0
 30
0.0
  3
*MODEL_SPACE
  1

  0
ENDBLK
  5
4E
330
17
100
AcDbEntity
  8
0
100
AcDbBlockEnd
  0
BLOCK
  5
4B
330
14
100
AcDbEntity
 67
     1
  8
0
100
AcDbBlockBegin
  2
*PAPER_SPACE
 70
     0
 10
0.0
 20
0.0
 30
0.0
  3
*PAPER_SPACE
  1

  0
ENDBLK
  5
4C
330
14
100
AcDbEntity
 67
     1
  8
0
100
AcDbBlockEnd
  0
ENDSEC
  0
SECTION
  2
ENTITIES
  0
LINE
  5
535
330
17
100
AcDbEntity
  8
0
100
AcDbLine
 10
0.125
 20
2.738567073170731
 30
0.0
 11
2.374905299817951
 21
2.738567073170731
 31
0.0
  0
LINE
  5
536
330
17
100
AcDbEntity
  8
0
100
AcDbLine
 10
2.499905299817951
 20
2.613567073170733
 30
0.0
 11
2.499952649908975
 21
0.0510670731707315
 31
0.0
  0
LINE
  5
537
330
17
100
AcDbEntity
  8
0
100
AcDbLine
 10
2.499952649908975
 20
0.0510670731707315
 30
0.0
 11
-0.000047350091025
 21
0.0510670731707315
 31
0.0
  0
LINE
  5
538
330
17
100
AcDbEntity
  8
0
100
AcDbLine
 10
-0.000047350091025
 20
0.0510670731707315
 30
0.0
 11
0.0
 21
2.613567073170733
 31
0.0
  0
POINT
  5
539
330
17
100
AcDbEntity
  8
0
100
AcDbPoint
 10
0.0
 20
0.0
 30
0.0
  0
LINE
  5
53B
330
17
100
AcDbEntity
  8
0
100
AcDbLine
 10
-0.000047350091025
 20
0.0510670731707315
 30
0.0
 11
0.0
 21
0.0
 31
0.0
  0
LINE
  5
53C
330
17
100
AcDbEntity
  8
0
100
AcDbLine
 10
2.499952649908975
 20
0.0510670731707315
 30
0.0
 11
2.499952649908975
 21
0.0000000000000018
 31
0.0
  0
LINE
  5
53D
330
17
100
AcDbEntity
  8
0
100
AcDbLine
 10
2.124952649908975
 20
0.0510670731707315
 30
0.0
 11
2.124952649908975
 21
2.427070939916715
 31
0.0
  0
LINE
  5
53E
330
17
100
AcDbEntity
  8
0
100
AcDbLine
 10
1.374952649908975
 20
0.0510670731707315
 30
0.0
 11
1.374952649908975
 21
2.426067073170731
 31
0.0
  0
ARC
  5
53F
330
17
100
AcDbEntity
  8
0
100
AcDbCircle
 10
2.249952649908975
 20
2.426067073170731
 30
0.0
 40
0.125
100
AcDbArc
 50
0.0
 51
180.0
  0
LINE
  5
540
330
17
100
AcDbEntity
  8
0
100
AcDbLine
 10
2.374952649908975
 20
2.431997323022011
 30
0.0
 11
2.374952649908975
 21
0.0510670731707315
 31
0.0
  0
ARC
  5
541
330
17
100
AcDbEntity
  8
0
100
AcDbCircle
 10
1.499952649908975
 20
2.426067073170731
 30
0.0
 40
0.125
100
AcDbArc
 50
0.0
 51
180.0
  0
LINE
  5
542
330
17
100
AcDbEntity
  8
0
100
AcDbLine
 10
1.624952649908975
 20
2.426067073170731
 30
0.0
 11
1.624952649908975
 21
0.0510670731707315
 31
0.0
  0
ARC
  5
543
330
17
100
AcDbEntity
  8
0
100
AcDbCircle
 10
1.499952649908975
 20
-0.0114329268292686
 30
0.0
 40
0.125
100
AcDbArc
 50
30.00000000000014
 51
149.9999999999998
  0
ARC
  5
544
330
17
100
AcDbEntity
  8
0
100
AcDbCircle
 10
2.249952649908975
 20
-0.0114329268292686
 30
0.0
 40
0.125
100
AcDbArc
 50
30.00000000000014
 51
149.9999999999998
  0
ARC
  5
545
330
17
100
AcDbEntity
  8
0
100
AcDbCircle
 10
0.999952649908975
 20
-0.0114329268292686
 30
0.0
 40
0.125
100
AcDbArc
 50
30.00000000000014
 51
149.9999999999998
  0
ARC
  5
546
330
17
100
AcDbEntity
  8
0
100
AcDbCircle
 10
0.249952649908975
 20
-0.0114329268292686
 30
0.0
 40
0.125
100
AcDbArc
 50
30.00000000000014
 51
149.9999999999998
  0
LINE
  5
547
330
17
100
AcDbEntity
  8
0
100
AcDbLine
 10
0.374952649908975
 20
2.426067073170731
 30
0.0
 11
0.374952649908975
 21
0.0510670731707315
 31
0.0
  0
ARC
  5
548
330
17
100
AcDbEntity
  8
0
100
AcDbCircle
 10
0.249952649908975
 20
2.426067073170731
 30
0.0
 40
0.125
100
AcDbArc
 50
0.0
 51
180.0
  0
LINE
  5
549
330
17
100
AcDbEntity
  8
0
100
AcDbLine
 10
1.124952649908975
 20
2.431997323022011
 30
0.0
 11
1.124952649908975
 21
0.0510670731707315
 31
0.0
  0
ARC
  5
54A
330
17
100
AcDbEntity
  8
0
100
AcDbCircle
 10
0.999952649908975
 20
2.426067073170731
 30
0.0
 40
0.125
100
AcDbArc
 50
0.0
 51
180.0
  0
LINE
  5
54B
330
17
100
AcDbEntity
  8
0
100
AcDbLine
 10
0.124952649908975
 20
0.0510670731707315
 30
0.0
 11
0.124952649908975
 21
2.426067073170731
 31
0.0
  0
LINE
  5
54C
330
17
100
AcDbEntity
  8
0
100
AcDbLine
 10
0.874952649908975
 20
0.0510670731707315
 30
0.0
 11
0.874952649908975
 21
2.427070939916715
 31
0.0
  0
LINE
  5
55D
330
17
100
AcDbEntity
  8
0
100
AcDbLine
 10
0.7178384518546608
 20
2.180958422373661
 30
0.0
 11
0.7178384518546608
 21
0.6828852284533334
 31
0.0
  0
LINE
  5
55E
330
17
100
AcDbEntity
  8
0
100
AcDbLine
 10
0.5319693324014203
 20
2.183804347294538
 30
0.0
 11
0.5319693324014203
 21
0.6800393035324568
 31
0.0
  0
ARC
  5
55F
330
17
100
AcDbEntity
  8
0
100
AcDbCircle
 10
0.6249526499089751
 20
0.6782778651176553
 30
0.0
 40
0.093
100
AcDbArc
 50
178.9147416983835
 51
2.839683635676568
  0
ARC
  5
560
330
17
100
AcDbEntity
  8
0
100
AcDbCircle
 10
0.6249526499089751
 20
2.185565785709339
 30
0.0
 40
0.093
100
AcDbArc
 50
357.1603163643235
 51
181.0852583016164
  0
LINE
  5
56E
330
17
100
AcDbEntity
  8
0
100
AcDbLine
 10
0.0
 20
0.0
 30
0.0
 11
2.499952649908975
 21
0.0000000000000018
 31
0.0
  0
LINE
  5
56F
330
17
100
AcDbEntity
  8
0
100
AcDbLine
 10
2.499952649908975
 20
5.640864637032802
 30
0.0
 11
2.499952649908975
 21
7.442138425153164
 31
0.0
  0
LINE
  5
570
330
17
100
AcDbEntity
  8
0
100
AcDbLine
 10
-0.000047350091025
 20
7.44213842515316
 30
0.0
 11
-0.0000473500910232
 21
5.640864637032805
 31
0.0
  0
POINT
  5
571
330
17
100
AcDbEntity
  8
0
100
AcDbPoint
 10
0.0001408724101157
 20
7.44213842515316
 30
0.0
  0
LINE
  5
572
330
17
100
AcDbEntity
  8
0
100
AcDbLine
 10
1.374952649908975
 20
7.390817286941778
 30
0.0
 11
1.374952649908975
 21
7.015817286941778
 31
0.0
  0
LINE
  5
573
330
17
100
AcDbEntity
  8
0
100
AcDbLine
 10
2.124952649908975
 20
7.390817286941778
 30
0.0
 11
2.124952649908975
 21
6.328317286941778
 31
0.0
  0
ARC
  5
574
330
17
100
AcDbEntity
  8
0
100
AcDbCircle
 10
2.249952649908975
 20
6.328317286941778
 30
0.0
 40
0.125
100
AcDbArc
 50
180.0
 51
0.0
  0
LINE
  5
575
330
17
100
AcDbEntity
  8
0
100
AcDbLine
 10
2.374952649908975
 20
6.328317286941778
 30
0.0
 11
2.374952649908975
 21
7.390817286941778
 31
0.0
  0
LINE
  5
576
330
17
100
AcDbEntity
  8
0
100
AcDbLine
 10
1.124952649908975
 20
6.328317286941778
 30
0.0
 11
1.124952649908975
 21
7.390817286941778
 31
0.0
  0
ARC
  5
577
330
17
100
AcDbEntity
  8
0
100
AcDbCircle
 10
0.999952649908975
 20
6.328317286941778
 30
0.0
 40
0.125
100
AcDbArc
 50
180.0
 51
0.0
  0
LINE
  5
578
330
17
100
AcDbEntity
  8
0
100
AcDbLine
 10
0.874952649908975
 20
7.390817286941778
 30
0.0
 11
0.874952649908975
 21
6.328317286941778
 31
0.0
  0
ARC
  5
579
330
17
100
AcDbEntity
  8
0
100
AcDbCircle
 10
1.499952649908975
 20
7.015817286941778
 30
0.0
 40
0.125
100
AcDbArc
 50
180.0
 51
0.0
  0
LINE
  5
57A
330
17
100
AcDbEntity
  8
0
100
AcDbLine
 10
1.624952649908975
 20
7.015817286941778
 30
0.0
 11
1.624952649908975
 21
7.390817286941778
 31
0.0
  0
LINE
  5
57B
330
17
100
AcDbEntity
  8
0
100
AcDbLine
 10
0.374952649908975
 20
7.015817286941778
 30
0.0
 11
0.374952649908975
 21
7.390817286941778
 31
0.0
  0
ARC
  5
57C
330
17
100
AcDbEntity
  8
0
100
AcDbCircle
 10
0.249952649908975
 20
7.015817286941778
 30
0.0
 40
0.125
100
AcDbArc
 50
180.0
 51
0.0
  0
LINE
  5
57D
330
17
100
AcDbEntity
  8
0
100
AcDbLine
 10
0.124952649908975
 20
7.390817286941778
 30
0.0
 11
0.124952649908975
 21
7.015817286941778
 31
0.0
  0
CIRCLE
  5
57F
330
17
100
AcDbEntity
  8
0
100
AcDbCircle
 10
2.249952649908975
 20
5.765817286941778
 30
0.0
 40
0.078
  0
CIRCLE
  5
580
330
17
100
AcDbEntity
  8
0
100
AcDbCircle
 10
1.562452649908975
 20
6.515817286941778
 30
0.0
 40
0.078
  0
CIRCLE
  5
581
330
17
100
AcDbEntity
  8
0
100
AcDbCircle
 10
0.999952649908975
 20
5.765817286941778
 30
0.0
 40
0.078
  0
CIRCLE
  5
582
330
17
100
AcDbEntity
  8
0
100
AcDbCircle
 10
0.312452649908975
 20
6.515817286941778
 30
0.0
 40
0.078
  0
LINE
  5
5C9
330
17
100
AcDbEntity
  8
0
100
AcDbLine
 10
-0.000047350091025
 20
7.44213842515316
 30
0.0
 11
2.499952649908975
 21
7.44213842515316
 31
0.0
  0
LINE
  5
5CA
330
17
100
AcDbEntity
  8
0
100
AcDbLine
 10
2.499952649908975
 20
7.390817286941778
 30
0.0
 11
-0.000047350091025
 21
7.390817286941778
 31
0.0
  0
LINE
  5
5D0
330
17
100
AcDbEntity
  8
0
100
AcDbLine
 10
0.125
 20
5.515817286941778
 30
0.0
 11
2.374905299817951
 21
5.515817286941778
 31
0.0
  0
ARC
  5
5EF
330
17
100
AcDbEntity
  8
0
100
AcDbCircle
 10
1.874952649908975
 20
2.180820026916432
 30
0.0
 40
0.0855
100
AcDbArc
 50
0.0
 51
180.0
  0
ARC
  5
5F1
330
17
100
AcDbEntity
  8
0
100
AcDbCircle
 10
1.874952649908975
 20
0.6808200269164324
 30
0.0
 40
0.0855
100
AcDbArc
 50
180.0
 51
0.0
  0
LINE
  5
5F3
330
17
100
AcDbEntity
  8
0
100
AcDbLine
 10
1.960452649908974
 20
0.6808200269164324
 30
0.0
 11
1.960452649908974
 21
2.180820026916432
 31
0.0
  0
LINE
  5
5F4
330
17
100
AcDbEntity
  8
0
100
AcDbLine
 10
1.789452649908975
 20
2.180820026916432
 30
0.0
 11
1.789452649908975
 21
0.6808200269164324
 31
0.0
  0
LINE
  5
78E
330
17
100
AcDbEntity
  8
0
100
AcDbLine
 10
0.0
 20
2.613567073170733
 30
0.0
 11
0.125
 21
2.738567073170731
 31
0.0
  0
LINE
  5
78F
330
17
100
AcDbEntity
  8
0
100
AcDbLine
 10
2.499905299817951
 20
2.613567073170733
 30
0.0
 11
2.374905299817951
 21
2.738567073170731
 31
0.0
  0
LINE
  5
7B0
330
17
100
AcDbEntity
  8
0
100
AcDbLine
 10
-0.000047350091025
 20
5.640864637032802
 30
0.0
 11
0.125
 21
5.515817286941778
 31
0.0
  0
LINE
  5
7B1
330
17
100
AcDbEntity
  8
0
100
AcDbLine
 10
2.499952649908975
 20
5.640864637032802
 30
0.0
 11
2.374905299817951
 21
5.515817286941778
 31
0.0
  0
LINE
  5
7D0
330
17
100
AcDbEntity
  8
0
100
AcDbLine
 10
-4.595701436736405
 20
2.738567073170731
 30
0.0
 11
-4.595701436736405
 21
0.1135670731707314
 31
0.0
  0
LINE
  5
7D1
330
17
100
AcDbEntity
  8
0
100
AcDbLine
 10
-4.533201436736405
 20
0.0510670731707315
 30
0.0
 11
-2.720701436736405
 21
0.0510670731707315
 31
0.0
  0
LINE
  5
7D2
330
17
100
AcDbEntity
  8
0
100
AcDbLine
 10
-4.521275809830623
 20
-0.000254065040652
 30
0.0
 11
-2.720701436736408
 21
-0.0002540650406484
 31
0.0
  0
LINE
  5
7D3
330
17
100
AcDbEntity
  8
0
100
AcDbLine
 10
-4.646275809830623
 20
0.124745934959348
 30
0.0
 11
-4.646275809830623
 21
2.738567073170731
 31
0.0
  0
LINE
  5
7D4
330
17
100
AcDbEntity
  8
0
100
AcDbLine
 10
-4.595701436736405
 20
2.738567073170731
 30
0.0
 11
-4.646275809830623
 21
2.738567073170731
 31
0.0
  0
LINE
  5
7D5
330
17
100
AcDbEntity
  8
0
100
AcDbLine
 10
-2.720701436736405
 20
0.0510670731707315
 30
0.0
 11
-2.720701436736408
 21
-0.0002540650406484
 31
0.0
  0
LINE
  5
7D6
330
17
100
AcDbEntity
  8
0
100
AcDbLine
 10
-4.533201436736405
 20
0.1760670731707314
 30
0.0
 11
-4.533201436736405
 21
2.488567073170731
 31
0.0
  0
ARC
  5
7D7
330
17
100
AcDbEntity
  8
0
100
AcDbCircle
 10
-4.595701436736405
 20
2.488567073170731
 30
0.0
 40
0.0625
100
AcDbArc
 50
0.0000000000001597
 51
90.0
  0
ARC
  5
7D8
330
17
100
AcDbEntity
  8
0
100
AcDbCircle
 10
-3.470701436736405
 20
0.0510670731707315
 30
0.0
 40
0.0625
100
AcDbArc
 50
0.0000000000001597
 51
90.0
  0
LINE
  5
7D9
330
17
100
AcDbEntity
  8
0
100
AcDbLine
 10
-3.470701436736405
 20
0.1135670731707314
 30
0.0
 11
-4.470701436736405
 21
0.1135670731707314
 31
0.0
  0
ARC
  5
7DA
330
17
100
AcDbEntity
  8
0
100
AcDbCircle
 10
-4.470701436736405
 20
0.1760670731707314
 30
0.0
 40
0.0625
100
AcDbArc
 50
180.0
 51
270.0
  0
ARC
  5
7DB
330
17
100
AcDbEntity
  8
0
100
AcDbCircle
 10
-4.533201436736405
 20
0.1135670731707314
 30
0.0
 40
0.0625
100
AcDbArc
 50
180.0
 51
270.0
  0
ARC
  5
7DC
330
17
100
AcDbEntity
  8
0
100
AcDbCircle
 10
-4.521275809830623
 20
0.124745934959348
 30
0.0
 40
0.125
100
AcDbArc
 50
180.0
 51
270.0000000000001
  0
LINE
  5
7DD
330
17
100
AcDbEntity
  8
0
100
AcDbLine
 10
-4.646275809830622
 20
2.613567073170734
 30
0.0
 11
-4.595701436736405
 21
2.613567073170733
 31
0.0
  0
LINE
  5
7DE
330
17
100
AcDbEntity
  8
0
100
AcDbLine
 10
7.095606736554356
 20
2.738567073170731
 30
0.0
 11
7.095606736554356
 21
0.1135670731707314
 31
0.0
  0
LINE
  5
7DF
330
17
100
AcDbEntity
  8
0
100
AcDbLine
 10
7.033106736554356
 20
0.0510670731707315
 30
0.0
 11
5.220606736554357
 21
0.0510670731707315
 31
0.0
  0
LINE
  5
7E0
330
17
100
AcDbEntity
  8
0
100
AcDbLine
 10
7.021181109648574
 20
-0.000254065040652
 30
0.0
 11
5.22060673655436
 21
-0.0002540650406484
 31
0.0
  0
LINE
  5
7E1
330
17
100
AcDbEntity
  8
0
100
AcDbLine
 10
7.146181109648574
 20
0.124745934959348
 30
0.0
 11
7.146181109648574
 21
2.738567073170731
 31
0.0
  0
LINE
  5
7E2
330
17
100
AcDbEntity
  8
0
100
AcDbLine
 10
7.095606736554356
 20
2.738567073170731
 30
0.0
 11
7.146181109648574
 21
2.738567073170731
 31
0.0
  0
LINE
  5
7E3
330
17
100
AcDbEntity
  8
0
100
AcDbLine
 10
5.220606736554357
 20
0.0510670731707315
 30
0.0
 11
5.22060673655436
 21
-0.0002540650406484
 31
0.0
  0
LINE
  5
7E4
330
17
100
AcDbEntity
  8
0
100
AcDbLine
 10
7.033106736554356
 20
0.1760670731707314
 30
0.0
 11
7.033106736554356
 21
2.488567073170731
 31
0.0
  0
ARC
  5
7E5
330
17
100
AcDbEntity
  8
0
100
AcDbCircle
 10
7.095606736554356
 20
2.488567073170731
 30
0.0
 40
0.0625
100
AcDbArc
 50
90.0
 51
179.9999999999998
  0
ARC
  5
7E6
330
17
100
AcDbEntity
  8
0
100
AcDbCircle
 10
5.970606736554356
 20
0.0510670731707315
 30
0.0
 40
0.0625
100
AcDbArc
 50
90.0
 51
179.9999999999998
  0
LINE
  5
7E7
330
17
100
AcDbEntity
  8
0
100
AcDbLine
 10
5.970606736554356
 20
0.1135670731707314
 30
0.0
 11
6.970606736554356
 21
0.1135670731707314
 31
0.0
  0
ARC
  5
7E8
330
17
100
AcDbEntity
  8
0
100
AcDbCircle
 10
6.970606736554356
 20
0.1760670731707314
 30
0.0
 40
0.0625
100
AcDbArc
 50
270.0
 51
0.000000000000007
  0
ARC
  5
7E9
330
17
100
AcDbEntity
  8
0
100
AcDbCircle
 10
7.033106736554356
 20
0.1135670731707314
 30
0.0
 40
0.0625
100
AcDbArc
 50
270.0
 51
0.000000000000007
  0
ARC
  5
7EA
330
17
100
AcDbEntity
  8
0
100
AcDbCircle
 10
7.021181109648574
 20
0.124745934959348
 30
0.0
 40
0.125
100
AcDbArc
 50
269.9999999999999
 51
0.000000000000007
  0
LINE
  5
7EB
330
17
100
AcDbEntity
  8
0
100
AcDbLine
 10
7.146181109648573
 20
2.613567073170734
 30
0.0
 11
7.095606736554356
 21
2.613567073170733
 31
0.0
  0
ENDSEC
  0
SECTION
  2
OBJECTS
  0
DICTIONARY
  5
C
330
0
100
AcDbDictionary
281
     1
  3
ACAD_COLOR
350
724
  3
ACAD_GROUP
350
D
  3
ACAD_LAYOUT
350
6EA
  3
ACAD_MATERIAL
350
723
  3
ACAD_MLINESTYLE
350
1A
  3
ACAD_PLOTSETTINGS
350
6EB
  3
ACAD_PLOTSTYLENAME
350
6E8
  3
ACAD_TABLESTYLE
350
725
  3
ACDBHEADERROUNDTRIPXREC
350
7FE
  3
ACDBVARIABLEDICTIONARY
350
4F
  0
DICTIONARY
  5
74F
330
2
100
AcDbDictionary
280
     1
281
     1
  3
ACAD_LAYERSTATES
360
750
  0
DICTIONARY
  5
718
330
17
100
AcDbDictionary
280
     1
281
     1
  3
ACAD_LAYOUTSELFREF
360
719
  0
DICTIONARY
  5
716
330
14
100
AcDbDictionary
280
     1
281
     1
  3
ACAD_LAYOUTSELFREF
360
717
  0
DICTIONARY
  5
724
102
{ACAD_REACTORS
330
C
102
}
330
C
100
AcDbDictionary
281
     1
  0
DICTIONARY
  5
D
102
{ACAD_REACTORS
330
C
102
}
330
C
100
AcDbDictionary
281
     1
  0
DICTIONARY
  5
6EA
102
{ACAD_REACTORS
330
C
102
}
330
C
100
AcDbDictionary
281
     1
  3
Layout1
350
6ED
  3
Model
350
6EC
  0
DICTIONARY
  5
723
102
{ACAD_REACTORS
330
C
102
}
330
C
100
AcDbDictionary
281
     1
  0
DICTIONARY
  5
1A
102
{ACAD_REACTORS
330
C
102
}
330
C
100
AcDbDictionary
281
     1
  3
STANDARD
350
1B
  0
DICTIONARY
  5
6EB
102
{ACAD_REACTORS
330
C
102
}
330
C
100
AcDbDictionary
281
     1
  0
ACDBDICTIONARYWDFLT
  5
6E8
102
{ACAD_REACTORS
330
C
102
}
330
C
100
AcDbDictionary
281
     1
  3
Normal
350
6E9
100
AcDbDictionaryWithDefault
340
6E9
  0
DICTIONARY
  5
725
102
{ACAD_REACTORS
330
C
102
}
330
C
100
AcDbDictionary
281
     1
  3
Standard
350
726
  0
DICTIONARY
  5
7FE
102
{ACAD_REACTORS
330
C
102
}
330
C
100
AcDbDictionary
281
     1
  0
DICTIONARY
  5
4F
102
{ACAD_REACTORS
330
C
102
}
330
C
100
AcDbDictionary
281
     1
  3
CTABLESTYLE
350
7A7
  3
DIMADEC
350
50
  3
DIMASSOC
350
7A8
  3
PROJECTNAME
350
7A9
  0
DICTIONARY
  5
750
102
{ACAD_REACTORS
330
74F
102
}
330
74F
100
AcDbDictionary
281
     1
  0
XRECORD
  5
719
102
{ACAD_REACTORS
330
718
102
}
330
718
100
AcDbXrecord
280
     1
340
17
  0
XRECORD
  5
717
102
{ACAD_REACTORS
330
716
102
}
330
716
100
AcDbXrecord
280
     1
340
14
  0
LAYOUT
  5
6ED
102
{ACAD_XDICTIONARY
360
801
102
}
102
{ACAD_REACTORS
330
6EA
102
}
330
6EA
100
AcDbPlotSettings
  1

  2
HP LaserJet 2100 Series PS
  4

  6

 40
0.0
 41
0.0
 42
0.0
 43
0.0
 44
0.0
 45
0.0
 46
0.0
 47
0.0
 48
0.0
 49
0.0
140
0.0
141
0.0
142
1.0
143
1.0
 70
   688
 72
     0
 73
     0
 74
     5
  7
monochrome.ctb
 75
    16
147
1.0
148
0.0
149
0.0
100
AcDbLayout
  1
Layout1
 70
     0
 71
     1
 10
0.0
 20
0.0
 11
12.0
 21
9.0
 12
0.0
 22
0.0
 32
0.0
 14
1.000000000000000E+20
 24
1.000000000000000E+20
 34
1.000000000000000E+20
 15
-1.000000000000000E+20
 25
-1.000000000000000E+20
 35
-1.000000000000000E+20
146
0.0
 13
0.0
 23
0.0
 33
0.0
 16
1.0
 26
0.0
 36
0.0
 17
0.0
 27
1.0
 37
0.0
 76
     0
330
14
  0
LAYOUT
  5
6EC
102
{ACAD_XDICTIONARY
360
7FF
102
}
102
{ACAD_REACTORS
330
6EA
102
}
330
6EA
100
AcDbPlotSettings
  1

  2
HP LaserJet 2100 Series PCL 6
  4
Letter
  6

 40
4.233333110809326
 41
4.233341693878173
 42
8.466659545898437
 43
4.23333740234375
 44
215.8999938964844
 45
279.3999938964844
 46
0.0
 47
0.0
 48
0.0
 49
0.0
140
0.0
141
0.0
142
1.0
143
2.999999981696211
 70
 11952
 72
     0
 73
     1
 74
     2
  7
monochrome.ctb
 75
     0
147
0.3333333353670876
148
0.0
149
0.0
100
AcDbLayout
  1
Model
 70
     1
 71
     0
 10
0.0
 20
0.0
 11
12.0
 21
9.0
 12
0.0
 22
0.0
 32
0.0
 14
0.0
 24
0.0
 34
0.0
 15
0.0
 25
0.0
 35
0.0
146
0.0
 13
0.0
 23
0.0
 33
0.0
 16
1.0
 26
0.0
 36
0.0
 17
0.0
 27
1.0
 37
0.0
 76
     0
330
17
1001
ACAD_PSEXT
1000
HP LaserJet 2100 Series PCL 6
1000
HP LaserJet 2100 Series PCL 6
1000
LPT1:
1000

1070
     0
  0
MLINESTYLE
  5
1B
102
{ACAD_REACTORS
330
1A
102
}
330
1A
100
AcDbMlineStyle
  2
STANDARD
 70
     0
  3

 62
   256
 51
90.0
 52
90.0
 71
     2
 49
0.5
 62
   256
  6
BYLAYER
 49
-0.5
 62
   256
  6
BYLAYER
  0
ACDBPLACEHOLDER
  5
6E9
102
{ACAD_REACTORS
330
6E8
102
}
330
6E8
  0
TABLESTYLE
  5
726
102
{ACAD_REACTORS
330
725
102
}
330
725
100
AcDbTableStyle
  3
Standard
 70
     0
 71
     0
 40
0.06
 41
0.06
280
     0
281
     0
  7
STANDARD
140
0.18
170
     2
 62
     0
 63
     7
283
     0
274
    -2
284
     1
 64
     0
275
    -2
285
     1
 65
     0
276
    -2
286
     1
 66
     0
277
    -2
287
     1
 67
     0
278
    -2
288
     1
 68
     0
279
    -2
289
     1
 69
     0
  7
STANDARD
140
0.25
170
     5
 62
     0
 63
     7
283
     0
274
    -2
284
     1
 64
     0
275
    -2
285
     1
 65
     0
276
    -2
286
     1
 66
     0
277
    -2
287
     1
 67
     0
278
    -2
288
     1
 68
     0
279
    -2
289
     1
 69
     0
  7
STANDARD
140
0.18
170
     5
 62
     0
 63
     7
283
     0
274
    -2
284
     1
 64
     0
275
    -2
285
     1
 65
     0
276
    -2
286
     1
 66
     0
277
    -2
287
     1
 67
     0
278
    -2
288
     1
 68
     0
279
    -2
289
     1
 69
     0
  0
DICTIONARYVAR
  5
7A7
102
{ACAD_REACTORS
330
4F
102
}
330
4F
100
DictionaryVariables
280
     0
  1
STANDARD
  0
DICTIONARYVAR
  5
50
102
{ACAD_REACTORS
330
4F
102
}
330
4F
100
DictionaryVariables
280
     0
  1
0
  0
DICTIONARYVAR
  5
7A8
102
{ACAD_REACTORS
330
4F
102
}
330
4F
100
DictionaryVariables
280
     0
  1
0
  0
DICTIONARYVAR
  5
7A9
102
{ACAD_REACTORS
330
4F
102
}
330
4F
100
DictionaryVariables
280
     0
  1

  0
DICTIONARY
  5
801
330
6ED
100
AcDbDictionary
280
     1
281
     1
  3
ACAD_XREC_ROUNDTRIP
360
802
  0
DICTIONARY
  5
7FF
330
6EC
100
AcDbDictionary
280
     1
281
     1
  3
ACAD_XREC_ROUNDTRIP
360
800
  0
XRECORD
  5
802
102
{ACAD_REACTORS
330
801
102
}
330
801
100
AcDbXrecord
280
     1
102
SHADEPLOT
 70
     0
102
SHADEPLOTRESLEVEL
 70
     2
102
SHADEPLOTCUSTOMDPI
 70
   300
  0
XRECORD
  5
800
102
{ACAD_REACTORS
330
7FF
102
}
330
7FF
100
AcDbXrecord
280
     1
102
SHADEPLOT
 70
     0
102
SHADEPLOTRESLEVEL
 70
     2
102
SHADEPLOTCUSTOMDPI
 70
   300
  0
ENDSEC
  0
EOF
