  0
SECTION
  2
HEADER
  9
$ACADVER
  1
AC1015
  9
$ACADMAINTVER
 70
     6
  9
$DWGCODEPAGE
  3
ANSI_1252
  9
$INSBASE
 10
0.0
 20
0.0
 30
0.0
  9
$EXTMIN
 10
-1.622368731322347
 20
-0.0103553390593304
 30
0.0
  9
$EXTMAX
 10
1.622368731322361
 20
7.03330898296233
 30
0.0
  9
$LIMMIN
 10
0.0
 20
0.0
  9
$LIMMAX
 10
8.0
 20
10.5
  9
$ORTHOMODE
 70
     1
  9
$REGENMODE
 70
     1
  9
$FILLMODE
 70
     1
  9
$QTEXTMODE
 70
     0
  9
$MIRRTEXT
 70
     1
  9
$LTSCALE
 40
0.5
  9
$ATTMODE
 70
     1
  9
$TEXTSIZE
 40
0.09
  9
$TRACEWID
 40
0.05
  9
$TEXTSTYLE
  7
STANDARD
  9
$CLAYER
  8
0
  9
$CELTYPE
  6
ByLayer
  9
$CECOLOR
 62
   256
  9
$CELTSCALE
 40
1.0
  9
$DISPSILH
 70
     0
  9
$DIMSCALE
 40
1.000000000000049
  9
$DIMASZ
 40
0.25
  9
$DIMEXO
 40
0.062
  9
$DIMDLI
 40
0.375
  9
$DIMRND
 40
0.0
  9
$DIMDLE
 40
0.0
  9
$DIMEXE
 40
0.08
  9
$DIMTP
 40
0.0
  9
$DIMTM
 40
0.0
  9
$DIMTXT
 40
0.1525
  9
$DIMCEN
 40
0.0
  9
$DIMTSZ
 40
0.0
  9
$DIMTOL
 70
     0
  9
$DIMLIM
 70
     0
  9
$DIMTIH
 70
     1
  9
$DIMTOH
 70
     1
  9
$DIMSE1
 70
     0
  9
$DIMSE2
 70
     0
  9
$DIMTAD
 70
     0
  9
$DIMZIN
 70
     0
  9
$DIMBLK
  1

  9
$DIMASO
 70
     0
  9
$DIMSHO
 70
     0
  9
$DIMPOST
  1

  9
$DIMAPOST
  1

  9
$DIMALT
 70
     0
  9
$DIMALTD
 70
     2
  9
$DIMALTF
 40
25.4
  9
$DIMLFAC
 40
1.0
  9
$DIMTOFL
 70
     0
  9
$DIMTVP
 40
0.0
  9
$DIMTIX
 70
     0
  9
$DIMSOXD
 70
     0
  9
$DIMSAH
 70
     0
  9
$DIMBLK1
  1

  9
$DIMBLK2
  1

  9
$DIMSTYLE
  2
Standard
  9
$DIMCLRD
 70
     0
  9
$DIMCLRE
 70
     0
  9
$DIMCLRT
 70
     0
  9
$DIMTFAC
 40
1.0
  9
$DIMGAP
 40
0.09
  9
$DIMJUST
 70
     0
  9
$DIMSD1
 70
     0
  9
$DIMSD2
 70
     0
  9
$DIMTOLJ
 70
     1
  9
$DIMTZIN
 70
     0
  9
$DIMALTZ
 70
     0
  9
$DIMALTTZ
 70
     0
  9
$DIMUPT
 70
     0
  9
$DIMDEC
 70
     5
  9
$DIMTDEC
 70
     5
  9
$DIMALTU
 70
     5
  9
$DIMALTTD
 70
     2
  9
$DIMTXSTY
  7
STANDARD
  9
$DIMAUNIT
 70
     0
  9
$DIMADEC
 70
     0
  9
$DIMALTRND
 40
0.0
  9
$DIMAZIN
 70
     0
  9
$DIMDSEP
 70
    46
  9
$DIMATFIT
 70
     3
  9
$DIMFRAC
 70
     2
  9
$DIMLDRBLK
  1

  9
$DIMLUNIT
 70
     5
  9
$DIMLWD
 70
    -2
  9
$DIMLWE
 70
    -2
  9
$DIMTMOVE
 70
     2
  9
$LUNITS
 70
     5
  9
$LUPREC
 70
     4
  9
$SKETCHINC
 40
0.1
  9
$FILLETRAD
 40
0.0
  9
$AUNITS
 70
     0
  9
$AUPREC
 70
     0
  9
$MENU
  1
acad
  9
$ELEVATION
 40
0.0
  9
$PELEVATION
 40
0.0
  9
$THICKNESS
 40
0.0
  9
$LIMCHECK
 70
     0
  9
$CHAMFERA
 40
0.0
  9
$CHAMFERB
 40
0.0
  9
$CHAMFERC
 40
0.0
  9
$CHAMFERD
 40
0.0
  9
$SKPOLY
 70
     0
  9
$TDCREATE
 40
2447146.945318287
  9
$TDUCREATE
 40
2447147.27865162
  9
$TDUPDATE
 40
2454903.963370359
  9
$TDUUPDATE
 40
2454904.296703692
  9
$TDINDWG
 40
0.5154507292
  9
$TDUSRTIMER
 40
0.5154507292
  9
$USRTIMER
 70
     1
  9
$ANGBASE
 50
0.0
  9
$ANGDIR
 70
     0
  9
$PDMODE
 70
     0
  9
$PDSIZE
 40
0.0
  9
$PLINEWID
 40
0.0
  9
$SPLFRAME
 70
     0
  9
$SPLINETYPE
 70
     6
  9
$SPLINESEGS
 70
     8
  9
$HANDSEED
  5
412A
  9
$SURFTAB1
 70
     6
  9
$SURFTAB2
 70
     6
  9
$SURFTYPE
 70
     6
  9
$SURFU
 70
     6
  9
$SURFV
 70
     6
  9
$UCSBASE
  2

  9
$UCSNAME
  2

  9
$UCSORG
 10
0.0
 20
0.0
 30
0.0
  9
$UCSXDIR
 10
1.0
 20
0.0
 30
0.0
  9
$UCSYDIR
 10
0.0
 20
1.0
 30
0.0
  9
$UCSORTHOREF
  2

  9
$UCSORTHOVIEW
 70
     0
  9
$UCSORGTOP
 10
0.0
 20
0.0
 30
0.0
  9
$UCSORGBOTTOM
 10
0.0
 20
0.0
 30
0.0
  9
$UCSORGLEFT
 10
0.0
 20
0.0
 30
0.0
  9
$UCSORGRIGHT
 10
0.0
 20
0.0
 30
0.0
  9
$UCSORGFRONT
 10
0.0
 20
0.0
 30
0.0
  9
$UCSORGBACK
 10
0.0
 20
0.0
 30
0.0
  9
$PUCSBASE
  2

  9
$PUCSNAME
  2

  9
$PUCSORG
 10
0.0
 20
0.0
 30
0.0
  9
$PUCSXDIR
 10
1.0
 20
0.0
 30
0.0
  9
$PUCSYDIR
 10
0.0
 20
1.0
 30
0.0
  9
$PUCSORTHOREF
  2

  9
$PUCSORTHOVIEW
 70
     0
  9
$PUCSORGTOP
 10
0.0
 20
0.0
 30
0.0
  9
$PUCSORGBOTTOM
 10
0.0
 20
0.0
 30
0.0
  9
$PUCSORGLEFT
 10
0.0
 20
0.0
 30
0.0
  9
$PUCSORGRIGHT
 10
0.0
 20
0.0
 30
0.0
  9
$PUCSORGFRONT
 10
0.0
 20
0.0
 30
0.0
  9
$PUCSORGBACK
 10
0.0
 20
0.0
 30
0.0
  9
$USERI1
 70
     0
  9
$USERI2
 70
     0
  9
$USERI3
 70
     0
  9
$USERI4
 70
     0
  9
$USERI5
 70
     0
  9
$USERR1
 40
0.0
  9
$USERR2
 40
0.0
  9
$USERR3
 40
0.0
  9
$USERR4
 40
0.0
  9
$USERR5
 40
0.0
  9
$WORLDVIEW
 70
     1
  9
$SHADEDGE
 70
     3
  9
$SHADEDIF
 70
    70
  9
$TILEMODE
 70
     1
  9
$MAXACTVP
 70
    16
  9
$PINSBASE
 10
0.0
 20
0.0
 30
0.0
  9
$PLIMCHECK
 70
     0
  9
$PEXTMIN
 10
1.000000000000000E+20
 20
1.000000000000000E+20
 30
1.000000000000000E+20
  9
$PEXTMAX
 10
-1.000000000000000E+20
 20
-1.000000000000000E+20
 30
-1.000000000000000E+20
  9
$PLIMMIN
 10
0.0
 20
0.0
  9
$PLIMMAX
 10
12.0
 20
9.0
  9
$UNITMODE
 70
     0
  9
$VISRETAIN
 70
     0
  9
$PLINEGEN
 70
     1
  9
$PSLTSCALE
 70
     0
  9
$TREEDEPTH
 70
  3020
  9
$CMLSTYLE
  2
Standard
  9
$CMLJUST
 70
     0
  9
$CMLSCALE
 40
1.0
  9
$PROXYGRAPHICS
 70
     1
  9
$MEASUREMENT
 70
     0
  9
$CELWEIGHT
370
    -1
  9
$ENDCAPS
280
     0
  9
$JOINSTYLE
280
     0
  9
$LWDISPLAY
290
     0
  9
$INSUNITS
 70
     0
  9
$HYPERLINKBASE
  1

  9
$STYLESHEET
  1
monochrome.ctb
  9
$XEDIT
290
     1
  9
$CEPSNTYPE
380
     0
  9
$PSTYLEMODE
290
     1
  9
$FINGERPRINTGUID
  2
{4E0ABB9A-9863-42E8-B1DC-CC5425E26CAF}
  9
$VERSIONGUID
  2
{23718FC1-0157-4A1C-AE02-DA810175BB72}
  9
$EXTNAMES
290
     1
  9
$PSVPSCALE
 40
0.0
  9
$OLESTARTUP
290
     0
  0
ENDSEC
  0
SECTION
  2
CLASSES
  0
CLASS
  1
ACDBDICTIONARYWDFLT
  2
AcDbDictionaryWithDefault
  3
AutoCAD 2000
 90
        0
280
     0
281
     0
  0
CLASS
  1
ACDBPLACEHOLDER
  2
AcDbPlaceHolder
  3
ObjectDBX Classes
 90
        0
280
     0
281
     0
  0
CLASS
  1
LAYOUT
  2
AcDbLayout
  3
ObjectDBX Classes
 90
        0
280
     0
281
     0
  0
CLASS
  1
LONG_TRANSACTION
  2
AcDbLongTransaction
  3
ObjectDBX Classes
 90
   -65536
280
     1
281
     0
  0
CLASS
  1
LWPOLYLINE
  2
AcDbPolyline
  3
AutoCAD 2000
 90
        0
280
     0
281
     1
  0
CLASS
  1
HATCH
  2
AcDbHatch
  3
AutoCAD 2000
 90
        0
280
     0
281
     1
  0
CLASS
  1
XRECORD
  2
AcDbXrecord
  3
AutoCAD 2000
 90
        0
280
     0
281
     0
  0
CLASS
  1
LONG_TRANSACTION
  2
AcDbLongTransaction
  3
ObjectDBX Classes
 90
   -65536
280
     1
281
     0
  0
CLASS
  1
LWPOLYLINE
  2
AcDbPolyline
  3
AutoCAD 2000
 90
        0
280
     0
281
     1
  0
CLASS
  1
HATCH
  2
AcDbHatch
  3
AutoCAD 2000
 90
        0
280
     0
281
     1
  0
CLASS
  1
XRECORD
  2
AcDbXrecord
  3
AutoCAD 2000
 90
        0
280
     0
281
     0
  0
CLASS
  1
LONG_TRANSACTION
  2
AcDbLongTransaction
  3
ObjectDBX Classes
 90
   -65536
280
     1
281
     0
  0
CLASS
  1
LWPOLYLINE
  2
AcDbPolyline
  3
AutoCAD 2000
 90
        0
280
     0
281
     1
  0
CLASS
  1
HATCH
  2
AcDbHatch
  3
AutoCAD 2000
 90
        0
280
     0
281
     1
  0
CLASS
  1
XRECORD
  2
AcDbXrecord
  3
AutoCAD 2000
 90
        0
280
     0
281
     0
  0
CLASS
  1
LONG_TRANSACTION
  2
AcDbLongTransaction
  3
ObjectDBX Classes
 90
   -65536
280
     1
281
     0
  0
CLASS
  1
LWPOLYLINE
  2
AcDbPolyline
  3
AutoCAD 2000
 90
        0
280
     0
281
     1
  0
CLASS
  1
HATCH
  2
AcDbHatch
  3
AutoCAD 2000
 90
        0
280
     0
281
     1
  0
CLASS
  1
XRECORD
  2
AcDbXrecord
  3
AutoCAD 2000
 90
        0
280
     0
281
     0
  0
CLASS
  1
TABLESTYLE
  2
AcDbTableStyle
  3
ObjectDBX Classes
 90
     2047
280
     1
281
     0
  0
CLASS
  1
DICTIONARYVAR
  2
AcDbDictionaryVar
  3
AutoCAD 2000
 90
        0
280
     0
281
     0
  0
CLASS
  1
SORTENTSTABLE
  2
AcDbSortentsTable
  3
AutoCAD 2000
 90
        0
280
     0
281
     0
  0
CLASS
  1
DIMASSOC
  2
AcDbDimAssoc
  3
"AcDbDimAssoc|Product Desc:     AcDim ARX App For Dimension|Company:          Autodesk, Inc.|WEB Address:      www.autodesk.com"
 90
        0
280
     0
281
     0
  0
ENDSEC
  0
SECTION
  2
TABLES
  0
TABLE
  2
VPORT
  5
8
330
0
100
AcDbSymbolTable
 70
     2
  0
VPORT
  5
411D
330
8
100
AcDbSymbolTableRecord
100
AcDbViewportTableRecord
  2
*Active
 70
     0
 10
0.0
 20
0.0
 11
1.0
 21
1.0
 12
3.282355222109297
 22
6.580899924812622
 13
0.0
 23
0.0
 14
0.0625
 24
0.0625
 15
0.25
 25
0.25
 16
0.0
 26
0.0
 36
1.0
 17
0.0
 27
0.0
 37
0.0
 40
17.15080165887003
 41
1.703065134099617
 42
50.0
 43
0.0
 44
0.0
 50
0.0
 51
0.0
 71
     0
 72
   100
 73
     1
 74
     0
 75
     0
 76
     0
 77
     0
 78
     0
281
     0
 65
     1
110
0.0
120
0.0
130
0.0
111
1.0
121
0.0
131
0.0
112
0.0
122
1.0
132
0.0
 79
     0
146
0.0
  0
ENDTAB
  0
TABLE
  2
LTYPE
  5
5
330
0
100
AcDbSymbolTable
 70
     3
  0
LTYPE
  5
13
330
5
100
AcDbSymbolTableRecord
100
AcDbLinetypeTableRecord
  2
ByBlock
 70
     0
  3

 72
    65
 73
     0
 40
0.0
  0
LTYPE
  5
14
330
5
100
AcDbSymbolTableRecord
100
AcDbLinetypeTableRecord
  2
ByLayer
 70
     0
  3

 72
    65
 73
     0
 40
0.0
  0
LTYPE
  5
15
330
5
100
AcDbSymbolTableRecord
100
AcDbLinetypeTableRecord
  2
CONTINUOUS
 70
     0
  3
Solid line
 72
    65
 73
     0
 40
0.0
  0
LTYPE
  5
2B2F
330
5
100
AcDbSymbolTableRecord
100
AcDbLinetypeTableRecord
  2
HIDDEN
 70
     0
  3
Hidden __ __ __ __ __ __ __ __ __ __ __ __ __ _
 72
    65
 73
     2
 40
0.375
 49
0.25
 74
     0
 49
-0.125
 74
     0
  0
ENDTAB
  0
TABLE
  2
LAYER
  5
2
102
{ACAD_XDICTIONARY
360
A01
102
}
330
0
100
AcDbSymbolTable
 70
     3
  0
LAYER
  5
10
330
2
100
AcDbSymbolTableRecord
100
AcDbLayerTableRecord
  2
0
 70
     0
 62
     7
  6
CONTINUOUS
370
    -3
390
F
  0
LAYER
  5
3F
330
2
100
AcDbSymbolTableRecord
100
AcDbLayerTableRecord
  2
DIM
 70
     0
 62
     5
  6
CONTINUOUS
370
    -3
390
F
  0
LAYER
  5
BCC
330
2
100
AcDbSymbolTableRecord
100
AcDbLayerTableRecord
  2
Defpoints
 70
     0
 62
     7
  6
CONTINUOUS
290
     0
370
    -3
390
F
  0
ENDTAB
  0
TABLE
  2
STYLE
  5
3
330
0
100
AcDbSymbolTable
 70
     1
  0
STYLE
  5
11
330
3
100
AcDbSymbolTableRecord
100
AcDbTextStyleTableRecord
  2
STANDARD
 70
     0
 40
0.0
 41
1.0
 50
0.0
 71
     0
 42
0.09
  3
TXT
  4

  0
ENDTAB
  0
TABLE
  2
VIEW
  5
6
330
0
100
AcDbSymbolTable
 70
     0
  0
ENDTAB
  0
TABLE
  2
UCS
  5
7
330
0
100
AcDbSymbolTable
 70
     0
  0
ENDTAB
  0
TABLE
  2
APPID
  5
9
330
0
100
AcDbSymbolTable
 70
     6
  0
APPID
  5
12
330
9
100
AcDbSymbolTableRecord
100
AcDbRegAppTableRecord
  2
ACAD
 70
     0
  0
APPID
  5
A00
330
9
100
AcDbSymbolTableRecord
100
AcDbRegAppTableRecord
  2
ACAD_PSEXT
 70
     0
  0
APPID
  5
A47
330
9
100
AcDbSymbolTableRecord
100
AcDbRegAppTableRecord
  2
CONTENTBLOCKICON
 70
     0
  0
APPID
  5
BD0
330
9
100
AcDbSymbolTableRecord
100
AcDbRegAppTableRecord
  2
AcAecLayerStandard
 70
     0
  0
APPID
  5
1B37
330
9
100
AcDbSymbolTableRecord
100
AcDbRegAppTableRecord
  2
ACAD_DSTYLE_DIMTEXT_FILL
 70
     0
  0
APPID
  5
40FA
330
9
100
AcDbSymbolTableRecord
100
AcDbRegAppTableRecord
  2
DCO15
 70
     0
  0
ENDTAB
  0
TABLE
  2
DIMSTYLE
  5
A
330
0
100
AcDbSymbolTable
 70
     1
100
AcDbDimStyleTable
  0
DIMSTYLE
105
4E4
330
A
100
AcDbSymbolTableRecord
100
AcDbDimStyleTableRecord
  2
Standard
 70
     0
  3

  4

340
11
  0
ENDTAB
  0
TABLE
  2
BLOCK_RECORD
  5
1
330
0
100
AcDbSymbolTable
 70
     0
  0
BLOCK_RECORD
  5
1E
102
{ACAD_XDICTIONARY
360
4EE
102
}
330
1
100
AcDbSymbolTableRecord
100
AcDbBlockTableRecord
  2
*Model_Space
340
21
  0
BLOCK_RECORD
  5
1A
330
1
100
AcDbSymbolTableRecord
100
AcDbBlockTableRecord
  2
*Paper_Space
340
1D
  0
ENDTAB
  0
ENDSEC
  0
SECTION
  2
BLOCKS
  0
BLOCK
  5
4D
330
1E
100
AcDbEntity
  8
0
100
AcDbBlockBegin
  2
*Model_Space
 70
     0
 10
0.0
 20
0.0
 30
0.0
  3
*Model_Space
  1

  4

  0
ENDBLK
  5
4E
330
1E
100
AcDbEntity
  8
0
100
AcDbBlockEnd
  0
BLOCK
  5
4B
330
1A
100
AcDbEntity
 67
     1
  8
0
100
AcDbBlockBegin
  2
*Paper_Space
 70
     0
 10
0.0
 20
0.0
 30
0.0
  3
*Paper_Space
  1

  4

  0
ENDBLK
  5
4C
330
1A
100
AcDbEntity
 67
     1
  8
0
100
AcDbBlockEnd
  0
ENDSEC
  0
SECTION
  2
ENTITIES
  0
TEXT
  5
4DD
330
1E
100
AcDbEntity
  8
DIM
100
AcDbText
 10
6.58
 20
1.875
 30
0.0
 40
0.09
  1
 
 72
     1
 11
6.625
 21
1.875
 31
0.0
100
AcDbText
  0
LINE
  5
2760
330
1E
100
AcDbEntity
  8
0
100
AcDbLine
 10
-1.622368731322347
 20
3.647926871059907
 30
0.0
 11
-0.8250253903681966
 21
0.1942534261959317
 31
0.0
  0
LINE
  5
2761
330
1E
100
AcDbEntity
  8
0
100
AcDbLine
 10
-0.7568194858332547
 20
0.1400000000000006
 30
0.0
 11
0.7568194858332475
 21
0.139999999999997
 31
0.0
  0
CIRCLE
  5
2762
330
1E
100
AcDbEntity
  8
0
100
AcDbCircle
 10
-0.9452673760463313
 20
5.563858384204075
 30
0.0
 40
0.1325
  0
CIRCLE
  5
2763
330
1E
100
AcDbEntity
  8
0
100
AcDbCircle
 10
-0.5702673760463313
 20
6.563858384204075
 30
0.0
 40
0.1325
  0
CIRCLE
  5
2764
330
1E
100
AcDbEntity
  8
0
100
AcDbCircle
 10
-0.4452673760463384
 20
4.188858384204075
 30
0.0
 40
0.1325
  0
LINE
  5
2765
330
1E
100
AcDbEntity
  8
0
100
AcDbLine
 10
-1.622368731322332
 20
6.36397904754266
 30
0.0
 11
-1.622368731322347
 21
3.336748067278968
 31
0.0
  0
LINE
  5
2766
330
1E
100
AcDbEntity
  8
0
100
AcDbLine
 10
-0.0390173760463313
 20
6.729524510851448
 30
0.0
 11
-0.0390173760463384
 21
4.01347233436878
 31
0.0
  0
LINE
  5
2767
330
1E
100
AcDbEntity
  8
0
100
AcDbLine
 10
-0.7417123671418011
 20
0.3984199959264068
 30
0.0
 11
-0.0390173760463384
 21
4.01347233436878
 31
0.0
  0
ARC
  5
2769
330
1E
100
AcDbEntity
  8
0
100
AcDbCircle
 10
-0.7536379293528341
 20
0.3370682969609362
 30
0.0
 40
0.0625000000000013
100
AcDbArc
 50
78.99999999999889
 51
169.0000000000032
  0
LINE
  5
276A
330
1E
100
AcDbEntity
  8
0
100
AcDbLine
 10
-0.8932312949031598
 20
0.1785068523918643
 30
0.0
 11
-1.622368731322347
 21
3.33674806727897
 31
0.0
  0
LINE
  5
276B
330
1E
100
AcDbEntity
  8
0
100
AcDbLine
 10
-0.7568194858332547
 20
0.0700000000000038
 30
0.0
 11
0.7568194858332618
 21
0.0700000000000003
 31
0.0
  0
ARC
  5
276C
330
1E
100
AcDbEntity
  8
0
100
AcDbCircle
 10
-0.7568194858332475
 20
0.2100000000000009
 30
0.0
 40
0.07
100
AcDbArc
 50
192.9999999999999
 51
270.0
  0
ARC
  5
276D
330
1E
100
AcDbEntity
  8
0
100
AcDbCircle
 10
-0.7568194858332475
 20
0.2100000000000009
 30
0.0
 40
0.14
100
AcDbArc
 50
192.9999999999999
 51
270.0
  0
CIRCLE
  5
276F
330
1E
100
AcDbEntity
  8
0
100
AcDbCircle
 10
-1.132767376046338
 20
3.188858384204075
 30
0.0
 40
0.1325
  0
LINE
  5
2770
330
1E
100
AcDbEntity
  8
0
100
AcDbLine
 10
1.622368731322361
 20
3.647926871059907
 30
0.0
 11
0.8250253903682108
 21
0.1942534261959246
 31
0.0
  0
ARC
  5
2771
330
1E
100
AcDbEntity
  8
0
100
AcDbCircle
 10
0.7568194858332475
 20
0.2099999999999973
 30
0.0
 40
0.07
100
AcDbArc
 50
269.9999999999996
 51
346.9999999999997
  0
CIRCLE
  5
2772
330
1E
100
AcDbEntity
  8
0
100
AcDbCircle
 10
0.9452673760463455
 20
5.563858384204075
 30
0.0
 40
0.1325
  0
CIRCLE
  5
2773
330
1E
100
AcDbEntity
  8
0
100
AcDbCircle
 10
0.5702673760463455
 20
6.563858384204075
 30
0.0
 40
0.1325
  0
CIRCLE
  5
2774
330
1E
100
AcDbEntity
  8
0
100
AcDbCircle
 10
0.4452673760463526
 20
4.188858384204075
 30
0.0
 40
0.1325
  0
LINE
  5
2775
330
1E
100
AcDbEntity
  8
0
100
AcDbLine
 10
1.622368731322347
 20
6.363979047542653
 30
0.0
 11
1.622368731322361
 21
3.336748067278958
 31
0.0
  0
LINE
  5
2776
330
1E
100
AcDbEntity
  8
0
100
AcDbLine
 10
0.0390173760463526
 20
6.729524510851448
 30
0.0
 11
0.0390173760463526
 21
4.01347233436878
 31
0.0
  0
LINE
  5
2777
330
1E
100
AcDbEntity
  8
0
100
AcDbLine
 10
0.7417123671418153
 20
0.3984199959264068
 30
0.0
 11
0.0390173760463526
 21
4.01347233436878
 31
0.0
  0
ARC
  5
2779
330
1E
100
AcDbEntity
  8
0
100
AcDbCircle
 10
0.7536379293528484
 20
0.3370682969609362
 30
0.0
 40
0.0625000000000013
100
AcDbArc
 50
10.99999999999677
 51
101.0000000000011
  0
LINE
  5
277A
330
1E
100
AcDbEntity
  8
0
100
AcDbLine
 10
0.893231294903174
 20
0.1785068523918643
 30
0.0
 11
1.622368731322361
 21
3.336748067278951
 31
0.0
  0
ARC
  5
277B
330
1E
100
AcDbEntity
  8
0
100
AcDbCircle
 10
0.7568194858332618
 20
0.2100000000000009
 30
0.0
 40
0.14
100
AcDbArc
 50
270.0
 51
346.9999999999999
  0
CIRCLE
  5
277C
330
1E
100
AcDbEntity
  8
0
100
AcDbCircle
 10
1.132767376046353
 20
3.188858384204075
 30
0.0
 40
0.1325
  0
LINE
  5
2785
330
1E
100
AcDbEntity
  8
0
100
AcDbLine
 10
-1.006499327617078
 20
0.3579457996387117
 30
0.0
 11
-1.396789406903693
 21
2.048477862041095
 31
0.0
  0
LINE
  5
2786
330
1E
100
AcDbEntity
  8
0
100
AcDbLine
 10
-0.5781250000000142
 20
0.0
 30
0.0
 11
0.5781250000000142
 21
0.0
 31
0.0
  0
ARC
  5
2787
330
1E
100
AcDbEntity
  8
0
100
AcDbCircle
 10
-1.328583502368687
 20
2.064224435845175
 30
0.0
 40
0.07
100
AcDbArc
 50
102.9999999999998
 51
193.0000000000002
  0
LINE
  5
2788
330
1E
100
AcDbEntity
  8
0
100
AcDbLine
 10
-0.6196443416205568
 20
0.1399999999999935
 30
0.0
 11
-0.8703889554230955
 21
0.3907446138026103
 31
0.0
  0
ARC
  5
2789
330
1E
100
AcDbEntity
  8
0
100
AcDbCircle
 10
-0.9382934230820936
 20
0.3736923734427862
 30
0.0
 40
0.07
100
AcDbArc
 50
192.9999999999978
 51
282.9999999999977
  0
LINE
  5
278A
330
1E
100
AcDbEntity
  8
0
100
AcDbLine
 10
0.6281250000000114
 20
0.0700000000000003
 30
0.0
 11
0.6281250000000114
 21
0.0499999999999972
 31
0.0
  0
ARC
  5
278B
330
1E
100
AcDbEntity
  8
0
100
AcDbCircle
 10
0.5781250000000142
 20
0.0499999999999972
 30
0.0
 40
0.05
100
AcDbArc
 50
270.0
 51
0.0000000000010178
  0
LINE
  5
278C
330
1E
100
AcDbEntity
  8
0
  6
HIDDEN
 62
     8
100
AcDbLine
 10
0.4343750000000028
 20
0.0700000000000003
 30
0.0
 11
0.4343750000000028
 21
0.0499999999999972
 31
0.0
  0
ARC
  5
278D
330
1E
100
AcDbEntity
  8
0
  6
HIDDEN
 62
     8
100
AcDbCircle
 10
0.484375
 20
0.0499999999999972
 30
0.0
 40
0.05
100
AcDbArc
 50
179.999999999999
 51
270.0
  0
LINE
  5
278E
330
1E
100
AcDbEntity
  8
0
100
AcDbLine
 10
-0.6281250000000114
 20
0.0700000000000003
 30
0.0
 11
-0.6281250000000114
 21
0.0499999999999972
 31
0.0
  0
ARC
  5
278F
330
1E
100
AcDbEntity
  8
0
100
AcDbCircle
 10
-0.5781250000000142
 20
0.0499999999999972
 30
0.0
 40
0.05
100
AcDbArc
 50
179.999999999999
 51
270.0
  0
LINE
  5
2790
330
1E
100
AcDbEntity
  8
0
  6
HIDDEN
 62
     8
100
AcDbLine
 10
-0.4343750000000028
 20
0.0700000000000003
 30
0.0
 11
-0.4343750000000028
 21
0.0499999999999972
 31
0.0
  0
ARC
  5
2791
330
1E
100
AcDbEntity
  8
0
  6
HIDDEN
 62
     8
100
AcDbCircle
 10
-0.484375
 20
0.0499999999999972
 30
0.0
 40
0.05
100
AcDbArc
 50
270.0
 51
0.0000000000010178
  0
LINE
  5
2792
330
1E
100
AcDbEntity
  8
0
100
AcDbLine
 10
-0.3428018481571939
 20
7.03330898296233
 30
0.0
 11
-1.136211951216765
 21
6.850135827648211
 31
0.0
  0
LINE
  5
2793
330
1E
100
AcDbEntity
  8
0
100
AcDbLine
 10
-1.136211951216765
 20
6.850135827648211
 30
0.0
 11
-1.622368731322332
 21
6.36397904754266
 31
0.0
  0
LINE
  5
2794
330
1E
100
AcDbEntity
  8
0
100
AcDbLine
 10
-0.0390173760463313
 20
6.729524510851448
 30
0.0
 11
-0.3428018481571939
 21
7.03330898296233
 31
0.0
  0
LINE
  5
2795
330
1E
100
AcDbEntity
  8
0
100
AcDbLine
 10
0.3428018481572011
 20
7.03330898296233
 30
0.0
 11
1.136211951216787
 21
6.850135827648209
 31
0.0
  0
LINE
  5
2796
330
1E
100
AcDbEntity
  8
0
100
AcDbLine
 10
1.136211951216787
 20
6.850135827648209
 30
0.0
 11
1.622368731322347
 21
6.363979047542653
 31
0.0
  0
LINE
  5
2797
330
1E
100
AcDbEntity
  8
0
100
AcDbLine
 10
0.0390173760463526
 20
6.729524510851448
 30
0.0
 11
0.3428018481572011
 21
7.03330898296233
 31
0.0
  0
LINE
  5
2799
330
1E
100
AcDbEntity
  8
0
100
AcDbLine
 10
0.6196443416205497
 20
0.1399999999999935
 30
0.0
 11
0.8703889554230884
 21
0.3907446138026103
 31
0.0
  0
LINE
  5
298D
330
1E
100
AcDbEntity
  8
0
100
AcDbLine
 10
1.006499327617064
 20
0.3579457996387117
 30
0.0
 11
1.396789406903679
 21
2.048477862041095
 31
0.0
  0
ARC
  5
298E
330
1E
100
AcDbEntity
  8
0
100
AcDbCircle
 10
1.328583502368673
 20
2.064224435845175
 30
0.0
 40
0.07
100
AcDbArc
 50
346.9999999999997
 51
77.00000000000019
  0
ARC
  5
298F
330
1E
100
AcDbEntity
  8
0
100
AcDbCircle
 10
0.9382934230820794
 20
0.3736923734427862
 30
0.0
 40
0.07
100
AcDbArc
 50
257.0000000000023
 51
347.0000000000022
  0
MTEXT
  5
2BD0
330
1E
100
AcDbEntity
  8
DIM
100
AcDbMText
 10
-3.848081396644544
 20
13.70459965536297
 30
0.0
 40
0.0900000000000044
 41
0.0
 71
     1
 72
     1
  1
\A1;
 73
     1
 44
1.0
  0
MTEXT
  5
2BFD
330
1E
100
AcDbEntity
  8
DIM
100
AcDbMText
 10
-3.823247557340692
 20
13.59557087568753
 30
0.0
 40
0.0900000000000044
 41
0.0
 71
     1
 72
     1
  1
\A1;
 73
     1
 44
1.0
  0
MTEXT
  5
2C18
330
1E
100
AcDbEntity
  8
DIM
100
AcDbMText
 10
-4.189138738572949
 20
13.42149254388096
 30
0.0
 40
0.0900000000000044
 41
0.0
 71
     1
 72
     1
  1
\A1;
 73
     1
 44
1.0
  0
MTEXT
  5
2C1C
330
1E
100
AcDbEntity
  8
DIM
100
AcDbMText
 10
-8.70112019078316
 20
11.51986666581298
 30
0.0
 40
0.0900000000000044
 41
0.0
 71
     9
 72
     1
  1
\A1;
 73
     1
 44
1.0
  0
MTEXT
  5
3733
330
1E
100
AcDbEntity
  8
DIM
100
AcDbMText
 10
4.504680707690965
 20
16.87131632442495
 30
0.0
 40
0.1525000000000075
 41
0.0
 71
     9
 72
     1
  1
\A1;
 73
     1
 44
1.0
  0
ENDSEC
  0
SECTION
  2
OBJECTS
  0
DICTIONARY
  5
C
330
0
100
AcDbDictionary
281
     1
  3
ACAD_COLOR
350
691
  3
ACAD_GROUP
350
D
  3
ACAD_LAYOUT
350
19
  3
ACAD_MATERIAL
350
690
  3
ACAD_MLINESTYLE
350
16
  3
ACAD_PLOTSETTINGS
350
18
  3
ACAD_PLOTSTYLENAME
350
E
  3
ACAD_TABLESTYLE
350
692
  3
AcadDim
350
378E
  3
ACDBHEADERROUNDTRIPXREC
350
4123
  3
AcDbVariableDictionary
350
A9D
  3
ASE_INDEX_DICTIONARY
350
40F9
  0
DICTIONARY
  5
A01
330
2
100
AcDbDictionary
280
     1
281
     1
  3
ACAD_LAYERFILTERS
360
2B41
  3
ACAD_LAYERSTATES
360
A02
  3
ACLYDICTIONARY
360
2B40
  0
DICTIONARY
  5
4EE
330
1E
100
AcDbDictionary
280
     1
281
     1
  3
ACAD_SORTENTS
360
1BD2
  0
DICTIONARY
  5
691
102
{ACAD_REACTORS
330
C
102
}
330
C
100
AcDbDictionary
281
     1
  0
DICTIONARY
  5
D
102
{ACAD_REACTORS
330
C
102
}
330
C
100
AcDbDictionary
281
     1
  0
DICTIONARY
  5
19
102
{ACAD_REACTORS
330
C
102
}
330
C
100
AcDbDictionary
281
     1
  3
Layout1
350
1D
  3
Model
350
21
  0
DICTIONARY
  5
690
102
{ACAD_REACTORS
330
C
102
}
330
C
100
AcDbDictionary
281
     1
  0
DICTIONARY
  5
16
102
{ACAD_REACTORS
330
C
102
}
330
C
100
AcDbDictionary
281
     1
  3
Standard
350
17
  0
DICTIONARY
  5
18
102
{ACAD_REACTORS
330
C
102
}
330
C
100
AcDbDictionary
281
     1
  0
ACDBDICTIONARYWDFLT
  5
E
102
{ACAD_REACTORS
330
C
102
}
330
C
100
AcDbDictionary
281
     1
  3
Normal
350
F
100
AcDbDictionaryWithDefault
340
F
  0
DICTIONARY
  5
692
102
{ACAD_REACTORS
330
C
102
}
330
C
100
AcDbDictionary
281
     1
  3
Standard
350
693
  0
XRECORD
  5
378E
102
{ACAD_REACTORS
330
C
102
}
330
C
100
AcDbXrecord
280
     1
 90
   990106
  3

 60
     0
 61
     0
 62
     1
 63
     3
 64
     0
 65
     0
 66
     0
 67
     3
 68
     1
 69
     0
 70
     0
 71
     0
 72
     0
 40
0.0
170
     0
340
0
  0
DICTIONARY
  5
4123
102
{ACAD_REACTORS
330
C
102
}
330
C
100
AcDbDictionary
281
     1
  3
COLORDICT
350
4124
  3
MATERIALDICT
350
4125
  0
DICTIONARY
  5
A9D
102
{ACAD_REACTORS
330
C
102
}
330
C
100
AcDbDictionary
281
     1
  3
CTABLESTYLE
350
A9E
  3
DIMASSOC
350
A9F
  0
DICTIONARY
  5
40F9
102
{ACAD_REACTORS
330
C
102
}
330
C
100
AcDbDictionary
281
     1
  3
ASEBlockHierarchyIndexRecord
350
40FB
1001
DCO15
1040
1650279731.199
  0
DICTIONARY
  5
2B41
102
{ACAD_REACTORS
330
A01
102
}
330
A01
100
AcDbDictionary
281
     1
  0
DICTIONARY
  5
A02
102
{ACAD_REACTORS
330
A01
102
}
330
A01
100
AcDbDictionary
281
     1
  0
DICTIONARY
  5
2B40
102
{ACAD_REACTORS
330
A01
102
}
330
A01
100
AcDbDictionary
281
     1
1001
ACAD
1000
<All
  0
SORTENTSTABLE
  5
1BD2
102
{ACAD_REACTORS
330
4EE
102
}
330
4EE
100
AcDbSortentsTable
330
1E
331
278E
  5
278E
331
278F
  5
278F
331
276A
  5
276A
331
298D
  5
298D
331
2794
  5
2794
331
298F
  5
298F
331
2796
  5
2796
331
2777
  5
2777
331
2793
  5
2793
331
2788
  5
2788
331
2767
  5
2767
331
2795
  5
2795
331
278D
  5
278D
331
2769
  5
2769
331
2760
  5
2760
331
2765
  5
2765
331
2789
  5
2789
331
278A
  5
278A
331
278C
  5
278C
331
2792
  5
2792
331
2772
  5
2772
331
277C
  5
277C
331
2771
  5
2771
331
277A
  5
277A
331
2799
  5
2799
331
276D
  5
276D
331
276C
  5
276C
331
2770
  5
2770
331
2785
  5
2785
331
278B
  5
278B
331
2763
  5
2763
331
2764
  5
2764
331
2779
  5
2779
331
2BFD
  5
2BFD
331
2766
  5
2766
331
2C1C
  5
2C1C
331
276B
  5
276B
331
277B
  5
277B
331
2761
  5
2761
331
3733
  5
3733
331
4DD
  5
4DD
331
2773
  5
2773
331
2775
  5
2775
331
298E
  5
298E
331
2774
  5
2774
331
2776
  5
2776
331
2BD0
  5
2BD0
331
2787
  5
2787
331
276F
  5
276F
331
2C18
  5
2C18
331
2790
  5
2790
331
2762
  5
2762
331
2786
  5
2786
331
2791
  5
2791
331
2797
  5
2797
  0
LAYOUT
  5
1D
102
{ACAD_REACTORS
330
19
102
}
102
{ACAD_XDICTIONARY
360
4126
102
}
330
19
100
AcDbPlotSettings
  1

  2
Fax
  4

  6

 40
0.0
 41
0.0
 42
0.0
 43
0.0
 44
0.0
 45
0.0
 46
0.0
 47
0.0
 48
0.0
 49
0.0
140
0.0
141
0.0
142
1.0
143
1.0
 70
   688
 72
     0
 73
     0
 74
     5
  7
monochrome.ctb
 75
    16
147
1.0
148
0.0
149
0.0
100
AcDbLayout
  1
Layout1
 70
     0
 71
     1
 10
0.0
 20
0.0
 11
12.0
 21
9.0
 12
0.0
 22
0.0
 32
0.0
 14
1.000000000000000E+20
 24
1.000000000000000E+20
 34
1.000000000000000E+20
 15
-1.000000000000000E+20
 25
-1.000000000000000E+20
 35
-1.000000000000000E+20
146
0.0
 13
0.0
 23
0.0
 33
0.0
 16
1.0
 26
0.0
 36
0.0
 17
0.0
 27
1.0
 37
0.0
 76
     0
330
1A
  0
LAYOUT
  5
21
102
{ACAD_REACTORS
330
19
102
}
102
{ACAD_XDICTIONARY
360
4128
102
}
330
19
100
AcDbPlotSettings
  1

  2
HP LaserJet 2100 Series PS
  4
Letter
  6

 40
5.365749835968018
 41
5.408073902130127
 42
5.132904052734375
 43
5.090576171875
 44
215.8999938964844
 45
279.3999938964844
 46
0.0
 47
0.0
 48
0.0
 49
0.0
140
0.0
141
0.0
142
1.0
143
1.984053267717587
 70
 11952
 72
     0
 73
     2
 74
     1
  7
monochrome.ctb
 75
     0
147
0.5040187258431721
148
0.0241725331186814
149
0.6847921724481011
100
AcDbLayout
  1
Model
 70
     1
 71
     0
 10
0.0
 20
0.0
 11
12.0
 21
9.0
 12
0.0
 22
0.0
 32
0.0
 14
0.0
 24
0.0
 34
0.0
 15
0.0
 25
0.0
 35
0.0
146
0.0
 13
0.0
 23
0.0
 33
0.0
 16
1.0
 26
0.0
 36
0.0
 17
0.0
 27
1.0
 37
0.0
 76
     0
330
1E
1001
ACAD_PSEXT
1000
HP LaserJet 2100 Series PS
1000
HP LaserJet 2100 Series PS
1000
LPT1:
1000

1070
     0
  0
MLINESTYLE
  5
17
102
{ACAD_REACTORS
330
16
102
}
330
16
100
AcDbMlineStyle
  2
STANDARD
 70
     0
  3

 62
   256
 51
90.0
 52
90.0
 71
     2
 49
0.5
 62
   256
  6
BYLAYER
 49
-0.5
 62
   256
  6
BYLAYER
  0
ACDBPLACEHOLDER
  5
F
102
{ACAD_REACTORS
330
E
102
}
330
E
  0
ACAD_PROXY_OBJECT
  5
693
102
{ACAD_REACTORS
330
692
102
}
330
692
100
AcDbProxyObject
 90
      499
 91
      519
 95
   983063
 70
     0
 93
     1841
310
4214DD185B99185C9928B81E85EB51B8AE3F2E07A17AD46E2B8FC02B5E8DC0F42B1CFD028000000C1008070000C3001FDFF8000000C1003FBFF000000182007F7FE00000030400FEFFC00000060801FDFF8000000C1003FBFF00000018200000000000000681FA0B0000001820100E000186003FBFF000000182007F7FE000
310
00030400FEFFC00000060801FDFF8000000C1003FBFF000000182007F7FE000000304000AD7A3703D0AC73F4160000003040201C00030C007F7FE00000030400FEFFC00000060801FDFF8000000C1003FBFF000000182007F7FE00000030400FEFFC000000608000
340
11
340
11
340
11
 94
        0
  0
XRECORD
  5
4124
102
{ACAD_REACTORS
330
4123
102
}
330
4123
100
AcDbXrecord
340
691
  0
XRECORD
  5
4125
102
{ACAD_REACTORS
330
4123
102
}
330
4123
100
AcDbXrecord
340
690
  0
DICTIONARYVAR
  5
A9E
102
{ACAD_REACTORS
330
A9D
102
}
330
A9D
100
DictionaryVariables
280
     0
  1
STANDARD
  0
DICTIONARYVAR
  5
A9F
102
{ACAD_REACTORS
330
A9D
102
}
330
A9D
100
DictionaryVariables
280
     0
  1
2
  0
XRECORD
  5
40FB
102
{ACAD_REACTORS
330
40F9
102
}
330
40F9
100
AcDbXrecord
280
     1
  0
DICTIONARY
  5
4126
330
1D
100
AcDbDictionary
280
     1
281
     1
  3
ACAD_XREC_ROUNDTRIP
360
4127
  0
DICTIONARY
  5
4128
330
21
100
AcDbDictionary
280
     1
281
     1
  3
ACAD_XREC_ROUNDTRIP
360
4129
  0
XRECORD
  5
4127
102
{ACAD_REACTORS
330
4126
102
}
330
4126
100
AcDbXrecord
102
SHADEPLOT
 70
     0
102
SHADEPLOTRESLEVEL
 70
     2
102
SHADEPLOTCUSTOMDPI
 70
   300
  0
XRECORD
  5
4129
102
{ACAD_REACTORS
330
4128
102
}
330
4128
100
AcDbXrecord
102
SHADEPLOT
 70
     0
102
SHADEPLOTRESLEVEL
 70
     2
102
SHADEPLOTCUSTOMDPI
 70
   300
  0
ENDSEC
  0
EOF
