  0
SECTION
  2
HEADER
  9
$ACADVER
  1
AC1015
  9
$ACADMAINTVER
 70
     6
  9
$DWGCODEPAGE
  3
ANSI_1252
  9
$INSBASE
 10
0.0
 20
0.0
 30
0.0
  9
$EXTMIN
 10
-7.237091902107086
 20
-0.0103553390593304
 30
0.0
  9
$EXTMAX
 10
7.237091902107101
 20
13.43219127590555
 30
0.0
  9
$LIMMIN
 10
0.0
 20
0.0
  9
$LIMMAX
 10
8.0
 20
10.5
  9
$ORTHOMODE
 70
     1
  9
$REGENMODE
 70
     1
  9
$FILLMODE
 70
     1
  9
$QTEXTMODE
 70
     0
  9
$MIRRTEXT
 70
     1
  9
$LTSCALE
 40
0.5
  9
$ATTMODE
 70
     1
  9
$TEXTSIZE
 40
0.09
  9
$TRACEWID
 40
0.05
  9
$TEXTSTYLE
  7
STANDARD
  9
$CLAYER
  8
0
  9
$CELTYPE
  6
ByLayer
  9
$CECOLOR
 62
   256
  9
$CELTSCALE
 40
1.0
  9
$DISPSILH
 70
     0
  9
$DIMSCALE
 40
1.000000000000049
  9
$DIMASZ
 40
0.25
  9
$DIMEXO
 40
0.062
  9
$DIMDLI
 40
0.375
  9
$DIMRND
 40
0.0
  9
$DIMDLE
 40
0.0
  9
$DIMEXE
 40
0.08
  9
$DIMTP
 40
0.0
  9
$DIMTM
 40
0.0
  9
$DIMTXT
 40
0.1525
  9
$DIMCEN
 40
0.0
  9
$DIMTSZ
 40
0.0
  9
$DIMTOL
 70
     0
  9
$DIMLIM
 70
     0
  9
$DIMTIH
 70
     1
  9
$DIMTOH
 70
     1
  9
$DIMSE1
 70
     0
  9
$DIMSE2
 70
     0
  9
$DIMTAD
 70
     0
  9
$DIMZIN
 70
     0
  9
$DIMBLK
  1

  9
$DIMASO
 70
     0
  9
$DIMSHO
 70
     0
  9
$DIMPOST
  1

  9
$DIMAPOST
  1

  9
$DIMALT
 70
     0
  9
$DIMALTD
 70
     2
  9
$DIMALTF
 40
25.4
  9
$DIMLFAC
 40
1.0
  9
$DIMTOFL
 70
     0
  9
$DIMTVP
 40
0.0
  9
$DIMTIX
 70
     0
  9
$DIMSOXD
 70
     0
  9
$DIMSAH
 70
     0
  9
$DIMBLK1
  1

  9
$DIMBLK2
  1

  9
$DIMSTYLE
  2
Standard
  9
$DIMCLRD
 70
     0
  9
$DIMCLRE
 70
     0
  9
$DIMCLRT
 70
     0
  9
$DIMTFAC
 40
1.0
  9
$DIMGAP
 40
0.09
  9
$DIMJUST
 70
     0
  9
$DIMSD1
 70
     0
  9
$DIMSD2
 70
     0
  9
$DIMTOLJ
 70
     1
  9
$DIMTZIN
 70
     0
  9
$DIMALTZ
 70
     0
  9
$DIMALTTZ
 70
     0
  9
$DIMUPT
 70
     0
  9
$DIMDEC
 70
     5
  9
$DIMTDEC
 70
     5
  9
$DIMALTU
 70
     5
  9
$DIMALTTD
 70
     2
  9
$DIMTXSTY
  7
STANDARD
  9
$DIMAUNIT
 70
     0
  9
$DIMADEC
 70
     0
  9
$DIMALTRND
 40
0.0
  9
$DIMAZIN
 70
     0
  9
$DIMDSEP
 70
    46
  9
$DIMATFIT
 70
     3
  9
$DIMFRAC
 70
     2
  9
$DIMLDRBLK
  1

  9
$DIMLUNIT
 70
     5
  9
$DIMLWD
 70
    -2
  9
$DIMLWE
 70
    -2
  9
$DIMTMOVE
 70
     2
  9
$LUNITS
 70
     5
  9
$LUPREC
 70
     4
  9
$SKETCHINC
 40
0.1
  9
$FILLETRAD
 40
0.0
  9
$AUNITS
 70
     0
  9
$AUPREC
 70
     0
  9
$MENU
  1
acad
  9
$ELEVATION
 40
0.0
  9
$PELEVATION
 40
0.0
  9
$THICKNESS
 40
0.0
  9
$LIMCHECK
 70
     0
  9
$CHAMFERA
 40
0.0
  9
$CHAMFERB
 40
0.0
  9
$CHAMFERC
 40
0.0
  9
$CHAMFERD
 40
0.0
  9
$SKPOLY
 70
     0
  9
$TDCREATE
 40
2447146.945318287
  9
$TDUCREATE
 40
2447147.27865162
  9
$TDUPDATE
 40
2454903.963855185
  9
$TDUUPDATE
 40
2454904.297188519
  9
$TDINDWG
 40
0.5153794792
  9
$TDUSRTIMER
 40
0.5153794792
  9
$USRTIMER
 70
     1
  9
$ANGBASE
 50
0.0
  9
$ANGDIR
 70
     0
  9
$PDMODE
 70
     0
  9
$PDSIZE
 40
0.0
  9
$PLINEWID
 40
0.0
  9
$SPLFRAME
 70
     0
  9
$SPLINETYPE
 70
     6
  9
$SPLINESEGS
 70
     8
  9
$HANDSEED
  5
4120
  9
$SURFTAB1
 70
     6
  9
$SURFTAB2
 70
     6
  9
$SURFTYPE
 70
     6
  9
$SURFU
 70
     6
  9
$SURFV
 70
     6
  9
$UCSBASE
  2

  9
$UCSNAME
  2

  9
$UCSORG
 10
0.0
 20
0.0
 30
0.0
  9
$UCSXDIR
 10
1.0
 20
0.0
 30
0.0
  9
$UCSYDIR
 10
0.0
 20
1.0
 30
0.0
  9
$UCSORTHOREF
  2

  9
$UCSORTHOVIEW
 70
     0
  9
$UCSORGTOP
 10
0.0
 20
0.0
 30
0.0
  9
$UCSORGBOTTOM
 10
0.0
 20
0.0
 30
0.0
  9
$UCSORGLEFT
 10
0.0
 20
0.0
 30
0.0
  9
$UCSORGRIGHT
 10
0.0
 20
0.0
 30
0.0
  9
$UCSORGFRONT
 10
0.0
 20
0.0
 30
0.0
  9
$UCSORGBACK
 10
0.0
 20
0.0
 30
0.0
  9
$PUCSBASE
  2

  9
$PUCSNAME
  2

  9
$PUCSORG
 10
0.0
 20
0.0
 30
0.0
  9
$PUCSXDIR
 10
1.0
 20
0.0
 30
0.0
  9
$PUCSYDIR
 10
0.0
 20
1.0
 30
0.0
  9
$PUCSORTHOREF
  2

  9
$PUCSORTHOVIEW
 70
     0
  9
$PUCSORGTOP
 10
0.0
 20
0.0
 30
0.0
  9
$PUCSORGBOTTOM
 10
0.0
 20
0.0
 30
0.0
  9
$PUCSORGLEFT
 10
0.0
 20
0.0
 30
0.0
  9
$PUCSORGRIGHT
 10
0.0
 20
0.0
 30
0.0
  9
$PUCSORGFRONT
 10
0.0
 20
0.0
 30
0.0
  9
$PUCSORGBACK
 10
0.0
 20
0.0
 30
0.0
  9
$USERI1
 70
     0
  9
$USERI2
 70
     0
  9
$USERI3
 70
     0
  9
$USERI4
 70
     0
  9
$USERI5
 70
     0
  9
$USERR1
 40
0.0
  9
$USERR2
 40
0.0
  9
$USERR3
 40
0.0
  9
$USERR4
 40
0.0
  9
$USERR5
 40
0.0
  9
$WORLDVIEW
 70
     1
  9
$SHADEDGE
 70
     3
  9
$SHADEDIF
 70
    70
  9
$TILEMODE
 70
     1
  9
$MAXACTVP
 70
    16
  9
$PINSBASE
 10
0.0
 20
0.0
 30
0.0
  9
$PLIMCHECK
 70
     0
  9
$PEXTMIN
 10
1.000000000000000E+20
 20
1.000000000000000E+20
 30
1.000000000000000E+20
  9
$PEXTMAX
 10
-1.000000000000000E+20
 20
-1.000000000000000E+20
 30
-1.000000000000000E+20
  9
$PLIMMIN
 10
0.0
 20
0.0
  9
$PLIMMAX
 10
12.0
 20
9.0
  9
$UNITMODE
 70
     0
  9
$VISRETAIN
 70
     0
  9
$PLINEGEN
 70
     1
  9
$PSLTSCALE
 70
     0
  9
$TREEDEPTH
 70
  3020
  9
$CMLSTYLE
  2
Standard
  9
$CMLJUST
 70
     0
  9
$CMLSCALE
 40
1.0
  9
$PROXYGRAPHICS
 70
     1
  9
$MEASUREMENT
 70
     0
  9
$CELWEIGHT
370
    -1
  9
$ENDCAPS
280
     0
  9
$JOINSTYLE
280
     0
  9
$LWDISPLAY
290
     0
  9
$INSUNITS
 70
     0
  9
$HYPERLINKBASE
  1

  9
$STYLESHEET
  1
monochrome.ctb
  9
$XEDIT
290
     1
  9
$CEPSNTYPE
380
     0
  9
$PSTYLEMODE
290
     1
  9
$FINGERPRINTGUID
  2
{4E0ABB9A-9863-42E8-B1DC-CC5425E26CAF}
  9
$VERSIONGUID
  2
{262A91E6-AF11-4A4D-A9DD-486B82F1DF56}
  9
$EXTNAMES
290
     1
  9
$PSVPSCALE
 40
0.0
  9
$OLESTARTUP
290
     0
  0
ENDSEC
  0
SECTION
  2
CLASSES
  0
CLASS
  1
ACDBDICTIONARYWDFLT
  2
AcDbDictionaryWithDefault
  3
AutoCAD 2000
 90
        0
280
     0
281
     0
  0
CLASS
  1
ACDBPLACEHOLDER
  2
AcDbPlaceHolder
  3
ObjectDBX Classes
 90
        0
280
     0
281
     0
  0
CLASS
  1
LAYOUT
  2
AcDbLayout
  3
ObjectDBX Classes
 90
        0
280
     0
281
     0
  0
CLASS
  1
LONG_TRANSACTION
  2
AcDbLongTransaction
  3
ObjectDBX Classes
 90
   -65536
280
     1
281
     0
  0
CLASS
  1
LWPOLYLINE
  2
AcDbPolyline
  3
AutoCAD 2000
 90
        0
280
     0
281
     1
  0
CLASS
  1
HATCH
  2
AcDbHatch
  3
AutoCAD 2000
 90
        0
280
     0
281
     1
  0
CLASS
  1
XRECORD
  2
AcDbXrecord
  3
AutoCAD 2000
 90
        0
280
     0
281
     0
  0
CLASS
  1
LONG_TRANSACTION
  2
AcDbLongTransaction
  3
ObjectDBX Classes
 90
   -65536
280
     1
281
     0
  0
CLASS
  1
LWPOLYLINE
  2
AcDbPolyline
  3
AutoCAD 2000
 90
        0
280
     0
281
     1
  0
CLASS
  1
HATCH
  2
AcDbHatch
  3
AutoCAD 2000
 90
        0
280
     0
281
     1
  0
CLASS
  1
XRECORD
  2
AcDbXrecord
  3
AutoCAD 2000
 90
        0
280
     0
281
     0
  0
CLASS
  1
LONG_TRANSACTION
  2
AcDbLongTransaction
  3
ObjectDBX Classes
 90
   -65536
280
     1
281
     0
  0
CLASS
  1
LWPOLYLINE
  2
AcDbPolyline
  3
AutoCAD 2000
 90
        0
280
     0
281
     1
  0
CLASS
  1
HATCH
  2
AcDbHatch
  3
AutoCAD 2000
 90
        0
280
     0
281
     1
  0
CLASS
  1
XRECORD
  2
AcDbXrecord
  3
AutoCAD 2000
 90
        0
280
     0
281
     0
  0
CLASS
  1
LONG_TRANSACTION
  2
AcDbLongTransaction
  3
ObjectDBX Classes
 90
   -65536
280
     1
281
     0
  0
CLASS
  1
LWPOLYLINE
  2
AcDbPolyline
  3
AutoCAD 2000
 90
        0
280
     0
281
     1
  0
CLASS
  1
HATCH
  2
AcDbHatch
  3
AutoCAD 2000
 90
        0
280
     0
281
     1
  0
CLASS
  1
XRECORD
  2
AcDbXrecord
  3
AutoCAD 2000
 90
        0
280
     0
281
     0
  0
CLASS
  1
TABLESTYLE
  2
AcDbTableStyle
  3
ObjectDBX Classes
 90
     2047
280
     1
281
     0
  0
CLASS
  1
DICTIONARYVAR
  2
AcDbDictionaryVar
  3
AutoCAD 2000
 90
        0
280
     0
281
     0
  0
CLASS
  1
SORTENTSTABLE
  2
AcDbSortentsTable
  3
AutoCAD 2000
 90
        0
280
     0
281
     0
  0
CLASS
  1
DIMASSOC
  2
AcDbDimAssoc
  3
"AcDbDimAssoc|Product Desc:     AcDim ARX App For Dimension|Company:          Autodesk, Inc.|WEB Address:      www.autodesk.com"
 90
        0
280
     0
281
     0
  0
ENDSEC
  0
SECTION
  2
TABLES
  0
TABLE
  2
VPORT
  5
8
330
0
100
AcDbSymbolTable
 70
     3
  0
VPORT
  5
4113
330
8
100
AcDbSymbolTableRecord
100
AcDbViewportTableRecord
  2
*Active
 70
     0
 10
0.0
 20
0.0
 11
1.0
 21
1.0
 12
3.282355222109297
 22
6.580899924812622
 13
0.0
 23
0.0
 14
0.0625
 24
0.0625
 15
0.25
 25
0.25
 16
0.0
 26
0.0
 36
1.0
 17
0.0
 27
0.0
 37
0.0
 40
17.15080165887003
 41
1.703065134099617
 42
50.0
 43
0.0
 44
0.0
 50
0.0
 51
0.0
 71
     0
 72
   100
 73
     1
 74
     0
 75
     0
 76
     0
 77
     0
 78
     0
281
     0
 65
     1
110
0.0
120
0.0
130
0.0
111
1.0
121
0.0
131
0.0
112
0.0
122
1.0
132
0.0
 79
     0
146
0.0
  0
ENDTAB
  0
TABLE
  2
LTYPE
  5
5
330
0
100
AcDbSymbolTable
 70
     3
  0
LTYPE
  5
13
330
5
100
AcDbSymbolTableRecord
100
AcDbLinetypeTableRecord
  2
ByBlock
 70
     0
  3

 72
    65
 73
     0
 40
0.0
  0
LTYPE
  5
14
330
5
100
AcDbSymbolTableRecord
100
AcDbLinetypeTableRecord
  2
ByLayer
 70
     0
  3

 72
    65
 73
     0
 40
0.0
  0
LTYPE
  5
15
330
5
100
AcDbSymbolTableRecord
100
AcDbLinetypeTableRecord
  2
CONTINUOUS
 70
     0
  3
Solid line
 72
    65
 73
     0
 40
0.0
  0
LTYPE
  5
BCB
330
5
100
AcDbSymbolTableRecord
100
AcDbLinetypeTableRecord
  2
THD
 70
     0
  3
_ _ _ _ _ _ _ _ _ _ _ _ _ _ _ _ _ _ _ _ _ _ _ _
 72
    65
 73
     2
 40
0.15
 49
0.11
 74
     0
 49
-0.04
 74
     0
  0
LTYPE
  5
2B2F
330
5
100
AcDbSymbolTableRecord
100
AcDbLinetypeTableRecord
  2
HIDDEN
 70
     0
  3
Hidden __ __ __ __ __ __ __ __ __ __ __ __ __ _
 72
    65
 73
     2
 40
0.375
 49
0.25
 74
     0
 49
-0.125
 74
     0
  0
ENDTAB
  0
TABLE
  2
LAYER
  5
2
102
{ACAD_XDICTIONARY
360
A01
102
}
330
0
100
AcDbSymbolTable
 70
     3
  0
LAYER
  5
10
330
2
100
AcDbSymbolTableRecord
100
AcDbLayerTableRecord
  2
0
 70
     0
 62
     7
  6
CONTINUOUS
370
    -3
390
F
  0
LAYER
  5
3F
330
2
100
AcDbSymbolTableRecord
100
AcDbLayerTableRecord
  2
DIM
 70
     0
 62
     5
  6
CONTINUOUS
370
    -3
390
F
  0
LAYER
  5
BCC
330
2
100
AcDbSymbolTableRecord
100
AcDbLayerTableRecord
  2
Defpoints
 70
     0
 62
     7
  6
CONTINUOUS
290
     0
370
    -3
390
F
  0
ENDTAB
  0
TABLE
  2
STYLE
  5
3
330
0
100
AcDbSymbolTable
 70
     1
  0
STYLE
  5
11
330
3
100
AcDbSymbolTableRecord
100
AcDbTextStyleTableRecord
  2
STANDARD
 70
     0
 40
0.0
 41
1.0
 50
0.0
 71
     0
 42
0.09
  3
TXT
  4

  0
ENDTAB
  0
TABLE
  2
VIEW
  5
6
330
0
100
AcDbSymbolTable
 70
     0
  0
ENDTAB
  0
TABLE
  2
UCS
  5
7
330
0
100
AcDbSymbolTable
 70
     0
  0
ENDTAB
  0
TABLE
  2
APPID
  5
9
330
0
100
AcDbSymbolTable
 70
     6
  0
APPID
  5
12
330
9
100
AcDbSymbolTableRecord
100
AcDbRegAppTableRecord
  2
ACAD
 70
     0
  0
APPID
  5
A00
330
9
100
AcDbSymbolTableRecord
100
AcDbRegAppTableRecord
  2
ACAD_PSEXT
 70
     0
  0
APPID
  5
A47
330
9
100
AcDbSymbolTableRecord
100
AcDbRegAppTableRecord
  2
CONTENTBLOCKICON
 70
     0
  0
APPID
  5
BD0
330
9
100
AcDbSymbolTableRecord
100
AcDbRegAppTableRecord
  2
AcAecLayerStandard
 70
     0
  0
APPID
  5
1B37
330
9
100
AcDbSymbolTableRecord
100
AcDbRegAppTableRecord
  2
ACAD_DSTYLE_DIMTEXT_FILL
 70
     0
  0
APPID
  5
40FA
330
9
100
AcDbSymbolTableRecord
100
AcDbRegAppTableRecord
  2
DCO15
 70
     0
  0
ENDTAB
  0
TABLE
  2
DIMSTYLE
  5
A
330
0
100
AcDbSymbolTable
 70
     1
100
AcDbDimStyleTable
  0
DIMSTYLE
105
4E4
330
A
100
AcDbSymbolTableRecord
100
AcDbDimStyleTableRecord
  2
Standard
 70
     0
  3

  4

340
11
  0
ENDTAB
  0
TABLE
  2
BLOCK_RECORD
  5
1
330
0
100
AcDbSymbolTable
 70
     0
  0
BLOCK_RECORD
  5
1E
102
{ACAD_XDICTIONARY
360
4EE
102
}
330
1
100
AcDbSymbolTableRecord
100
AcDbBlockTableRecord
  2
*Model_Space
340
21
  0
BLOCK_RECORD
  5
1A
330
1
100
AcDbSymbolTableRecord
100
AcDbBlockTableRecord
  2
*Paper_Space
340
1D
  0
ENDTAB
  0
ENDSEC
  0
SECTION
  2
BLOCKS
  0
BLOCK
  5
4D
330
1E
100
AcDbEntity
  8
0
100
AcDbBlockBegin
  2
*Model_Space
 70
     0
 10
0.0
 20
0.0
 30
0.0
  3
*Model_Space
  1

  4

  0
ENDBLK
  5
4E
330
1E
100
AcDbEntity
  8
0
100
AcDbBlockEnd
  0
BLOCK
  5
4B
330
1A
100
AcDbEntity
 67
     1
  8
0
100
AcDbBlockBegin
  2
*Paper_Space
 70
     0
 10
0.0
 20
0.0
 30
0.0
  3
*Paper_Space
  1

  4

  0
ENDBLK
  5
4C
330
1A
100
AcDbEntity
 67
     1
  8
0
100
AcDbBlockEnd
  0
ENDSEC
  0
SECTION
  2
ENTITIES
  0
TEXT
  5
4DD
330
1E
100
AcDbEntity
  8
DIM
100
AcDbText
 10
6.58
 20
1.875
 30
0.0
 40
0.09
  1
 
 72
     1
 11
6.625
 21
1.875
 31
0.0
100
AcDbText
  0
LINE
  5
2929
330
1E
100
AcDbEntity
  8
0
100
AcDbLine
 10
0.8825000000000145
 20
0.4232996132516149
 30
0.0
 11
0.8825000000000571
 21
7.033308982962332
 31
0.0
  0
LWPOLYLINE
  5
292A
330
1E
100
AcDbEntity
  8
0
100
AcDbPolyline
 90
        7
 70
     0
 43
0.0
 10
-0.6853947990399618
 20
0.4255423175909634
 42
-0.0664535282452353
 10
-0.6695126358219241
 20
0.4161231828149141
 42
-0.0883251748351869
 10
-0.6602522770830959
 20
0.4057041305666616
 42
-0.0438041714911999
 10
-0.6531050730211732
 20
0.3913808904255802
 42
-0.0445311467080907
 10
-0.6486582207705567
 20
0.3762746962645274
 42
-0.0898465825805525
 10
-0.6484111607679921
 20
0.3626043823163343
 42
-0.0670593260546073
 10
-0.6537192481283682
 20
0.345139607839716
  0
LWPOLYLINE
  5
2933
330
1E
100
AcDbEntity
  8
0
100
AcDbPolyline
 90
        7
 70
     0
 43
0.0
 10
-0.7554034088973225
 20
0.1226067711528565
 42
-0.0477401187425374
 10
-0.7624706025684418
 20
0.1104814219193955
 42
-0.0702275835540065
 10
-0.7690838518462968
 20
0.1035698237407132
 42
-0.025772329194196
 10
-0.7786771369133447
 20
0.0967832381104969
 42
-0.025340188615632
 10
-0.7890870879114971
 20
0.0909125097042462
 42
-0.0690198331151016
 10
-0.7983455071327015
 20
0.0877928824590271
 42
-0.0473162493183946
 10
-0.8124999999999858
 20
0.0864781426828003
  0
LINE
  5
293C
330
1E
100
AcDbEntity
  8
0
100
AcDbLine
 10
-0.7554034088973154
 20
0.1226067711528565
 30
0.0
 11
-0.6537192481283611
 21
0.3451396078397231
 31
0.0
  0
LINE
  5
293E
330
1E
100
AcDbEntity
  8
0
  6
THD
100
AcDbLine
 10
-0.2646963511480394
 20
0.1942534261959388
 30
0.0
 11
-0.3457501445139926
 21
0.3250250073298453
 31
0.0
  0
LINE
  5
293F
330
1E
100
AcDbEntity
  8
0
  6
THD
100
AcDbLine
 10
-0.6103036488518896
 20
0.1942534261959388
 30
0.0
 11
-0.5290494457813253
 21
0.3253483468412313
 31
0.0
  0
LWPOLYLINE
  5
2940
330
1E
100
AcDbEntity
  8
0
  6
THD
100
AcDbPolyline
 90
       10
 70
     0
 43
0.0
 10
-0.5290494457813253
 20
0.3253483468412917
 10
-0.5011513064999775
 20
0.3617023831190593
 10
-0.4833262902999564
 20
0.3768028676463331
 10
-0.4649918841999607
 20
0.3862564711409711
 10
-0.4466577764999755
 20
0.3907471768343456
 10
-0.4283422234999676
 20
0.390742050770875
 10
-0.4099883223999683
 20
0.3862331789220228
 10
-0.3916476682999672
 20
0.3767570439965553
 10
-0.3738546183999603
 20
0.361663981343515
 10
-0.3457501445140281
 20
0.3250250073298844
  0
LINE
  5
294C
330
1E
100
AcDbEntity
  8
0
  6
THD
100
AcDbLine
 10
0.264696351148082
 20
0.1942534261959246
 30
0.0
 11
0.3417101139592873
 21
0.0700000000000021
 31
0.0
  0
LINE
  5
294D
330
1E
100
AcDbEntity
  8
0
  6
THD
100
AcDbLine
 10
0.264696351148082
 20
0.1942534261959388
 30
0.0
 11
0.3457501445140352
 21
0.3250250073298453
 31
0.0
  0
LINE
  5
294E
330
1E
100
AcDbEntity
  8
0
  6
THD
100
AcDbLine
 10
0.6103036488519322
 20
0.1942534261959388
 30
0.0
 11
0.5290494457813679
 21
0.3253483468412313
 31
0.0
  0
LWPOLYLINE
  5
294F
330
1E
100
AcDbEntity
  8
0
  6
THD
100
AcDbPolyline
 90
       10
 70
     0
 43
0.0
 10
0.5290494457813537
 20
0.3253483468412917
 10
0.5011513065000059
 20
0.3617023831190593
 10
0.4833262902999849
 20
0.3768028676463331
 10
0.4649918841999892
 20
0.3862564711409711
 10
0.4466577765000039
 20
0.3907471768343456
 10
0.4283422234999961
 20
0.390742050770875
 10
0.4099883223999967
 20
0.3862331789220228
 10
0.3916476682999956
 20
0.3767570439965553
 10
0.3738546183999887
 20
0.361663981343515
 10
0.3457501445140494
 20
0.3250250073298844
  0
LINE
  5
295B
330
1E
100
AcDbEntity
  8
0
  6
THD
100
AcDbLine
 10
0.6103036488519322
 20
0.1942534261959246
 30
0.0
 11
0.5332898860407269
 21
0.0700000000000038
 31
0.0
  0
LINE
  5
295C
330
1E
100
AcDbEntity
  8
0
  6
HIDDEN
 62
     8
100
AcDbLine
 10
0.8125000000000142
 20
0.2971000059608571
 30
0.0
 11
0.8125333788265152
 21
3.609357142440896
 31
0.0
  0
LINE
  5
295D
330
1E
100
AcDbEntity
  8
0
100
AcDbLine
 10
0.812533378826517
 20
3.609357142440823
 30
0.0
 11
0.8125000000000711
 21
7.033308982962332
 31
0.0
  0
LINE
  5
295F
330
1E
100
AcDbEntity
  8
0
100
AcDbLine
 10
0.8125000000000711
 20
7.033308982962332
 30
0.0
 11
0.8825000000000571
 21
7.033308982962332
 31
0.0
  0
LINE
  5
2960
330
1E
100
AcDbEntity
  8
0
100
AcDbLine
 10
-0.8125
 20
0.1400000000000006
 30
0.0
 11
-0.7474557464097629
 21
0.1400000000000006
 31
0.0
  0
LINE
  5
2961
330
1E
100
AcDbEntity
  8
0
  6
HIDDEN
 62
     8
100
AcDbLine
 10
-0.7474557464097629
 20
0.1400000000000006
 30
0.0
 11
0.7508847118974771
 21
0.139999999999997
 31
0.0
  0
LINE
  5
2962
330
1E
100
AcDbEntity
  8
0
100
AcDbLine
 10
0.7508847118974771
 20
0.139999999999997
 30
0.0
 11
0.8125000000000142
 21
0.139999999999997
 31
0.0
  0
LINE
  5
2963
330
1E
100
AcDbEntity
  8
0
100
AcDbLine
 10
-0.8124999999999858
 20
0.0700000000000056
 30
0.0
 11
0.8125000000000071
 21
0.0700000000000003
 31
0.0
  0
LINE
  5
296C
330
1E
100
AcDbEntity
  8
0
100
AcDbLine
 10
0.8125000000000071
 20
0.139999999999997
 30
0.0
 11
0.8125000000000142
 21
0.0700000000000021
 31
0.0
  0
LINE
  5
296D
330
1E
100
AcDbEntity
  8
0
100
AcDbLine
 10
-0.8124999999999929
 20
0.139999999999997
 30
0.0
 11
-0.8124999999999858
 21
0.0700000000000021
 31
0.0
  0
LINE
  5
296E
330
1E
100
AcDbEntity
  8
0
100
AcDbLine
 10
-0.5781250000000142
 20
0.0
 30
0.0
 11
0.5781250000000142
 21
0.0
 31
0.0
  0
LINE
  5
296F
330
1E
100
AcDbEntity
  8
0
100
AcDbLine
 10
0.6281250000000114
 20
0.0700000000000003
 30
0.0
 11
0.6281250000000114
 21
0.0499999999999972
 31
0.0
  0
ARC
  5
2970
330
1E
100
AcDbEntity
  8
0
100
AcDbCircle
 10
0.5781250000000142
 20
0.0499999999999972
 30
0.0
 40
0.05
100
AcDbArc
 50
270.0
 51
0.0000000000010178
  0
ARC
  5
2972
330
1E
100
AcDbEntity
  8
0
  6
HIDDEN
 62
     8
100
AcDbCircle
 10
0.484375
 20
0.0499999999999972
 30
0.0
 40
0.05
100
AcDbArc
 50
179.999999999999
 51
270.0
  0
LINE
  5
2973
330
1E
100
AcDbEntity
  8
0
100
AcDbLine
 10
-0.6281250000000114
 20
0.0700000000000003
 30
0.0
 11
-0.6281250000000114
 21
0.0499999999999972
 31
0.0
  0
ARC
  5
2974
330
1E
100
AcDbEntity
  8
0
100
AcDbCircle
 10
-0.5781250000000142
 20
0.0499999999999972
 30
0.0
 40
0.05
100
AcDbArc
 50
179.999999999999
 51
270.0
  0
ARC
  5
2976
330
1E
100
AcDbEntity
  8
0
  6
HIDDEN
 62
     8
100
AcDbCircle
 10
-0.484375
 20
0.0499999999999972
 30
0.0
 40
0.05
100
AcDbArc
 50
270.0
 51
0.0000000000010178
  0
LINE
  5
2979
330
1E
100
AcDbEntity
  8
0
  6
HIDDEN
 62
     8
100
AcDbLine
 10
0.4157501445140355
 20
0.3876486446252798
 30
0.0
 11
0.4157501445140355
 21
0.0700000000000021
 31
0.0
  0
LINE
  5
297A
330
1E
100
AcDbEntity
  8
0
  6
HIDDEN
 62
     8
100
AcDbLine
 10
0.4592498554859503
 20
0.3876629077922438
 30
0.0
 11
0.4592498554859574
 21
0.0700000000000021
 31
0.0
  0
LINE
  5
297B
330
1E
100
AcDbEntity
  8
0
  6
THD
100
AcDbLine
 10
-0.6103036488518896
 20
0.1942534261959246
 30
0.0
 11
-0.5332898860406843
 21
0.0700000000000021
 31
0.0
  0
LINE
  5
297C
330
1E
100
AcDbEntity
  8
0
  6
THD
100
AcDbLine
 10
-0.2646963511480394
 20
0.1942534261959246
 30
0.0
 11
-0.3417101139592447
 21
0.0700000000000038
 31
0.0
  0
LINE
  5
297F
330
1E
100
AcDbEntity
  8
0
  6
HIDDEN
 62
     8
100
AcDbLine
 10
-0.4592498554859361
 20
0.3876486446252798
 30
0.0
 11
-0.4592498554859361
 21
0.0700000000000021
 31
0.0
  0
LINE
  5
2980
330
1E
100
AcDbEntity
  8
0
  6
HIDDEN
 62
     8
100
AcDbLine
 10
-0.4157501445140213
 20
0.3876629077922438
 30
0.0
 11
-0.4157501445140142
 21
0.0700000000000021
 31
0.0
  0
LWPOLYLINE
  5
2990
330
1E
100
AcDbEntity
  8
0
100
AcDbPolyline
 90
        4
 70
     0
 43
0.0
 10
0.8825000000000145
 20
0.4232996132516149
 42
0.013394984508593
 10
0.8783119788373099
 20
0.4210684360632406
 42
0.0898465825805525
 10
0.8678151525695697
 20
0.4123074338151014
 42
0.0670593260546073
 10
0.8580856885815464
 20
0.3968629633013485
  0
LWPOLYLINE
  5
2996
330
1E
100
AcDbEntity
  8
0
100
AcDbPolyline
 90
        4
 70
     0
 43
0.0
 10
0.7564015278125922
 20
0.174330126614489
 42
0.0477401187425374
 10
0.7518602169725313
 20
0.1610506004078651
 42
0.0702275835540065
 10
0.7509635130543018
 20
0.1515268838288364
 42
0.0253997865754026
 10
0.7520867178140946
 20
0.139999999999997
 42
0.025340188615632
  0
LINE
  5
299C
330
1E
100
AcDbEntity
  8
0
100
AcDbLine
 10
0.7564015278125922
 20
0.1743301266144961
 30
0.0
 11
0.8580856885815464
 21
0.3968629633013592
 31
0.0
  0
LINE
  5
299D
330
1E
100
AcDbEntity
  8
0
100
AcDbLine
 10
0.653306607270423
 20
1.949012717570424
 30
0.0
 11
0.1372549998296577
 21
0.8196487417832721
 31
0.0
  0
LINE
  5
299E
330
1E
100
AcDbEntity
  8
0
  6
HIDDEN
 62
     8
100
AcDbLine
 10
0.5893584252354458
 20
1.976754558218929
 30
0.0
 11
0.0733068177946805
 21
0.8473905824317605
 31
0.0
  0
LINE
  5
299F
330
1E
100
AcDbEntity
  8
0
100
AcDbLine
 10
0.4112170609951349
 20
2.05403540002547
 30
0.0
 11
-0.1156413642403109
 21
0.9010210169257888
 31
0.0
  0
LINE
  5
29A0
330
1E
100
AcDbEntity
  8
0
  6
HIDDEN
 62
     8
100
AcDbLine
 10
0.4751652430301121
 20
2.026293559376967
 30
0.0
 11
-0.0516931822053337
 21
0.8732791762772934
 31
0.0
  0
LWPOLYLINE
  5
29A1
330
1E
100
AcDbEntity
  8
0
100
AcDbPolyline
 90
       15
 70
     0
 43
0.0
 10
0.4112170609940264
 20
2.054035400023061
 42
-0.05559651440747
 10
0.4289537351135877
 20
2.083311397917349
 42
-0.0786061866460522
 10
0.4465873869699095
 20
2.100008433461095
 42
-0.0332747854580201
 10
0.478181680463571
 20
2.118720429681879
 42
-0.0552768722026225
 10
0.4989265879347542
 20
2.126475428665255
 42
-0.0545908071575804
 10
0.5283049451274806
 20
2.130562369597147
 42
-0.0545968779292382
 10
0.5578682432391631
 20
2.12819427263889
 42
-0.0551302516249883
 10
0.5860774324774596
 20
2.119493907034272
 42
-0.0550599667211833
 10
0.6117382351779881
 20
2.104824527252784
 42
-0.0564378927139446
 10
0.6332697525716569
 20
2.085081675833187
 42
-0.0563629857853365
 10
0.6498669511755182
 20
2.06099485719183
 42
-0.0575693883386077
 10
0.6578694692433089
 20
2.040707820701947
 42
-0.0348245776128342
 10
0.6647025314103203
 20
2.00538626614734
 42
-0.0804060440005895
 10
0.6637565986577485
 20
1.981140974677679
 42
-0.0575652387389907
 10
0.6533066072704088
 20
1.949012717570426
  0
LWPOLYLINE
  5
29B2
330
1E
100
AcDbEntity
  8
0
  6
HIDDEN
 62
     8
100
AcDbPolyline
 90
       15
 70
     0
 43
0.0
 10
0.4751652430295863
 20
2.026293559375834
 42
-0.0555965144081367
 10
0.4835315987463886
 20
2.040102992344849
 42
-0.0786061866465356
 10
0.4918493590559478
 20
2.047978952506982
 42
-0.0332747854584237
 10
0.5067523276850565
 20
2.056805365818669
 42
-0.0552768722031247
 10
0.5165376613978552
 20
2.060463384207054
 42
-0.0545908071575361
 10
0.530395377054802
 20
2.06239118653342
 42
-0.0545968779291898
 10
0.5443403289942737
 20
2.061274159666317
 42
-0.0551302516250482
 10
0.5576465503330752
 20
2.057170213626407
 42
-0.055059966721391
 10
0.5697507025503228
 20
2.05025069486155
 42
-0.0564378927135743
 10
0.5799070786794189
 20
2.040938029097596
 42
-0.0563629857849503
 10
0.5877359459453828
 20
2.029576322191289
 42
-0.0575693883382398
 10
0.5915107186189061
 20
2.020006965356366
 42
-0.0348245776121793
 10
0.5947338611504804
 20
2.003345854717473
 42
-0.080406044000749
 10
0.5942876664558696
 20
1.991909396477091
 42
-0.0575652387393208
 10
0.5893584252354316
 20
1.97675455821893
  0
LWPOLYLINE
  5
29C3
330
1E
100
AcDbEntity
  8
0
100
AcDbPolyline
 90
       15
 70
     0
 43
0.0
 10
0.1325000000000074
 20
0.4327882544963551
 42
-0.0567757993514295
 10
0.1285547042640758
 20
0.3991255730821806
 42
-0.0798871545245322
 10
0.1193783749980852
 20
0.3767721136691513
 42
-0.0342434707818445
 10
0.0983840660754893
 20
0.3472041790685623
 42
-0.0565307948098574
 10
0.0826123987477985
 20
0.3318506565252779
 42
-0.0551286798504101
 10
0.0574099263004868
 20
0.3164377886212719
 42
-0.0552018570309859
 10
0.0294840237507259
 20
0.3069211285777094
 42
-0.0545911380789614
 10
0.0000000000013642
 20
0.3036923734427859
 42
-0.0545911380789785
 10
-0.0294840237480756
 20
0.3069211285771232
 42
-0.0552018570309838
 10
-0.0574099262980567
 20
0.3164377886201386
 42
-0.0551286798503567
 10
-0.0826123987456739
 20
0.3318506565236348
 42
-0.0565307948099806
 10
-0.0983840660736703
 20
0.3472041790666012
 42
-0.0342434707819355
 10
-0.1193783749968986
 20
0.3767721136667763
 42
-0.0798871545249381
 10
-0.1285547042633439
 20
0.399125573079651
 42
-0.0567757993515583
 10
-0.1324999999999932
 20
0.4327882544937189
  0
LWPOLYLINE
  5
29D4
330
1E
100
AcDbEntity
  8
0
  6
HIDDEN
 62
     8
100
AcDbPolyline
 90
       15
 70
     0
 43
0.0
 10
0.0625000000000071
 20
0.4327882544949624
 42
-0.056775799351823
 10
0.0606390114453106
 20
0.4169096311863925
 42
-0.0798871545250303
 10
0.0563105542443836
 20
0.4063655465576019
 42
-0.0342434707810682
 10
0.0464075783375577
 20
0.3924184075950947
 42
-0.0565307948091587
 10
0.0389681126168924
 20
0.3851761799803022
 42
-0.0551286798505386
 10
0.0270801539153283
 20
0.3779059592708691
 42
-0.0552018570310871
 10
0.0139075583729849
 20
0.3734169686842819
 42
-0.0545911380789802
 10
0.0000000000006395
 20
0.37189397097913
 42
-0.0545911380790021
 10
-0.0139075583717272
 20
0.3734169686840048
 42
-0.0552018570310251
 10
-0.0270801539141488
 20
0.3779059592703256
 42
-0.0551286798505224
 10
-0.0389681126158763
 20
0.3851761799795277
 42
-0.0565307948105653
 10
-0.046407578336634
 20
0.3924184075941568
 42
-0.0342434707822047
 10
-0.0563105542438151
 20
0.4063655465564828
 42
-0.0798871545250922
 10
-0.0606390114449553
 20
0.4169096311851703
 42
-0.0567757993518863
 10
-0.0624999999999929
 20
0.4327882544937189
  0
LINE
  5
29E5
330
1E
100
AcDbEntity
  8
0
100
AcDbLine
 10
0.1325000000000003
 20
0.4327882544937225
 30
0.0
 11
0.1325000000000003
 21
0.7978515812737221
 31
0.0
  0
LWPOLYLINE
  5
29E6
330
1E
100
AcDbEntity
  8
0
100
AcDbPolyline
 90
        7
 70
     0
 43
0.0
 10
0.1325000000000003
 20
0.7978515812737186
 42
-0.0178851892600117
 10
0.1326709222331246
 20
0.8026136833782047
 42
-0.0313453188581622
 10
0.1330352562192161
 20
0.8053099169606561
 42
-0.00444983538997
 10
0.1337992463721562
 20
0.8089681314421213
 42
-0.0044365717554913
 10
0.1346306067233911
 20
0.8126230846271785
 42
-0.0312513475316837
 10
0.1354247711554208
 20
0.8152365112583411
 42
-0.0178582451277121
 10
0.1372549998296577
 20
0.8196487417832614
  0
LWPOLYLINE
  5
29EF
330
1E
100
AcDbEntity
  8
0
  6
HIDDEN
 62
     8
100
AcDbPolyline
 90
        7
 70
     0
 43
0.0
 10
0.0625
 20
0.7978515812737168
 42
-0.0178851892607701
 10
0.0628884596207584
 20
0.808674540602361
 42
-0.0313453188573698
 10
0.0637164914073054
 20
0.8148023441985721
 42
-0.004449835367702
 10
0.0654528326635742
 20
0.8231164680199399
 42
-0.0044365717335188
 10
0.0673422880077084
 20
0.8314231798043004
 42
-0.0312513475339767
 10
0.0691472071714614
 20
0.837362785784272
 42
-0.0178582451287193
 10
0.0733068177946734
 20
0.8473905824317605
  0
LINE
  5
29F8
330
1E
100
AcDbEntity
  8
0
  6
HIDDEN
 62
     8
100
AcDbLine
 10
0.0625000000000071
 20
0.4327882544937225
 30
0.0
 11
0.0625
 21
0.7978515812737221
 31
0.0
  0
LWPOLYLINE
  5
29F9
330
1E
100
AcDbEntity
  8
0
100
AcDbPolyline
 90
        7
 70
     0
 43
0.0
 10
-0.1325000000000145
 20
0.8237401751192515
 42
-0.017885189260748
 10
-0.1318940029916362
 20
0.8406239916718832
 42
-0.0313453188575785
 10
-0.1306022734046195
 20
0.850183365282021
 42
-0.0044498353699158
 10
-0.1278935810447806
 20
0.8631533984433517
 42
-0.0044365717357201
 10
-0.1249460307079886
 20
0.8761118688269569
 42
-0.0312513475324846
 10
-0.1221303568125549
 20
0.8853776541557394
 42
-0.0178582451278468
 10
-0.115641364240318
 20
0.9010210169257906
  0
LWPOLYLINE
  5
2A02
330
1E
100
AcDbEntity
  8
0
  6
HIDDEN
 62
     8
100
AcDbPolyline
 90
        7
 70
     0
 43
0.0
 10
-0.0625000000000142
 20
0.8237401751192515
 42
-0.0178851892600134
 10
-0.06211154037927
 20
0.8345631344479543
 42
-0.0313453188555789
 10
-0.0612835085927088
 20
0.840690938044105
 42
-0.004449835366712
 10
-0.0595471673365395
 20
0.8490050618650784
 42
-0.0044365717329553
 10
-0.0576577119923058
 20
0.8573117736498332
 42
-0.0312513475327687
 10
-0.055852792828567
 20
0.8632513796298085
 42
-0.0178582451280362
 10
-0.0516931822053408
 20
0.8732791762772898
  0
LINE
  5
2A0B
330
1E
100
AcDbEntity
  8
0
  6
HIDDEN
 62
     8
100
AcDbLine
 10
-0.0625000000000071
 20
0.4327882544937225
 30
0.0
 11
-0.0625000000000071
 21
0.823740175119255
 31
0.0
  0
LINE
  5
2A0C
330
1E
100
AcDbEntity
  8
0
100
AcDbLine
 10
-0.1325000000000003
 20
0.4327882544937225
 30
0.0
 11
-0.1325000000000074
 21
0.8237401751192479
 31
0.0
  0
LINE
  5
2B42
330
1E
100
AcDbEntity
  8
0
  6
HIDDEN
 62
     8
100
AcDbLine
 10
0.7520867178140946
 20
0.139999999999997
 30
0.0
 11
0.7520867178140946
 21
0.0700000000000003
 31
0.0
  0
MTEXT
  5
2BD0
330
1E
100
AcDbEntity
  8
DIM
100
AcDbMText
 10
-3.848081396644544
 20
13.70459965536297
 30
0.0
 40
0.0900000000000044
 41
0.0
 71
     1
 72
     1
  1
\A1;
 73
     1
 44
1.0
  0
MTEXT
  5
2BFD
330
1E
100
AcDbEntity
  8
DIM
100
AcDbMText
 10
-3.823247557340692
 20
13.59557087568753
 30
0.0
 40
0.0900000000000044
 41
0.0
 71
     1
 72
     1
  1
\A1;
 73
     1
 44
1.0
  0
MTEXT
  5
2C18
330
1E
100
AcDbEntity
  8
DIM
100
AcDbMText
 10
-4.189138738572949
 20
13.42149254388096
 30
0.0
 40
0.0900000000000044
 41
0.0
 71
     1
 72
     1
  1
\A1;
 73
     1
 44
1.0
  0
MTEXT
  5
2C1C
330
1E
100
AcDbEntity
  8
DIM
100
AcDbMText
 10
-8.70112019078316
 20
11.51986666581298
 30
0.0
 40
0.0900000000000044
 41
0.0
 71
     9
 72
     1
  1
\A1;
 73
     1
 44
1.0
  0
ARC
  5
3609
330
1E
100
AcDbEntity
  8
0
100
AcDbCircle
 10
-0.0531784317905597
 20
3.798571492825333
 30
0.0
 40
0.9379816107271392
100
AcDbArc
 50
337.3562055462318
 51
355.9840045281573
  0
ARC
  5
360A
330
1E
100
AcDbEntity
  8
0
100
AcDbCircle
 10
-0.0355698099294894
 20
3.590997464133482
 30
0.0
 40
0.8483018899929758
100
AcDbArc
 50
346.0531909704795
 51
1.240141314230169
  0
LINE
  5
3611
330
1E
100
AcDbEntity
  8
0
100
AcDbLine
 10
-0.6853947990399618
 20
0.4255423175909634
 30
0.0
 11
0.8125000000000284
 21
3.437447753928481
 31
0.0
  0
MTEXT
  5
3733
330
1E
100
AcDbEntity
  8
DIM
100
AcDbMText
 10
4.504680707690965
 20
16.87131632442495
 30
0.0
 40
0.1525000000000075
 41
0.0
 71
     9
 72
     1
  1
\A1;
 73
     1
 44
1.0
  0
LINE
  5
378C
330
1E
100
AcDbEntity
  8
0
100
AcDbLine
 10
0.8125017856866865
 20
6.850135827648208
 30
0.0
 11
0.8825000000000554
 21
6.850135827648208
 31
0.0
  0
LINE
  5
378D
330
1E
100
AcDbEntity
  8
0
100
AcDbLine
 10
0.8125065250473824
 20
6.363979047542651
 30
0.0
 11
0.8825000000000518
 21
6.363979047542651
 31
0.0
  0
ENDSEC
  0
SECTION
  2
OBJECTS
  0
DICTIONARY
  5
C
330
0
100
AcDbDictionary
281
     1
  3
ACAD_COLOR
350
691
  3
ACAD_GROUP
350
D
  3
ACAD_LAYOUT
350
19
  3
ACAD_MATERIAL
350
690
  3
ACAD_MLINESTYLE
350
16
  3
ACAD_PLOTSETTINGS
350
18
  3
ACAD_PLOTSTYLENAME
350
E
  3
ACAD_TABLESTYLE
350
692
  3
AcadDim
350
378E
  3
ACDBHEADERROUNDTRIPXREC
350
4119
  3
AcDbVariableDictionary
350
A9D
  3
ASE_INDEX_DICTIONARY
350
40F9
  0
DICTIONARY
  5
A01
330
2
100
AcDbDictionary
280
     1
281
     1
  3
ACAD_LAYERFILTERS
360
2B41
  3
ACAD_LAYERSTATES
360
A02
  3
ACLYDICTIONARY
360
2B40
  0
DICTIONARY
  5
4EE
330
1E
100
AcDbDictionary
280
     1
281
     1
  3
ACAD_SORTENTS
360
1BD2
  0
DICTIONARY
  5
691
102
{ACAD_REACTORS
330
C
102
}
330
C
100
AcDbDictionary
281
     1
  0
DICTIONARY
  5
D
102
{ACAD_REACTORS
330
C
102
}
330
C
100
AcDbDictionary
281
     1
  0
DICTIONARY
  5
19
102
{ACAD_REACTORS
330
C
102
}
330
C
100
AcDbDictionary
281
     1
  3
Layout1
350
1D
  3
Model
350
21
  0
DICTIONARY
  5
690
102
{ACAD_REACTORS
330
C
102
}
330
C
100
AcDbDictionary
281
     1
  0
DICTIONARY
  5
16
102
{ACAD_REACTORS
330
C
102
}
330
C
100
AcDbDictionary
281
     1
  3
Standard
350
17
  0
DICTIONARY
  5
18
102
{ACAD_REACTORS
330
C
102
}
330
C
100
AcDbDictionary
281
     1
  0
ACDBDICTIONARYWDFLT
  5
E
102
{ACAD_REACTORS
330
C
102
}
330
C
100
AcDbDictionary
281
     1
  3
Normal
350
F
100
AcDbDictionaryWithDefault
340
F
  0
DICTIONARY
  5
692
102
{ACAD_REACTORS
330
C
102
}
330
C
100
AcDbDictionary
281
     1
  3
Standard
350
693
  0
XRECORD
  5
378E
102
{ACAD_REACTORS
330
C
102
}
330
C
100
AcDbXrecord
280
     1
 90
   990106
  3

 60
     0
 61
     0
 62
     1
 63
     3
 64
     0
 65
     0
 66
     0
 67
     3
 68
     1
 69
     0
 70
     0
 71
     0
 72
     0
 40
0.0
170
     0
340
0
  0
DICTIONARY
  5
4119
102
{ACAD_REACTORS
330
C
102
}
330
C
100
AcDbDictionary
281
     1
  3
COLORDICT
350
411A
  3
MATERIALDICT
350
411B
  0
DICTIONARY
  5
A9D
102
{ACAD_REACTORS
330
C
102
}
330
C
100
AcDbDictionary
281
     1
  3
CTABLESTYLE
350
A9E
  3
DIMASSOC
350
A9F
  0
DICTIONARY
  5
40F9
102
{ACAD_REACTORS
330
C
102
}
330
C
100
AcDbDictionary
281
     1
  3
ASEBlockHierarchyIndexRecord
350
40FB
1001
DCO15
1040
1650279773.088
  0
DICTIONARY
  5
2B41
102
{ACAD_REACTORS
330
A01
102
}
330
A01
100
AcDbDictionary
281
     1
  0
DICTIONARY
  5
A02
102
{ACAD_REACTORS
330
A01
102
}
330
A01
100
AcDbDictionary
281
     1
  0
DICTIONARY
  5
2B40
102
{ACAD_REACTORS
330
A01
102
}
330
A01
100
AcDbDictionary
281
     1
1001
ACAD
1000
<All
  0
SORTENTSTABLE
  5
1BD2
102
{ACAD_REACTORS
330
4EE
102
}
330
4EE
100
AcDbSortentsTable
330
1E
331
0
  5
2776
331
29B2
  5
29B2
331
29EF
  5
29EF
331
299F
  5
299F
331
29F9
  5
29F9
331
2C1C
  5
2C1C
331
29C3
  5
29C3
331
296D
  5
296D
331
2980
  5
2980
331
2972
  5
2972
331
2979
  5
2979
331
294E
  5
294E
331
294D
  5
294D
331
299D
  5
299D
331
294F
  5
294F
331
297F
  5
297F
331
2974
  5
2974
331
2A02
  5
2A02
331
29E5
  5
29E5
331
2929
  5
2929
331
29A1
  5
29A1
331
296F
  5
296F
331
297A
  5
297A
331
294C
  5
294C
331
293E
  5
293E
331
2933
  5
2933
331
2963
  5
2963
331
2962
  5
2962
331
293F
  5
293F
331
296E
  5
296E
331
3609
  5
3609
331
295F
  5
295F
331
2976
  5
2976
331
292A
  5
292A
331
2961
  5
2961
331
2BFD
  5
2BFD
331
2973
  5
2973
331
29A0
  5
29A0
331
295C
  5
295C
331
3611
  5
3611
331
29F8
  5
29F8
331
293C
  5
293C
331
295D
  5
295D
331
3733
  5
3733
331
2A0C
  5
2A0C
331
4DD
  5
4DD
331
2990
  5
2990
331
2970
  5
2970
331
2A0B
  5
2A0B
331
29D4
  5
29D4
331
295B
  5
295B
331
297C
  5
297C
331
299C
  5
299C
331
2B42
  5
2B42
331
360A
  5
360A
331
299E
  5
299E
331
296C
  5
296C
331
2940
  5
2940
331
2960
  5
2960
331
2996
  5
2996
331
2BD0
  5
2BD0
331
2C18
  5
2C18
331
29E6
  5
29E6
331
297B
  5
297B
  0
LAYOUT
  5
1D
102
{ACAD_REACTORS
330
19
102
}
102
{ACAD_XDICTIONARY
360
411C
102
}
330
19
100
AcDbPlotSettings
  1

  2
Fax
  4

  6

 40
0.0
 41
0.0
 42
0.0
 43
0.0
 44
0.0
 45
0.0
 46
0.0
 47
0.0
 48
0.0
 49
0.0
140
0.0
141
0.0
142
1.0
143
1.0
 70
   688
 72
     0
 73
     0
 74
     5
  7
monochrome.ctb
 75
    16
147
1.0
148
0.0
149
0.0
100
AcDbLayout
  1
Layout1
 70
     0
 71
     1
 10
0.0
 20
0.0
 11
12.0
 21
9.0
 12
0.0
 22
0.0
 32
0.0
 14
1.000000000000000E+20
 24
1.000000000000000E+20
 34
1.000000000000000E+20
 15
-1.000000000000000E+20
 25
-1.000000000000000E+20
 35
-1.000000000000000E+20
146
0.0
 13
0.0
 23
0.0
 33
0.0
 16
1.0
 26
0.0
 36
0.0
 17
0.0
 27
1.0
 37
0.0
 76
     0
330
1A
  0
LAYOUT
  5
21
102
{ACAD_REACTORS
330
19
102
}
102
{ACAD_XDICTIONARY
360
411E
102
}
330
19
100
AcDbPlotSettings
  1

  2
HP LaserJet 2100 Series PS
  4
Letter
  6

 40
5.365749835968018
 41
5.408073902130127
 42
5.132904052734375
 43
5.090576171875
 44
215.8999938964844
 45
279.3999938964844
 46
0.0
 47
0.0
 48
0.0
 49
0.0
140
0.0
141
0.0
142
1.0
143
1.984053267717587
 70
 11952
 72
     0
 73
     2
 74
     1
  7
monochrome.ctb
 75
     0
147
0.5040187258431721
148
0.0241725331186814
149
0.6847921724481011
100
AcDbLayout
  1
Model
 70
     1
 71
     0
 10
0.0
 20
0.0
 11
12.0
 21
9.0
 12
0.0
 22
0.0
 32
0.0
 14
0.0
 24
0.0
 34
0.0
 15
0.0
 25
0.0
 35
0.0
146
0.0
 13
0.0
 23
0.0
 33
0.0
 16
1.0
 26
0.0
 36
0.0
 17
0.0
 27
1.0
 37
0.0
 76
     0
330
1E
1001
ACAD_PSEXT
1000
HP LaserJet 2100 Series PS
1000
HP LaserJet 2100 Series PS
1000
LPT1:
1000

1070
     0
  0
MLINESTYLE
  5
17
102
{ACAD_REACTORS
330
16
102
}
330
16
100
AcDbMlineStyle
  2
STANDARD
 70
     0
  3

 62
   256
 51
90.0
 52
90.0
 71
     2
 49
0.5
 62
   256
  6
BYLAYER
 49
-0.5
 62
   256
  6
BYLAYER
  0
ACDBPLACEHOLDER
  5
F
102
{ACAD_REACTORS
330
E
102
}
330
E
  0
ACAD_PROXY_OBJECT
  5
693
102
{ACAD_REACTORS
330
692
102
}
330
692
100
AcDbProxyObject
 90
      499
 91
      519
 95
   983063
 70
     0
 93
     1841
310
4214DD185B99185C9928B81E85EB51B8AE3F2E07A17AD46E2B8FC02B5E8DC0F42B1CFD028000000C1008070000C3001FDFF8000000C1003FBFF000000182007F7FE00000030400FEFFC00000060801FDFF8000000C1003FBFF00000018200000000000000681FA0B0000001820100E000186003FBFF000000182007F7FE000
310
00030400FEFFC00000060801FDFF8000000C1003FBFF000000182007F7FE000000304000AD7A3703D0AC73F4160000003040201C00030C007F7FE00000030400FEFFC00000060801FDFF8000000C1003FBFF000000182007F7FE00000030400FEFFC000000608000
340
11
340
11
340
11
 94
        0
  0
XRECORD
  5
411A
102
{ACAD_REACTORS
330
4119
102
}
330
4119
100
AcDbXrecord
340
691
  0
XRECORD
  5
411B
102
{ACAD_REACTORS
330
4119
102
}
330
4119
100
AcDbXrecord
340
690
  0
DICTIONARYVAR
  5
A9E
102
{ACAD_REACTORS
330
A9D
102
}
330
A9D
100
DictionaryVariables
280
     0
  1
STANDARD
  0
DICTIONARYVAR
  5
A9F
102
{ACAD_REACTORS
330
A9D
102
}
330
A9D
100
DictionaryVariables
280
     0
  1
2
  0
XRECORD
  5
40FB
102
{ACAD_REACTORS
330
40F9
102
}
330
40F9
100
AcDbXrecord
280
     1
  0
DICTIONARY
  5
411C
330
1D
100
AcDbDictionary
280
     1
281
     1
  3
ACAD_XREC_ROUNDTRIP
360
411D
  0
DICTIONARY
  5
411E
330
21
100
AcDbDictionary
280
     1
281
     1
  3
ACAD_XREC_ROUNDTRIP
360
411F
  0
XRECORD
  5
411D
102
{ACAD_REACTORS
330
411C
102
}
330
411C
100
AcDbXrecord
102
SHADEPLOT
 70
     0
102
SHADEPLOTRESLEVEL
 70
     2
102
SHADEPLOTCUSTOMDPI
 70
   300
  0
XRECORD
  5
411F
102
{ACAD_REACTORS
330
411E
102
}
330
411E
100
AcDbXrecord
102
SHADEPLOT
 70
     0
102
SHADEPLOTRESLEVEL
 70
     2
102
SHADEPLOTCUSTOMDPI
 70
   300
  0
ENDSEC
  0
EOF
