  0
SECTION
  2
HEADER
  9
$ACADVER
  1
AC1015
  9
$ACADMAINTVER
 70
     6
  9
$DWGCODEPAGE
  3
ANSI_1252
  9
$INSBASE
 10
0.0
 20
0.0
 30
0.0
  9
$EXTMIN
 10
-7.237091902107086
 20
-0.0103553390593304
 30
0.0
  9
$EXTMAX
 10
7.237091902107101
 20
13.43219127590555
 30
0.0
  9
$LIMMIN
 10
0.0
 20
0.0
  9
$LIMMAX
 10
8.0
 20
10.5
  9
$ORTHOMODE
 70
     1
  9
$REGENMODE
 70
     1
  9
$FILLMODE
 70
     1
  9
$QTEXTMODE
 70
     0
  9
$MIRRTEXT
 70
     1
  9
$LTSCALE
 40
0.5
  9
$ATTMODE
 70
     1
  9
$TEXTSIZE
 40
0.09
  9
$TRACEWID
 40
0.05
  9
$TEXTSTYLE
  7
STANDARD
  9
$CLAYER
  8
0
  9
$CELTYPE
  6
ByLayer
  9
$CECOLOR
 62
   256
  9
$CELTSCALE
 40
1.0
  9
$DISPSILH
 70
     0
  9
$DIMSCALE
 40
1.000000000000049
  9
$DIMASZ
 40
0.25
  9
$DIMEXO
 40
0.062
  9
$DIMDLI
 40
0.375
  9
$DIMRND
 40
0.0
  9
$DIMDLE
 40
0.0
  9
$DIMEXE
 40
0.08
  9
$DIMTP
 40
0.0
  9
$DIMTM
 40
0.0
  9
$DIMTXT
 40
0.1525
  9
$DIMCEN
 40
0.0
  9
$DIMTSZ
 40
0.0
  9
$DIMTOL
 70
     0
  9
$DIMLIM
 70
     0
  9
$DIMTIH
 70
     1
  9
$DIMTOH
 70
     1
  9
$DIMSE1
 70
     0
  9
$DIMSE2
 70
     0
  9
$DIMTAD
 70
     0
  9
$DIMZIN
 70
     0
  9
$DIMBLK
  1

  9
$DIMASO
 70
     0
  9
$DIMSHO
 70
     0
  9
$DIMPOST
  1

  9
$DIMAPOST
  1

  9
$DIMALT
 70
     0
  9
$DIMALTD
 70
     2
  9
$DIMALTF
 40
25.4
  9
$DIMLFAC
 40
1.0
  9
$DIMTOFL
 70
     0
  9
$DIMTVP
 40
0.0
  9
$DIMTIX
 70
     0
  9
$DIMSOXD
 70
     0
  9
$DIMSAH
 70
     0
  9
$DIMBLK1
  1

  9
$DIMBLK2
  1

  9
$DIMSTYLE
  2
Standard
  9
$DIMCLRD
 70
     0
  9
$DIMCLRE
 70
     0
  9
$DIMCLRT
 70
     0
  9
$DIMTFAC
 40
1.0
  9
$DIMGAP
 40
0.09
  9
$DIMJUST
 70
     0
  9
$DIMSD1
 70
     0
  9
$DIMSD2
 70
     0
  9
$DIMTOLJ
 70
     1
  9
$DIMTZIN
 70
     0
  9
$DIMALTZ
 70
     0
  9
$DIMALTTZ
 70
     0
  9
$DIMUPT
 70
     0
  9
$DIMDEC
 70
     5
  9
$DIMTDEC
 70
     5
  9
$DIMALTU
 70
     5
  9
$DIMALTTD
 70
     2
  9
$DIMTXSTY
  7
STANDARD
  9
$DIMAUNIT
 70
     0
  9
$DIMADEC
 70
     0
  9
$DIMALTRND
 40
0.0
  9
$DIMAZIN
 70
     0
  9
$DIMDSEP
 70
    46
  9
$DIMATFIT
 70
     3
  9
$DIMFRAC
 70
     2
  9
$DIMLDRBLK
  1

  9
$DIMLUNIT
 70
     5
  9
$DIMLWD
 70
    -2
  9
$DIMLWE
 70
    -2
  9
$DIMTMOVE
 70
     2
  9
$LUNITS
 70
     5
  9
$LUPREC
 70
     4
  9
$SKETCHINC
 40
0.1
  9
$FILLETRAD
 40
0.0
  9
$AUNITS
 70
     0
  9
$AUPREC
 70
     0
  9
$MENU
  1
acad
  9
$ELEVATION
 40
0.0
  9
$PELEVATION
 40
0.0
  9
$THICKNESS
 40
0.0
  9
$LIMCHECK
 70
     0
  9
$CHAMFERA
 40
0.0
  9
$CHAMFERB
 40
0.0
  9
$CHAMFERC
 40
0.0
  9
$CHAMFERD
 40
0.0
  9
$SKPOLY
 70
     0
  9
$TDCREATE
 40
2447146.945318287
  9
$TDUCREATE
 40
2447147.27865162
  9
$TDUPDATE
 40
2454903.964121748
  9
$TDUUPDATE
 40
2454904.297455081
  9
$TDINDWG
 40
0.5153925
  9
$TDUSRTIMER
 40
0.5153925
  9
$USRTIMER
 70
     1
  9
$ANGBASE
 50
0.0
  9
$ANGDIR
 70
     0
  9
$PDMODE
 70
     0
  9
$PDSIZE
 40
0.0
  9
$PLINEWID
 40
0.0
  9
$SPLFRAME
 70
     0
  9
$SPLINETYPE
 70
     6
  9
$SPLINESEGS
 70
     8
  9
$HANDSEED
  5
4120
  9
$SURFTAB1
 70
     6
  9
$SURFTAB2
 70
     6
  9
$SURFTYPE
 70
     6
  9
$SURFU
 70
     6
  9
$SURFV
 70
     6
  9
$UCSBASE
  2

  9
$UCSNAME
  2

  9
$UCSORG
 10
0.0
 20
0.0
 30
0.0
  9
$UCSXDIR
 10
1.0
 20
0.0
 30
0.0
  9
$UCSYDIR
 10
0.0
 20
1.0
 30
0.0
  9
$UCSORTHOREF
  2

  9
$UCSORTHOVIEW
 70
     0
  9
$UCSORGTOP
 10
0.0
 20
0.0
 30
0.0
  9
$UCSORGBOTTOM
 10
0.0
 20
0.0
 30
0.0
  9
$UCSORGLEFT
 10
0.0
 20
0.0
 30
0.0
  9
$UCSORGRIGHT
 10
0.0
 20
0.0
 30
0.0
  9
$UCSORGFRONT
 10
0.0
 20
0.0
 30
0.0
  9
$UCSORGBACK
 10
0.0
 20
0.0
 30
0.0
  9
$PUCSBASE
  2

  9
$PUCSNAME
  2

  9
$PUCSORG
 10
0.0
 20
0.0
 30
0.0
  9
$PUCSXDIR
 10
1.0
 20
0.0
 30
0.0
  9
$PUCSYDIR
 10
0.0
 20
1.0
 30
0.0
  9
$PUCSORTHOREF
  2

  9
$PUCSORTHOVIEW
 70
     0
  9
$PUCSORGTOP
 10
0.0
 20
0.0
 30
0.0
  9
$PUCSORGBOTTOM
 10
0.0
 20
0.0
 30
0.0
  9
$PUCSORGLEFT
 10
0.0
 20
0.0
 30
0.0
  9
$PUCSORGRIGHT
 10
0.0
 20
0.0
 30
0.0
  9
$PUCSORGFRONT
 10
0.0
 20
0.0
 30
0.0
  9
$PUCSORGBACK
 10
0.0
 20
0.0
 30
0.0
  9
$USERI1
 70
     0
  9
$USERI2
 70
     0
  9
$USERI3
 70
     0
  9
$USERI4
 70
     0
  9
$USERI5
 70
     0
  9
$USERR1
 40
0.0
  9
$USERR2
 40
0.0
  9
$USERR3
 40
0.0
  9
$USERR4
 40
0.0
  9
$USERR5
 40
0.0
  9
$WORLDVIEW
 70
     1
  9
$SHADEDGE
 70
     3
  9
$SHADEDIF
 70
    70
  9
$TILEMODE
 70
     1
  9
$MAXACTVP
 70
    16
  9
$PINSBASE
 10
0.0
 20
0.0
 30
0.0
  9
$PLIMCHECK
 70
     0
  9
$PEXTMIN
 10
1.000000000000000E+20
 20
1.000000000000000E+20
 30
1.000000000000000E+20
  9
$PEXTMAX
 10
-1.000000000000000E+20
 20
-1.000000000000000E+20
 30
-1.000000000000000E+20
  9
$PLIMMIN
 10
0.0
 20
0.0
  9
$PLIMMAX
 10
12.0
 20
9.0
  9
$UNITMODE
 70
     0
  9
$VISRETAIN
 70
     0
  9
$PLINEGEN
 70
     1
  9
$PSLTSCALE
 70
     0
  9
$TREEDEPTH
 70
  3020
  9
$CMLSTYLE
  2
Standard
  9
$CMLJUST
 70
     0
  9
$CMLSCALE
 40
1.0
  9
$PROXYGRAPHICS
 70
     1
  9
$MEASUREMENT
 70
     0
  9
$CELWEIGHT
370
    -1
  9
$ENDCAPS
280
     0
  9
$JOINSTYLE
280
     0
  9
$LWDISPLAY
290
     0
  9
$INSUNITS
 70
     0
  9
$HYPERLINKBASE
  1

  9
$STYLESHEET
  1
monochrome.ctb
  9
$XEDIT
290
     1
  9
$CEPSNTYPE
380
     0
  9
$PSTYLEMODE
290
     1
  9
$FINGERPRINTGUID
  2
{4E0ABB9A-9863-42E8-B1DC-CC5425E26CAF}
  9
$VERSIONGUID
  2
{9F2293D3-0EB3-4B0A-9BC5-DA455B2E763B}
  9
$EXTNAMES
290
     1
  9
$PSVPSCALE
 40
0.0
  9
$OLESTARTUP
290
     0
  0
ENDSEC
  0
SECTION
  2
CLASSES
  0
CLASS
  1
ACDBDICTIONARYWDFLT
  2
AcDbDictionaryWithDefault
  3
AutoCAD 2000
 90
        0
280
     0
281
     0
  0
CLASS
  1
ACDBPLACEHOLDER
  2
AcDbPlaceHolder
  3
ObjectDBX Classes
 90
        0
280
     0
281
     0
  0
CLASS
  1
LAYOUT
  2
AcDbLayout
  3
ObjectDBX Classes
 90
        0
280
     0
281
     0
  0
CLASS
  1
LONG_TRANSACTION
  2
AcDbLongTransaction
  3
ObjectDBX Classes
 90
   -65536
280
     1
281
     0
  0
CLASS
  1
LWPOLYLINE
  2
AcDbPolyline
  3
AutoCAD 2000
 90
        0
280
     0
281
     1
  0
CLASS
  1
HATCH
  2
AcDbHatch
  3
AutoCAD 2000
 90
        0
280
     0
281
     1
  0
CLASS
  1
XRECORD
  2
AcDbXrecord
  3
AutoCAD 2000
 90
        0
280
     0
281
     0
  0
CLASS
  1
LONG_TRANSACTION
  2
AcDbLongTransaction
  3
ObjectDBX Classes
 90
   -65536
280
     1
281
     0
  0
CLASS
  1
LWPOLYLINE
  2
AcDbPolyline
  3
AutoCAD 2000
 90
        0
280
     0
281
     1
  0
CLASS
  1
HATCH
  2
AcDbHatch
  3
AutoCAD 2000
 90
        0
280
     0
281
     1
  0
CLASS
  1
XRECORD
  2
AcDbXrecord
  3
AutoCAD 2000
 90
        0
280
     0
281
     0
  0
CLASS
  1
LONG_TRANSACTION
  2
AcDbLongTransaction
  3
ObjectDBX Classes
 90
   -65536
280
     1
281
     0
  0
CLASS
  1
LWPOLYLINE
  2
AcDbPolyline
  3
AutoCAD 2000
 90
        0
280
     0
281
     1
  0
CLASS
  1
HATCH
  2
AcDbHatch
  3
AutoCAD 2000
 90
        0
280
     0
281
     1
  0
CLASS
  1
XRECORD
  2
AcDbXrecord
  3
AutoCAD 2000
 90
        0
280
     0
281
     0
  0
CLASS
  1
LONG_TRANSACTION
  2
AcDbLongTransaction
  3
ObjectDBX Classes
 90
   -65536
280
     1
281
     0
  0
CLASS
  1
LWPOLYLINE
  2
AcDbPolyline
  3
AutoCAD 2000
 90
        0
280
     0
281
     1
  0
CLASS
  1
HATCH
  2
AcDbHatch
  3
AutoCAD 2000
 90
        0
280
     0
281
     1
  0
CLASS
  1
XRECORD
  2
AcDbXrecord
  3
AutoCAD 2000
 90
        0
280
     0
281
     0
  0
CLASS
  1
TABLESTYLE
  2
AcDbTableStyle
  3
ObjectDBX Classes
 90
     2047
280
     1
281
     0
  0
CLASS
  1
DICTIONARYVAR
  2
AcDbDictionaryVar
  3
AutoCAD 2000
 90
        0
280
     0
281
     0
  0
CLASS
  1
SORTENTSTABLE
  2
AcDbSortentsTable
  3
AutoCAD 2000
 90
        0
280
     0
281
     0
  0
CLASS
  1
DIMASSOC
  2
AcDbDimAssoc
  3
"AcDbDimAssoc|Product Desc:     AcDim ARX App For Dimension|Company:          Autodesk, Inc.|WEB Address:      www.autodesk.com"
 90
        0
280
     0
281
     0
  0
ENDSEC
  0
SECTION
  2
TABLES
  0
TABLE
  2
VPORT
  5
8
330
0
100
AcDbSymbolTable
 70
     3
  0
VPORT
  5
4113
330
8
100
AcDbSymbolTableRecord
100
AcDbViewportTableRecord
  2
*Active
 70
     0
 10
0.0
 20
0.0
 11
1.0
 21
1.0
 12
3.282355222109297
 22
6.580899924812622
 13
0.0
 23
0.0
 14
0.0625
 24
0.0625
 15
0.25
 25
0.25
 16
0.0
 26
0.0
 36
1.0
 17
0.0
 27
0.0
 37
0.0
 40
17.15080165887003
 41
1.703065134099617
 42
50.0
 43
0.0
 44
0.0
 50
0.0
 51
0.0
 71
     0
 72
   100
 73
     1
 74
     0
 75
     0
 76
     0
 77
     0
 78
     0
281
     0
 65
     1
110
0.0
120
0.0
130
0.0
111
1.0
121
0.0
131
0.0
112
0.0
122
1.0
132
0.0
 79
     0
146
0.0
  0
ENDTAB
  0
TABLE
  2
LTYPE
  5
5
330
0
100
AcDbSymbolTable
 70
     3
  0
LTYPE
  5
13
330
5
100
AcDbSymbolTableRecord
100
AcDbLinetypeTableRecord
  2
ByBlock
 70
     0
  3

 72
    65
 73
     0
 40
0.0
  0
LTYPE
  5
14
330
5
100
AcDbSymbolTableRecord
100
AcDbLinetypeTableRecord
  2
ByLayer
 70
     0
  3

 72
    65
 73
     0
 40
0.0
  0
LTYPE
  5
15
330
5
100
AcDbSymbolTableRecord
100
AcDbLinetypeTableRecord
  2
CONTINUOUS
 70
     0
  3
Solid line
 72
    65
 73
     0
 40
0.0
  0
LTYPE
  5
BCB
330
5
100
AcDbSymbolTableRecord
100
AcDbLinetypeTableRecord
  2
THD
 70
     0
  3
_ _ _ _ _ _ _ _ _ _ _ _ _ _ _ _ _ _ _ _ _ _ _ _
 72
    65
 73
     2
 40
0.15
 49
0.11
 74
     0
 49
-0.04
 74
     0
  0
LTYPE
  5
2B2F
330
5
100
AcDbSymbolTableRecord
100
AcDbLinetypeTableRecord
  2
HIDDEN
 70
     0
  3
Hidden __ __ __ __ __ __ __ __ __ __ __ __ __ _
 72
    65
 73
     2
 40
0.375
 49
0.25
 74
     0
 49
-0.125
 74
     0
  0
ENDTAB
  0
TABLE
  2
LAYER
  5
2
102
{ACAD_XDICTIONARY
360
A01
102
}
330
0
100
AcDbSymbolTable
 70
     3
  0
LAYER
  5
10
330
2
100
AcDbSymbolTableRecord
100
AcDbLayerTableRecord
  2
0
 70
     0
 62
     7
  6
CONTINUOUS
370
    -3
390
F
  0
LAYER
  5
3F
330
2
100
AcDbSymbolTableRecord
100
AcDbLayerTableRecord
  2
DIM
 70
     0
 62
     5
  6
CONTINUOUS
370
    -3
390
F
  0
LAYER
  5
BCC
330
2
100
AcDbSymbolTableRecord
100
AcDbLayerTableRecord
  2
Defpoints
 70
     0
 62
     7
  6
CONTINUOUS
290
     0
370
    -3
390
F
  0
ENDTAB
  0
TABLE
  2
STYLE
  5
3
330
0
100
AcDbSymbolTable
 70
     1
  0
STYLE
  5
11
330
3
100
AcDbSymbolTableRecord
100
AcDbTextStyleTableRecord
  2
STANDARD
 70
     0
 40
0.0
 41
1.0
 50
0.0
 71
     0
 42
0.09
  3
TXT
  4

  0
ENDTAB
  0
TABLE
  2
VIEW
  5
6
330
0
100
AcDbSymbolTable
 70
     0
  0
ENDTAB
  0
TABLE
  2
UCS
  5
7
330
0
100
AcDbSymbolTable
 70
     0
  0
ENDTAB
  0
TABLE
  2
APPID
  5
9
330
0
100
AcDbSymbolTable
 70
     6
  0
APPID
  5
12
330
9
100
AcDbSymbolTableRecord
100
AcDbRegAppTableRecord
  2
ACAD
 70
     0
  0
APPID
  5
A00
330
9
100
AcDbSymbolTableRecord
100
AcDbRegAppTableRecord
  2
ACAD_PSEXT
 70
     0
  0
APPID
  5
A47
330
9
100
AcDbSymbolTableRecord
100
AcDbRegAppTableRecord
  2
CONTENTBLOCKICON
 70
     0
  0
APPID
  5
BD0
330
9
100
AcDbSymbolTableRecord
100
AcDbRegAppTableRecord
  2
AcAecLayerStandard
 70
     0
  0
APPID
  5
1B37
330
9
100
AcDbSymbolTableRecord
100
AcDbRegAppTableRecord
  2
ACAD_DSTYLE_DIMTEXT_FILL
 70
     0
  0
APPID
  5
40FA
330
9
100
AcDbSymbolTableRecord
100
AcDbRegAppTableRecord
  2
DCO15
 70
     0
  0
ENDTAB
  0
TABLE
  2
DIMSTYLE
  5
A
330
0
100
AcDbSymbolTable
 70
     1
100
AcDbDimStyleTable
  0
DIMSTYLE
105
4E4
330
A
100
AcDbSymbolTableRecord
100
AcDbDimStyleTableRecord
  2
Standard
 70
     0
  3

  4

340
11
  0
ENDTAB
  0
TABLE
  2
BLOCK_RECORD
  5
1
330
0
100
AcDbSymbolTable
 70
     0
  0
BLOCK_RECORD
  5
1E
102
{ACAD_XDICTIONARY
360
4EE
102
}
330
1
100
AcDbSymbolTableRecord
100
AcDbBlockTableRecord
  2
*Model_Space
340
21
  0
BLOCK_RECORD
  5
1A
330
1
100
AcDbSymbolTableRecord
100
AcDbBlockTableRecord
  2
*Paper_Space
340
1D
  0
ENDTAB
  0
ENDSEC
  0
SECTION
  2
BLOCKS
  0
BLOCK
  5
4D
330
1E
100
AcDbEntity
  8
0
100
AcDbBlockBegin
  2
*Model_Space
 70
     0
 10
0.0
 20
0.0
 30
0.0
  3
*Model_Space
  1

  4

  0
ENDBLK
  5
4E
330
1E
100
AcDbEntity
  8
0
100
AcDbBlockEnd
  0
BLOCK
  5
4B
330
1A
100
AcDbEntity
 67
     1
  8
0
100
AcDbBlockBegin
  2
*Paper_Space
 70
     0
 10
0.0
 20
0.0
 30
0.0
  3
*Paper_Space
  1

  4

  0
ENDBLK
  5
4C
330
1A
100
AcDbEntity
 67
     1
  8
0
100
AcDbBlockEnd
  0
ENDSEC
  0
SECTION
  2
ENTITIES
  0
TEXT
  5
4DD
330
1E
100
AcDbEntity
  8
DIM
100
AcDbText
 10
6.58
 20
1.875
 30
0.0
 40
0.09
  1
 
 72
     1
 11
6.625
 21
1.875
 31
0.0
100
AcDbText
  0
LINE
  5
279A
330
1E
100
AcDbEntity
  8
0
100
AcDbLine
 10
-0.7568194858332475
 20
1.565818809492654
 30
0.0
 11
-0.7568194858332475
 21
1.381612313067393
 31
0.0
  0
LINE
  5
279B
330
1E
100
AcDbEntity
  8
0
100
AcDbLine
 10
-0.7568194858332475
 20
1.118430176432582
 30
0.0
 11
-0.7568194858332618
 21
0.5066123130674143
 31
0.0
  0
LINE
  5
279C
330
1E
100
AcDbEntity
  8
0
100
AcDbLine
 10
-0.7568194858332475
 20
0.243387686932607
 30
0.0
 11
-0.7568194858332475
 21
0.0594675905035942
 31
0.0
  0
LINE
  5
279D
330
1E
100
AcDbEntity
  8
0
100
AcDbLine
 10
-1.622368731322347
 20
1.624999999999865
 30
0.0
 11
1.622368731322354
 21
1.625000000000043
 31
0.0
  0
LINE
  5
279E
330
1E
100
AcDbEntity
  8
0
100
AcDbLine
 10
0.7144151741800897
 20
0.0
 30
0.0
 11
-0.7144151741800897
 21
0.0
 31
0.0
  0
LINE
  5
279F
330
1E
100
AcDbEntity
  8
0
100
AcDbLine
 10
-0.825025390368225
 20
1.595803169565166
 30
0.0
 11
-0.8250253903681966
 21
1.422803648851907
 31
0.0
  0
LINE
  5
27A0
330
1E
100
AcDbEntity
  8
0
  6
THD
100
AcDbLine
 10
-0.8250253903682108
 20
1.077196351148057
 30
0.0
 11
-0.8250253903682108
 21
0.5478036488519358
 31
0.0
  0
LINE
  5
27A1
330
1E
100
AcDbEntity
  8
0
100
AcDbLine
 10
0.7568194858332404
 20
1.565818809492654
 30
0.0
 11
0.7568194858332333
 21
1.381612313067386
 31
0.0
  0
LINE
  5
27A2
330
1E
100
AcDbEntity
  8
0
100
AcDbLine
 10
0.7568194858332618
 20
1.118387686932582
 30
0.0
 11
0.7568194858332618
 21
0.5066123130674214
 31
0.0
  0
LINE
  5
27A3
330
1E
100
AcDbEntity
  8
0
100
AcDbLine
 10
0.7568194858332333
 20
0.2433876869326141
 30
0.0
 11
0.7568194858332475
 21
0.0594675905036013
 31
0.0
  0
LWPOLYLINE
  5
27A4
330
1E
100
AcDbEntity
  8
0
100
AcDbPolyline
 90
       10
 70
     0
 43
0.0
 10
-0.6714289316696949
 20
1.169957283631849
 10
-0.6494899141705588
 20
1.186354618399975
 10
-0.6339998419705637
 20
1.204147668299981
 10
-0.6242744457705527
 20
1.222488322399983
 10
-0.6196469720705551
 20
1.240842223499982
 10
-0.6196417111705586
 20
1.25915777649999
 10
-0.6242505408705625
 20
1.277491884199975
 10
-0.6339528129705627
 20
1.295826290299971
 10
-0.6494505022705681
 20
1.313651306499992
 10
-0.6711327940705587
 20
1.329863871099974
  0
LINE
  5
27B0
330
1E
100
AcDbEntity
  8
0
100
AcDbLine
 10
-0.8250253903682108
 20
1.422803648851911
 30
0.0
 11
-0.6711327940705587
 21
1.329863871099967
 31
0.0
  0
CIRCLE
  5
27B1
330
1E
100
AcDbEntity
  8
0
100
AcDbCircle
 10
0.0
 20
0.8124999999999929
 30
0.0
 40
0.5781250000000071
  0
CIRCLE
  5
27B2
330
1E
100
AcDbEntity
  8
0
  6
HIDDEN
 62
     8
100
AcDbCircle
 10
0.0
 20
0.8124999999999929
 30
0.0
 40
0.6281250000000072
  0
CIRCLE
  5
27B3
330
1E
100
AcDbEntity
  8
0
100
AcDbCircle
 10
0.0
 20
0.8124999999999929
 30
0.0
 40
0.4843750000000071
  0
CIRCLE
  5
27B4
330
1E
100
AcDbEntity
  8
0
  6
HIDDEN
 62
     8
100
AcDbCircle
 10
0.0
 20
0.8124999999999929
 30
0.0
 40
0.4343750000000071
  0
LINE
  5
27B5
330
1E
100
AcDbEntity
  8
0
100
AcDbLine
 10
-0.8250253903682108
 20
1.077196351148061
 30
0.0
 11
-0.6714289316694959
 21
1.169957283631998
 31
0.0
  0
LWPOLYLINE
  5
27B6
330
1E
100
AcDbEntity
  8
0
100
AcDbPolyline
 90
       10
 70
     0
 43
0.0
 10
-0.6714289316696949
 20
0.4550427163681512
 10
-0.6494899141705588
 20
0.4386453816000255
 10
-0.6339998419705637
 20
0.4208523317000186
 10
-0.6242744457705527
 20
0.4025116776000175
 10
-0.6196469720705551
 20
0.3841577765000181
 10
-0.6196417111705586
 20
0.3658422235000103
 10
-0.6242505408705625
 20
0.3475081158000251
 10
-0.6339528129705627
 20
0.3291737097000294
 10
-0.6494505022705681
 20
0.3113486935000083
 10
-0.6711327940705587
 20
0.2951361289000261
  0
LINE
  5
27C2
330
1E
100
AcDbEntity
  8
0
100
AcDbLine
 10
-0.8250253903682108
 20
0.2021963511480891
 30
0.0
 11
-0.6711327940705587
 21
0.2951361289000332
 31
0.0
  0
LINE
  5
27C3
330
1E
100
AcDbEntity
  8
0
100
AcDbLine
 10
-0.8250253903682108
 20
0.5478036488519393
 30
0.0
 11
-0.6714289316694959
 21
0.455042716368002
 31
0.0
  0
LWPOLYLINE
  5
27C4
330
1E
100
AcDbEntity
  8
0
100
AcDbPolyline
 90
       10
 70
     0
 43
0.0
 10
0.6714289316696949
 20
1.169957283631849
 10
0.6494899141705588
 20
1.186354618399975
 10
0.6339998419705637
 20
1.204147668299981
 10
0.6242744457705527
 20
1.222488322399983
 10
0.6196469720705551
 20
1.240842223499982
 10
0.6196417111705586
 20
1.25915777649999
 10
0.6242505408705625
 20
1.277491884199975
 10
0.6339528129705627
 20
1.295826290299971
 10
0.6494505022705681
 20
1.313651306499992
 10
0.6711327940705587
 20
1.329863871099974
  0
LINE
  5
27D0
330
1E
100
AcDbEntity
  8
0
100
AcDbLine
 10
0.8250253903682108
 20
1.422803648851911
 30
0.0
 11
0.6711327940705587
 21
1.329863871099967
 31
0.0
  0
LINE
  5
27D1
330
1E
100
AcDbEntity
  8
0
100
AcDbLine
 10
0.8250253903682108
 20
1.077196351148061
 30
0.0
 11
0.6714289316694959
 21
1.169957283631998
 31
0.0
  0
LWPOLYLINE
  5
27D2
330
1E
100
AcDbEntity
  8
0
100
AcDbPolyline
 90
       10
 70
     0
 43
0.0
 10
0.6714289316696949
 20
0.4550427163681512
 10
0.6494899141705588
 20
0.4386453816000255
 10
0.6339998419705637
 20
0.4208523317000186
 10
0.6242744457705527
 20
0.4025116776000175
 10
0.6196469720705551
 20
0.3841577765000181
 10
0.6196417111705586
 20
0.3658422235000103
 10
0.6242505408705625
 20
0.3475081158000251
 10
0.6339528129705627
 20
0.3291737097000294
 10
0.6494505022705681
 20
0.3113486935000083
 10
0.6711327940705587
 20
0.2951361289000261
  0
LINE
  5
27DE
330
1E
100
AcDbEntity
  8
0
100
AcDbLine
 10
0.8250253903682108
 20
0.2021963511480891
 30
0.0
 11
0.6711327940705587
 21
0.2951361289000332
 31
0.0
  0
LINE
  5
27DF
330
1E
100
AcDbEntity
  8
0
100
AcDbLine
 10
0.8250253903682108
 20
0.5478036488519393
 30
0.0
 11
0.6714289316694959
 21
0.455042716368002
 31
0.0
  0
ARC
  5
27E0
330
1E
100
AcDbEntity
  8
0
100
AcDbCircle
 10
0.7769151741800897
 20
1.625
 30
0.0
 40
0.0625000000000013
100
AcDbArc
 50
180.0000000000065
 51
293.9999999999966
  0
LINE
  5
27E1
330
1E
100
AcDbEntity
  8
0
  6
THD
100
AcDbLine
 10
-0.8250253903681966
 20
0.2021963511480891
 30
0.0
 11
-0.8250253903681966
 21
0.1152931245985727
 31
0.0
  0
LINE
  5
27E2
330
1E
100
AcDbEntity
  8
0
100
AcDbLine
 10
-0.7514941339878547
 20
0.0570965911026704
 30
0.0
 11
-0.8084293180980993
 21
0.0824457682718709
 31
0.0
  0
ARC
  5
27E3
330
1E
100
AcDbEntity
  8
0
100
AcDbCircle
 10
-0.7769151741800897
 20
0.0000000000000036
 30
0.0
 40
0.0625000000000013
100
AcDbArc
 50
359.9999999999971
 51
65.99999999999672
  0
ARC
  5
27E4
330
1E
100
AcDbEntity
  8
0
100
AcDbCircle
 10
-0.7769151741800897
 20
1.625
 30
0.0
 40
0.0625000000000013
100
AcDbArc
 50
246.0000000000034
 51
359.9999999999935
  0
LINE
  5
27E5
330
1E
100
AcDbEntity
  8
0
100
AcDbLine
 10
-0.8023362143723318
 20
1.567903408897337
 30
0.0
 11
-0.8487693942019874
 21
1.624999999999993
 31
0.0
  0
LWPOLYLINE
  5
27E6
330
1E
100
AcDbEntity
  8
0
100
AcDbPolyline
 90
        7
 70
     0
 43
0.0
 10
-0.8655598700370177
 20
0.127105200960024
 42
-0.0575175993703072
 10
-0.8647202947823232
 20
0.1399485641479501
 42
-0.0575870569599245
 10
-0.8609798636835038
 20
0.1522477229168899
 42
-0.029957619768547
 10
-0.8560412467275498
 20
0.1619657900627729
 42
-0.1255978914420533
 10
-0.8541855434203214
 20
0.1638417792294291
 42
-0.2968910854495478
 10
-0.8507945372739627
 20
0.1637187763742567
 42
-0.1520637169863341
 10
-0.8469974418751534
 20
0.1587807518716176
  0
LINE
  5
27EF
330
1E
100
AcDbEntity
  8
0
100
AcDbLine
 10
-0.8084293180980993
 20
0.0824457682718673
 30
0.0
 11
-0.8469974418751676
 21
0.1587807518716176
 31
0.0
  0
LINE
  5
27F0
330
1E
100
AcDbEntity
  8
0
100
AcDbLine
 10
-0.8784226383518998
 20
0.1271052009611893
 30
0.0
 11
-1.622368731322354
 21
1.599541691111313
 31
0.0
  0
LINE
  5
27F1
330
1E
100
AcDbEntity
  8
0
100
AcDbLine
 10
-0.8250253903682037
 20
0.2021963511480891
 30
0.0
 11
-0.8250253903682037
 21
0.1152931245985869
 31
0.0
  0
LINE
  5
27F2
330
1E
100
AcDbEntity
  8
0
100
AcDbLine
 10
-0.8250253903682108
 20
0.5478036488519393
 30
0.0
 11
-0.855216388755224
 21
0.4667498554859861
 31
0.0
  0
LINE
  5
27F3
330
1E
100
AcDbEntity
  8
0
100
AcDbLine
 10
-0.8250253903682108
 20
0.2021963511480891
 30
0.0
 11
-0.8552910375633402
 21
0.2834505542186534
 31
0.0
  0
LWPOLYLINE
  5
27F4
330
1E
100
AcDbEntity
  8
0
100
AcDbPolyline
 90
       10
 70
     0
 43
0.0
 10
-0.8552910375633473
 20
0.2834505542186605
 10
-0.8636840281589073
 20
0.3113486935000083
 10
-0.8671702497068381
 20
0.3291737097000294
 10
-0.869352786045269
 20
0.3475081158000251
 10
-0.8703895471455709
 20
0.3658422235000103
 10
-0.8703883637005703
 20
0.3841577765000181
 10
-0.8693474086128106
 20
0.4025116776000175
 10
-0.8671596704837086
 20
0.4208523317000186
 10
-0.863675162410452
 20
0.4386453816000255
 10
-0.8552163887552311
 20
0.4667498554859613
  0
LINE
  5
2800
330
1E
100
AcDbEntity
  8
0
100
AcDbLine
 10
-0.8250253903682108
 20
1.077196351148061
 30
0.0
 11
-0.855216388755224
 21
1.158250144514014
 31
0.0
  0
LINE
  5
2801
330
1E
100
AcDbEntity
  8
0
100
AcDbLine
 10
-0.8250253903682108
 20
1.422803648851911
 30
0.0
 11
-0.8552910375633402
 21
1.341549445781347
 31
0.0
  0
LWPOLYLINE
  5
2802
330
1E
100
AcDbEntity
  8
0
100
AcDbPolyline
 90
       10
 70
     0
 43
0.0
 10
-0.8552910375633473
 20
1.34154944578134
 10
-0.8636840281589073
 20
1.313651306499992
 10
-0.8671702497068381
 20
1.295826290299971
 10
-0.869352786045269
 20
1.277491884199975
 10
-0.8703895471455709
 20
1.25915777649999
 10
-0.8703883637005703
 20
1.240842223499982
 10
-0.8693474086128106
 20
1.222488322399983
 10
-0.8671596704837086
 20
1.204147668299981
 10
-0.863675162410452
 20
1.186354618399975
 10
-0.8552163887552311
 20
1.158250144514039
  0
LINE
  5
280E
330
1E
100
AcDbEntity
  8
0
100
AcDbLine
 10
-0.8250253903682108
 20
1.077196351148057
 30
0.0
 11
-0.8250253903682108
 21
0.5478036488519358
 31
0.0
  0
LWPOLYLINE
  5
280F
330
1E
100
AcDbEntity
  8
0
  6
HIDDEN
 62
     8
100
AcDbPolyline
 90
       15
 70
     0
 43
0.0
 10
-1.225102746860976
 20
1.200688955437727
 42
-0.018035071427639
 10
-1.233159928122042
 20
1.224428396414488
 42
-0.0379130400581009
 10
-1.235711045969481
 20
1.236091351437459
 42
-0.0058818211515876
 10
-1.240645279109721
 20
1.274492423601068
 42
-0.0162635672703074
 10
-1.241813427149765
 20
1.288449007947911
 42
-0.0111005671671607
 10
-1.242672986182782
 20
1.318307734329132
 42
-0.0113995124974287
 10
-1.242201238968256
 20
1.347391848972531
 42
-0.0152478201964053
 10
-1.240716556951746
 20
1.368716698327525
 42
-0.0099469142382724
 10
-1.236797670538103
 20
1.401245521959744
 42
-0.02999897885399
 10
-1.233070576662364
 20
1.419653636266084
 42
-0.0272101831099775
 10
-1.226672964857336
 20
1.439343646502337
 42
-0.0867590676124281
 10
-1.220788900167271
 20
1.449123165269832
 42
-0.1161308313627551
 10
-1.213832444057417
 20
1.45414042179172
 42
-0.2860826769762104
 10
-1.206200334970767
 20
1.45288000903539
 42
-0.1837180095351791
 10
-1.200819330761455
 20
1.442705165011255
  0
LWPOLYLINE
  5
2820
330
1E
100
AcDbEntity
  8
0
100
AcDbPolyline
 90
       15
 70
     0
 43
0.0
 10
-1.218688259589555
 20
1.264617765514061
 42
-0.0180350714275692
 10
-1.22248881678815
 20
1.275815615031355
 42
-0.0379130400584535
 10
-1.22369217426337
 20
1.281317008910158
 42
-0.0058818211514426
 10
-1.226019642725738
 20
1.299430722194792
 42
-0.0162635672701967
 10
-1.22657065595218
 20
1.3060140166981
 42
-0.011100567167221
 10
-1.226976108326248
 20
1.320098321595005
 42
-0.0113995124973087
 10
-1.226753586055246
 20
1.333817243596499
 42
-0.0152478201969531
 10
-1.226053264349332
 20
1.343876134801725
 42
-0.0099469142385357
 10
-1.224204733022155
 20
1.359219919533857
 42
-0.0299989788537255
 10
-1.222446669873236
 20
1.36790299231982
 42
-0.0272101831100389
 10
-1.219428928455756
 20
1.377190732997338
 42
-0.086759067612196
 10
-1.216653426243461
 20
1.381803713548045
 42
-0.1161308313623365
 10
-1.213372079021831
 20
1.384170343982891
 42
-0.2860826769761382
 10
-1.209772027565855
 20
1.383575809663864
 42
-0.1837180095348567
 10
-1.207233818033174
 20
1.378776354935503
  0
LWPOLYLINE
  5
2831
330
1E
100
AcDbEntity
  8
0
  6
HIDDEN
 62
     8
100
AcDbPolyline
 90
       15
 70
     0
 43
0.0
 10
-0.8829502868623536
 20
0.9450000000000003
 42
-0.0405370935351734
 10
-0.8731382899292797
 20
0.9365384053720121
 42
-0.0943302861063379
 10
-0.8700179417557408
 20
0.9318783749980781
 42
-0.031757992413421
 10
-0.8636549269343945
 20
0.9138002063888635
 42
-0.0318454455680907
 10
-0.8596470062022092
 20
0.8951123987477949
 42
-0.0099222039215638
 10
-0.8554704239784812
 20
0.862597984348362
 42
-0.015735155153791
 10
-0.8538915711793393
 20
0.8419840237507188
 42
-0.0112440931446286
 10
-0.853228445121843
 20
0.8125000000013998
 42
-0.0112440931448709
 10
-0.8538915711792043
 20
0.7830159762519209
 42
-0.0157351551540767
 10
-0.8554704239783106
 20
0.7624020156537554
 42
-0.0099222039219898
 10
-0.8596470062018256
 20
0.7298876012543225
 42
-0.0318454455667088
 10
-0.8636549269338048
 20
0.7111997936134529
 42
-0.0317579924099331
 10
-0.8700179417551937
 20
0.6931216250030978
 42
-0.094330286101168
 10
-0.8731382899287041
 20
0.6884615946288548
 42
-0.0405370935331454
 10
-0.8829502868617425
 20
0.6799999999999997
  0
LWPOLYLINE
  5
2842
330
1E
100
AcDbEntity
  8
0
100
AcDbPolyline
 90
       15
 70
     0
 43
0.0
 10
-0.8829502868620267
 20
0.875
 42
-0.0405370935331752
 10
-0.8783219864219021
 20
0.8710086817792799
 42
-0.0943302861032188
 10
-0.8768501240758937
 20
0.8688105542443765
 42
-0.0317579924130988
 10
-0.8738487019903474
 20
0.8602831162211615
 42
-0.0318454455677783
 10
-0.8719581733430957
 20
0.8514681126168817
 42
-0.0099222039210161
 10
-0.8699880873884993
 20
0.8361311246926917
 42
-0.0157351551530716
 10
-0.8692433455021202
 20
0.8264075583729813
 42
-0.0112440931447211
 10
-0.8689305501919762
 20
0.8125000000003766
 42
-0.0112440931445583
 10
-0.8692433455020563
 20
0.7985924416282622
 42
-0.0157351551545523
 10
-0.8699880873884354
 20
0.7888688753084026
 42
-0.0099222039222747
 10
-0.871958173342918
 20
0.7735318873841131
 42
-0.0318454455659512
 10
-0.8738487019900632
 20
0.7647168837799327
 42
-0.0317579924093388
 10
-0.8768501240756308
 20
0.7561894457561778
 42
-0.0943302861023262
 10
-0.8783219864216321
 20
0.7539913182211571
 42
-0.040537093533443
 10
-0.8829502868617425
 20
0.75
  0
LINE
  5
285C
330
1E
100
AcDbEntity
  8
0
  6
HIDDEN
 62
     8
100
AcDbLine
 10
-0.8829502868617496
 20
0.9449999999999861
 30
0.0
 11
-0.9438271893998547
 21
0.9449999999999861
 31
0.0
  0
LINE
  5
285D
330
1E
100
AcDbEntity
  8
0
100
AcDbLine
 10
-0.8829502868617496
 20
0.875
 30
0.0
 11
-0.9471798221064987
 21
0.8749999999999929
 31
0.0
  0
LINE
  5
285E
330
1E
100
AcDbEntity
  8
0
100
AcDbLine
 10
-0.8829502868617496
 20
0.7499999999999787
 30
0.0
 11
-0.9531666662254921
 21
0.7499999999999787
 31
0.0
  0
LINE
  5
2868
330
1E
100
AcDbEntity
  8
0
  6
HIDDEN
 62
     8
100
AcDbLine
 10
-0.8829502868617496
 20
0.6799999999999926
 30
0.0
 11
-0.9565192989321147
 21
0.6799999999999855
 31
0.0
  0
LWPOLYLINE
  5
2869
330
1E
100
AcDbEntity
  8
0
100
AcDbPolyline
 90
        7
 70
     0
 43
0.0
 10
-0.9471798221064915
 20
0.8749999999999929
 42
-0.0497267153244134
 10
-0.9497476094316752
 20
0.8755271334767407
 42
-0.0862196217073106
 10
-0.9510995244307949
 20
0.8762204371144549
 42
-0.0280164461359681
 10
-0.9525771743432969
 20
0.8774698301112167
 42
-0.0161200224712917
 10
-0.9549426867519841
 20
0.8798579169898311
 42
-0.0489427978863901
 10
-0.956787692879324
 20
0.8822818612463621
 42
-0.0371420653183381
 10
-0.9586342636631358
 20
0.8858414105790402
  0
LINE
  5
2872
330
1E
100
AcDbEntity
  8
0
100
AcDbLine
 10
-0.9586342636631429
 20
0.8858414105790402
 30
0.0
 11
-1.207233818033174
 21
1.378776354935503
 31
0.0
  0
LWPOLYLINE
  5
2873
330
1E
100
AcDbEntity
  8
0
100
AcDbPolyline
 90
        7
 70
     0
 43
0.0
 10
-0.953166666225485
 20
0.7499999999999787
 42
-0.0497267153224686
 10
-0.9557344535507113
 20
0.7505271334767265
 42
-0.0862196217008608
 10
-0.9570863685497884
 20
0.7512204371144406
 42
-0.0280164461299223
 10
-0.9585640184622761
 20
0.7524698301111599
 42
-0.0161200224683299
 10
-0.9609295308709775
 20
0.7548579169898169
 42
-0.0489427978886949
 10
-0.962774536998289
 20
0.7572818612463337
 42
-0.0371420653207399
 10
-0.9646211077821292
 20
0.760841410579026
  0
LINE
  5
287C
330
1E
100
AcDbEntity
  8
0
100
AcDbLine
 10
-0.9646211077821292
 20
0.760841410579026
 30
0.0
 11
-1.218688259589818
 21
1.264617765514551
 31
0.0
  0
LINE
  5
287D
330
1E
100
AcDbEntity
  8
0
  6
HIDDEN
 62
     8
100
AcDbLine
 10
-0.9552816309564989
 20
0.9558414105790334
 30
0.0
 11
-1.200819330761462
 21
1.442705165011255
 31
0.0
  0
LINE
  5
287E
330
1E
100
AcDbEntity
  8
0
  6
HIDDEN
 62
     8
100
AcDbLine
 10
-0.9679737404887518
 20
0.6908414105790328
 30
0.0
 11
-1.225102746861545
 21
1.200688955438828
 31
0.0
  0
LINE
  5
287F
330
1E
100
AcDbEntity
  8
0
100
AcDbLine
 10
-0.0390173760463455
 20
1.694999999999993
 30
0.0
 11
-1.622368731322332
 21
1.695000000000004
 31
0.0
  0
LINE
  5
2880
330
1E
100
AcDbEntity
  8
0
100
AcDbLine
 10
-0.0390173760463455
 20
1.694999999999993
 30
0.0
 11
-0.0390173760463455
 21
1.624999999999993
 31
0.0
  0
LINE
  5
2881
330
1E
100
AcDbEntity
  8
0
100
AcDbLine
 10
-1.622368731322361
 20
1.695
 30
0.0
 11
-1.622368731322347
 21
1.599541691111334
 31
0.0
  0
LINE
  5
2882
330
1E
100
AcDbEntity
  8
0
100
AcDbLine
 10
-0.8655598700370177
 20
0.127105200960024
 30
0.0
 11
-1.622368731322986
 21
1.624999999999865
 31
0.0
  0
LINE
  5
2883
330
1E
100
AcDbEntity
  8
0
100
AcDbLine
 10
-0.8784226383518998
 20
0.1271052009611893
 30
0.0
 11
-0.8655598700370177
 21
0.127105200960024
 31
0.0
  0
LINE
  5
2884
330
1E
100
AcDbEntity
  8
0
100
AcDbLine
 10
-0.8084293180980993
 20
0.0824457682718673
 30
0.0
 11
-0.8609798636835038
 21
0.1522477229168899
 31
0.0
  0
LINE
  5
2885
330
1E
100
AcDbEntity
  8
0
100
AcDbLine
 10
0.8250253903682321
 20
1.595803169565166
 30
0.0
 11
0.8250253903682037
 21
1.422803648851907
 31
0.0
  0
LINE
  5
2886
330
1E
100
AcDbEntity
  8
0
100
AcDbLine
 10
0.8784226383519069
 20
0.1271052009611893
 30
0.0
 11
1.622368731322361
 21
1.599541691111348
 31
0.0
  0
LINE
  5
2887
330
1E
100
AcDbEntity
  8
0
100
AcDbLine
 10
0.8250253903682108
 20
0.2021963511480891
 30
0.0
 11
0.8250253903682108
 21
0.1152931245985869
 31
0.0
  0
LINE
  5
2888
330
1E
100
AcDbEntity
  8
0
100
AcDbLine
 10
0.8250253903682179
 20
0.5478036488519393
 30
0.0
 11
0.8552163887552311
 21
0.4667498554859861
 31
0.0
  0
LINE
  5
2889
330
1E
100
AcDbEntity
  8
0
100
AcDbLine
 10
0.8250253903682179
 20
0.2021963511480891
 30
0.0
 11
0.8552910375633473
 21
0.2834505542186534
 31
0.0
  0
LWPOLYLINE
  5
288A
330
1E
100
AcDbEntity
  8
0
100
AcDbPolyline
 90
       10
 70
     0
 43
0.0
 10
0.8552910375633545
 20
0.2834505542186605
 10
0.8636840281589144
 20
0.3113486935000083
 10
0.8671702497068452
 20
0.3291737097000294
 10
0.8693527860452761
 20
0.3475081158000251
 10
0.870389547145578
 20
0.3658422235000103
 10
0.8703883637005774
 20
0.3841577765000181
 10
0.8693474086128177
 20
0.4025116776000175
 10
0.8671596704837157
 20
0.4208523317000186
 10
0.8636751624104591
 20
0.4386453816000255
 10
0.8552163887552382
 20
0.4667498554859613
  0
LINE
  5
2896
330
1E
100
AcDbEntity
  8
0
100
AcDbLine
 10
0.8250253903682179
 20
1.077196351148061
 30
0.0
 11
0.8552163887552311
 21
1.158250144514014
 31
0.0
  0
LINE
  5
2897
330
1E
100
AcDbEntity
  8
0
100
AcDbLine
 10
0.8250253903682179
 20
1.422803648851911
 30
0.0
 11
0.8552910375633473
 21
1.341549445781347
 31
0.0
  0
LWPOLYLINE
  5
2898
330
1E
100
AcDbEntity
  8
0
100
AcDbPolyline
 90
       10
 70
     0
 43
0.0
 10
0.8552910375633545
 20
1.34154944578134
 10
0.8636840281589144
 20
1.313651306499992
 10
0.8671702497068452
 20
1.295826290299971
 10
0.8693527860452761
 20
1.277491884199975
 10
0.870389547145578
 20
1.25915777649999
 10
0.8703883637005774
 20
1.240842223499982
 10
0.8693474086128177
 20
1.222488322399983
 10
0.8671596704837157
 20
1.204147668299981
 10
0.8636751624104591
 20
1.186354618399975
 10
0.8552163887552382
 20
1.158250144514039
  0
LINE
  5
28A4
330
1E
100
AcDbEntity
  8
0
100
AcDbLine
 10
0.8250253903682179
 20
1.077196351148057
 30
0.0
 11
0.8250253903682179
 21
0.5478036488519358
 31
0.0
  0
LWPOLYLINE
  5
28A5
330
1E
100
AcDbEntity
  8
0
  6
HIDDEN
 62
     8
100
AcDbPolyline
 90
       15
 70
     0
 43
0.0
 10
1.225102746860983
 20
1.200688955437727
 42
0.018035071427639
 10
1.233159928122049
 20
1.224428396414488
 42
0.0379130400581009
 10
1.235711045969488
 20
1.236091351437459
 42
0.0058818211515876
 10
1.240645279109728
 20
1.274492423601068
 42
0.0162635672703074
 10
1.241813427149772
 20
1.288449007947911
 42
0.0111005671671607
 10
1.242672986182789
 20
1.318307734329132
 42
0.0113995124974287
 10
1.242201238968264
 20
1.347391848972531
 42
0.0152478201964053
 10
1.240716556951753
 20
1.368716698327525
 42
0.0099469142382724
 10
1.23679767053811
 20
1.401245521959744
 42
0.02999897885399
 10
1.233070576662371
 20
1.419653636266084
 42
0.0272101831099775
 10
1.226672964857343
 20
1.439343646502337
 42
0.0867590676124281
 10
1.220788900167278
 20
1.449123165269832
 42
0.1161308313627551
 10
1.213832444057424
 20
1.45414042179172
 42
0.2860826769762104
 10
1.206200334970774
 20
1.45288000903539
 42
0.1837180095351791
 10
1.200819330761462
 20
1.442705165011255
  0
LWPOLYLINE
  5
28B6
330
1E
100
AcDbEntity
  8
0
100
AcDbPolyline
 90
       15
 70
     0
 43
0.0
 10
1.218688259589563
 20
1.264617765514061
 42
0.0180350714275692
 10
1.222488816788157
 20
1.275815615031355
 42
0.0379130400584535
 10
1.223692174263377
 20
1.281317008910158
 42
0.0058818211514426
 10
1.226019642725746
 20
1.299430722194792
 42
0.0162635672701967
 10
1.226570655952187
 20
1.3060140166981
 42
0.011100567167221
 10
1.226976108326255
 20
1.320098321595005
 42
0.0113995124973087
 10
1.226753586055253
 20
1.333817243596499
 42
0.0152478201969531
 10
1.226053264349339
 20
1.343876134801725
 42
0.0099469142385357
 10
1.224204733022162
 20
1.359219919533857
 42
0.0299989788537255
 10
1.222446669873243
 20
1.36790299231982
 42
0.0272101831100389
 10
1.219428928455763
 20
1.377190732997338
 42
0.086759067612196
 10
1.216653426243468
 20
1.381803713548045
 42
0.1161308313623365
 10
1.213372079021838
 20
1.384170343982891
 42
0.2860826769761382
 10
1.209772027565862
 20
1.383575809663864
 42
0.1837180095348567
 10
1.207233818033181
 20
1.378776354935503
  0
LWPOLYLINE
  5
28C7
330
1E
100
AcDbEntity
  8
0
  6
HIDDEN
 62
     8
100
AcDbPolyline
 90
       15
 70
     0
 43
0.0
 10
0.8829502868623607
 20
0.9450000000000003
 42
0.0405370935351734
 10
0.8731382899292868
 20
0.9365384053720121
 42
0.0943302861063379
 10
0.8700179417557479
 20
0.9318783749980781
 42
0.031757992413421
 10
0.8636549269344016
 20
0.9138002063888635
 42
0.0318454455680907
 10
0.8596470062022164
 20
0.8951123987477949
 42
0.0099222039215638
 10
0.8554704239784883
 20
0.862597984348362
 42
0.015735155153791
 10
0.8538915711793464
 20
0.8419840237507188
 42
0.0112440931446286
 10
0.8532284451218501
 20
0.8125000000013998
 42
0.0112440931448709
 10
0.8538915711792114
 20
0.7830159762519209
 42
0.0157351551540767
 10
0.8554704239783177
 20
0.7624020156537554
 42
0.0099222039219898
 10
0.8596470062018327
 20
0.7298876012543225
 42
0.0318454455667088
 10
0.8636549269338119
 20
0.7111997936134529
 42
0.0317579924099331
 10
0.8700179417552008
 20
0.6931216250030978
 42
0.094330286101168
 10
0.8731382899287112
 20
0.6884615946288548
 42
0.0405370935331454
 10
0.8829502868617496
 20
0.6799999999999997
  0
LWPOLYLINE
  5
28D8
330
1E
100
AcDbEntity
  8
0
100
AcDbPolyline
 90
       15
 70
     0
 43
0.0
 10
0.8829502868620338
 20
0.875
 42
0.0405370935331752
 10
0.8783219864219092
 20
0.8710086817792799
 42
0.0943302861032188
 10
0.8768501240759008
 20
0.8688105542443765
 42
0.0317579924130988
 10
0.8738487019903545
 20
0.8602831162211615
 42
0.0318454455677783
 10
0.8719581733431028
 20
0.8514681126168817
 42
0.0099222039210161
 10
0.8699880873885064
 20
0.8361311246926917
 42
0.0157351551530716
 10
0.8692433455021273
 20
0.8264075583729813
 42
0.0112440931447211
 10
0.8689305501919833
 20
0.8125000000003766
 42
0.0112440931445583
 10
0.8692433455020634
 20
0.7985924416282622
 42
0.0157351551545523
 10
0.8699880873884425
 20
0.7888688753084026
 42
0.0099222039222747
 10
0.8719581733429251
 20
0.7735318873841131
 42
0.0318454455659512
 10
0.8738487019900703
 20
0.7647168837799327
 42
0.0317579924093388
 10
0.8768501240756379
 20
0.7561894457561778
 42
0.0943302861023262
 10
0.8783219864216392
 20
0.7539913182211571
 42
0.040537093533443
 10
0.8829502868617496
 20
0.75
  0
LINE
  5
28F2
330
1E
100
AcDbEntity
  8
0
  6
HIDDEN
 62
     8
100
AcDbLine
 10
0.8829502868617567
 20
0.9449999999999861
 30
0.0
 11
0.9438271893998618
 21
0.9449999999999861
 31
0.0
  0
LINE
  5
28F3
330
1E
100
AcDbEntity
  8
0
100
AcDbLine
 10
0.8829502868617567
 20
0.875
 30
0.0
 11
0.9471798221065058
 21
0.8749999999999929
 31
0.0
  0
LINE
  5
28F4
330
1E
100
AcDbEntity
  8
0
100
AcDbLine
 10
0.8829502868617567
 20
0.7499999999999787
 30
0.0
 11
0.9531666662254992
 21
0.7499999999999787
 31
0.0
  0
LINE
  5
28FE
330
1E
100
AcDbEntity
  8
0
  6
HIDDEN
 62
     8
100
AcDbLine
 10
0.8829502868617567
 20
0.6799999999999926
 30
0.0
 11
0.9565192989321218
 21
0.6799999999999855
 31
0.0
  0
LWPOLYLINE
  5
28FF
330
1E
100
AcDbEntity
  8
0
100
AcDbPolyline
 90
        7
 70
     0
 43
0.0
 10
0.9471798221064987
 20
0.8749999999999929
 42
0.0497267153244134
 10
0.9497476094316824
 20
0.8755271334767407
 42
0.0862196217073106
 10
0.951099524430802
 20
0.8762204371144549
 42
0.0280164461359681
 10
0.952577174343304
 20
0.8774698301112167
 42
0.0161200224712917
 10
0.9549426867519912
 20
0.8798579169898311
 42
0.0489427978863901
 10
0.9567876928793311
 20
0.8822818612463621
 42
0.0371420653183381
 10
0.9586342636631429
 20
0.8858414105790402
  0
LINE
  5
2908
330
1E
100
AcDbEntity
  8
0
100
AcDbLine
 10
0.95863426366315
 20
0.8858414105790402
 30
0.0
 11
1.207233818033181
 21
1.378776354935503
 31
0.0
  0
LWPOLYLINE
  5
2909
330
1E
100
AcDbEntity
  8
0
100
AcDbPolyline
 90
        7
 70
     0
 43
0.0
 10
0.9531666662254921
 20
0.7499999999999787
 42
0.0497267153224686
 10
0.9557344535507184
 20
0.7505271334767265
 42
0.0862196217008608
 10
0.9570863685497955
 20
0.7512204371144406
 42
0.0280164461299223
 10
0.9585640184622832
 20
0.7524698301111599
 42
0.0161200224683299
 10
0.9609295308709847
 20
0.7548579169898169
 42
0.0489427978886949
 10
0.9627745369982961
 20
0.7572818612463337
 42
0.0371420653207399
 10
0.9646211077821363
 20
0.760841410579026
  0
LINE
  5
2912
330
1E
100
AcDbEntity
  8
0
100
AcDbLine
 10
0.9646211077821363
 20
0.760841410579026
 30
0.0
 11
1.218688259589825
 21
1.264617765514551
 31
0.0
  0
LINE
  5
2913
330
1E
100
AcDbEntity
  8
0
  6
HIDDEN
 62
     8
100
AcDbLine
 10
0.955281630956506
 20
0.9558414105790334
 30
0.0
 11
1.200819330761469
 21
1.442705165011255
 31
0.0
  0
LINE
  5
2914
330
1E
100
AcDbEntity
  8
0
  6
HIDDEN
 62
     8
100
AcDbLine
 10
0.967973740488759
 20
0.6908414105790328
 30
0.0
 11
1.225102746861552
 21
1.200688955438828
 31
0.0
  0
LINE
  5
2915
330
1E
100
AcDbEntity
  8
0
100
AcDbLine
 10
0.0390173760463526
 20
1.694999999999993
 30
0.0
 11
1.622368731322339
 21
1.695000000000004
 31
0.0
  0
LINE
  5
2916
330
1E
100
AcDbEntity
  8
0
100
AcDbLine
 10
0.0390173760463526
 20
1.694999999999993
 30
0.0
 11
0.0390173760463526
 21
1.624999999999993
 31
0.0
  0
LINE
  5
2917
330
1E
100
AcDbEntity
  8
0
100
AcDbLine
 10
1.622368731322368
 20
1.695
 30
0.0
 11
1.622368731322354
 21
1.599541691111334
 31
0.0
  0
LINE
  5
2918
330
1E
100
AcDbEntity
  8
0
100
AcDbLine
 10
0.865559870037103
 20
0.1271052009615588
 30
0.0
 11
1.622368731322361
 21
1.625
 31
0.0
  0
LINE
  5
2919
330
1E
100
AcDbEntity
  8
0
100
AcDbLine
 10
0.8023362143723389
 20
1.567903408897337
 30
0.0
 11
0.8487693942019945
 21
1.624999999999993
 31
0.0
  0
LINE
  5
291A
330
1E
100
AcDbEntity
  8
0
100
AcDbLine
 10
0.7514941339878547
 20
0.0570965911026704
 30
0.0
 11
0.8084293180980993
 21
0.0824457682718709
 31
0.0
  0
ARC
  5
291B
330
1E
100
AcDbEntity
  8
0
100
AcDbCircle
 10
0.7769151741800897
 20
0.0000000000000036
 30
0.0
 40
0.0625000000000013
100
AcDbArc
 50
114.0000000000029
 51
180.0000000000028
  0
LWPOLYLINE
  5
291C
330
1E
100
AcDbEntity
  8
0
100
AcDbPolyline
 90
        7
 70
     0
 43
0.0
 10
0.8655598700370177
 20
0.127105200960024
 42
0.0575175993703072
 10
0.8647202947823232
 20
0.1399485641479501
 42
0.0575870569599245
 10
0.8609798636835038
 20
0.1522477229168899
 42
0.029957619768547
 10
0.8560412467275498
 20
0.1619657900627729
 42
0.1255978914420533
 10
0.8541855434203214
 20
0.1638417792294291
 42
0.2968910854495478
 10
0.8507945372739627
 20
0.1637187763742567
 42
0.1520637169863341
 10
0.8469974418751534
 20
0.1587807518716176
  0
LINE
  5
2925
330
1E
100
AcDbEntity
  8
0
100
AcDbLine
 10
0.8084293180980993
 20
0.0824457682718673
 30
0.0
 11
0.8469974418751676
 21
0.1587807518716176
 31
0.0
  0
LINE
  5
2926
330
1E
100
AcDbEntity
  8
0
100
AcDbLine
 10
0.8784226383518998
 20
0.1271052009611893
 30
0.0
 11
0.8655598700370177
 21
0.127105200960024
 31
0.0
  0
LINE
  5
2927
330
1E
100
AcDbEntity
  8
0
100
AcDbLine
 10
0.8084293180980993
 20
0.0824457682718673
 30
0.0
 11
0.8609798636835038
 21
0.1522477229168899
 31
0.0
  0
CIRCLE
  5
2928
330
1E
100
AcDbEntity
  8
0
100
AcDbCircle
 10
0.0
 20
0.8124999999999929
 30
0.0
 40
0.306
  0
MTEXT
  5
2BD0
330
1E
100
AcDbEntity
  8
DIM
100
AcDbMText
 10
-3.848081396644544
 20
13.70459965536297
 30
0.0
 40
0.0900000000000044
 41
0.0
 71
     1
 72
     1
  1
\A1;
 73
     1
 44
1.0
  0
MTEXT
  5
2BFD
330
1E
100
AcDbEntity
  8
DIM
100
AcDbMText
 10
-3.823247557340692
 20
13.59557087568753
 30
0.0
 40
0.0900000000000044
 41
0.0
 71
     1
 72
     1
  1
\A1;
 73
     1
 44
1.0
  0
MTEXT
  5
2C18
330
1E
100
AcDbEntity
  8
DIM
100
AcDbMText
 10
-4.189138738572949
 20
13.42149254388096
 30
0.0
 40
0.0900000000000044
 41
0.0
 71
     1
 72
     1
  1
\A1;
 73
     1
 44
1.0
  0
MTEXT
  5
2C1C
330
1E
100
AcDbEntity
  8
DIM
100
AcDbMText
 10
-8.70112019078316
 20
11.51986666581298
 30
0.0
 40
0.0900000000000044
 41
0.0
 71
     9
 72
     1
  1
\A1;
 73
     1
 44
1.0
  0
MTEXT
  5
3733
330
1E
100
AcDbEntity
  8
DIM
100
AcDbMText
 10
4.504680707690965
 20
16.87131632442495
 30
0.0
 40
0.1525000000000075
 41
0.0
 71
     9
 72
     1
  1
\A1;
 73
     1
 44
1.0
  0
ENDSEC
  0
SECTION
  2
OBJECTS
  0
DICTIONARY
  5
C
330
0
100
AcDbDictionary
281
     1
  3
ACAD_COLOR
350
691
  3
ACAD_GROUP
350
D
  3
ACAD_LAYOUT
350
19
  3
ACAD_MATERIAL
350
690
  3
ACAD_MLINESTYLE
350
16
  3
ACAD_PLOTSETTINGS
350
18
  3
ACAD_PLOTSTYLENAME
350
E
  3
ACAD_TABLESTYLE
350
692
  3
AcadDim
350
378E
  3
ACDBHEADERROUNDTRIPXREC
350
4119
  3
AcDbVariableDictionary
350
A9D
  3
ASE_INDEX_DICTIONARY
350
40F9
  0
DICTIONARY
  5
A01
330
2
100
AcDbDictionary
280
     1
281
     1
  3
ACAD_LAYERFILTERS
360
2B41
  3
ACAD_LAYERSTATES
360
A02
  3
ACLYDICTIONARY
360
2B40
  0
DICTIONARY
  5
4EE
330
1E
100
AcDbDictionary
280
     1
281
     1
  3
ACAD_SORTENTS
360
1BD2
  0
DICTIONARY
  5
691
102
{ACAD_REACTORS
330
C
102
}
330
C
100
AcDbDictionary
281
     1
  0
DICTIONARY
  5
D
102
{ACAD_REACTORS
330
C
102
}
330
C
100
AcDbDictionary
281
     1
  0
DICTIONARY
  5
19
102
{ACAD_REACTORS
330
C
102
}
330
C
100
AcDbDictionary
281
     1
  3
Layout1
350
1D
  3
Model
350
21
  0
DICTIONARY
  5
690
102
{ACAD_REACTORS
330
C
102
}
330
C
100
AcDbDictionary
281
     1
  0
DICTIONARY
  5
16
102
{ACAD_REACTORS
330
C
102
}
330
C
100
AcDbDictionary
281
     1
  3
Standard
350
17
  0
DICTIONARY
  5
18
102
{ACAD_REACTORS
330
C
102
}
330
C
100
AcDbDictionary
281
     1
  0
ACDBDICTIONARYWDFLT
  5
E
102
{ACAD_REACTORS
330
C
102
}
330
C
100
AcDbDictionary
281
     1
  3
Normal
350
F
100
AcDbDictionaryWithDefault
340
F
  0
DICTIONARY
  5
692
102
{ACAD_REACTORS
330
C
102
}
330
C
100
AcDbDictionary
281
     1
  3
Standard
350
693
  0
XRECORD
  5
378E
102
{ACAD_REACTORS
330
C
102
}
330
C
100
AcDbXrecord
280
     1
 90
   990106
  3

 60
     0
 61
     0
 62
     1
 63
     3
 64
     0
 65
     0
 66
     0
 67
     3
 68
     1
 69
     0
 70
     0
 71
     0
 72
     0
 40
0.0
170
     0
340
0
  0
DICTIONARY
  5
4119
102
{ACAD_REACTORS
330
C
102
}
330
C
100
AcDbDictionary
281
     1
  3
COLORDICT
350
411A
  3
MATERIALDICT
350
411B
  0
DICTIONARY
  5
A9D
102
{ACAD_REACTORS
330
C
102
}
330
C
100
AcDbDictionary
281
     1
  3
CTABLESTYLE
350
A9E
  3
DIMASSOC
350
A9F
  0
DICTIONARY
  5
40F9
102
{ACAD_REACTORS
330
C
102
}
330
C
100
AcDbDictionary
281
     1
  3
ASEBlockHierarchyIndexRecord
350
40FB
1001
DCO15
1040
1650279796.119
  0
DICTIONARY
  5
2B41
102
{ACAD_REACTORS
330
A01
102
}
330
A01
100
AcDbDictionary
281
     1
  0
DICTIONARY
  5
A02
102
{ACAD_REACTORS
330
A01
102
}
330
A01
100
AcDbDictionary
281
     1
  0
DICTIONARY
  5
2B40
102
{ACAD_REACTORS
330
A01
102
}
330
A01
100
AcDbDictionary
281
     1
1001
ACAD
1000
<All
  0
SORTENTSTABLE
  5
1BD2
102
{ACAD_REACTORS
330
4EE
102
}
330
4EE
100
AcDbSortentsTable
330
1E
331
0
  5
2766
331
2800
  5
2800
331
2872
  5
2872
331
27DF
  5
27DF
331
285D
  5
285D
331
27B6
  5
27B6
331
2831
  5
2831
331
279A
  5
279A
331
27B5
  5
27B5
331
27E0
  5
27E0
331
28B6
  5
28B6
331
27D0
  5
27D0
331
27B0
  5
27B0
331
27C4
  5
27C4
331
27B1
  5
27B1
331
2896
  5
2896
331
27D2
  5
27D2
331
2868
  5
2868
331
27D1
  5
27D1
331
27E3
  5
27E3
331
287F
  5
287F
331
2880
  5
2880
331
27EF
  5
27EF
331
2842
  5
2842
331
2883
  5
2883
331
2884
  5
2884
331
2926
  5
2926
331
2927
  5
2927
331
2928
  5
2928
331
285C
  5
285C
331
2897
  5
2897
331
2898
  5
2898
331
2882
  5
2882
331
2873
  5
2873
331
280F
  5
280F
331
287E
  5
287E
331
2801
  5
2801
331
27B2
  5
27B2
331
285E
  5
285E
331
28A4
  5
28A4
331
27C2
  5
27C2
331
279C
  5
279C
331
2886
  5
2886
331
2887
  5
2887
331
2885
  5
2885
331
28C7
  5
28C7
331
279D
  5
279D
331
2869
  5
2869
331
28D8
  5
28D8
331
2BD0
  5
2BD0
331
2BFD
  5
2BFD
331
2C18
  5
2C18
331
2C1C
  5
2C1C
331
3733
  5
3733
331
28A5
  5
28A5
331
27E5
  5
27E5
331
2881
  5
2881
331
2908
  5
2908
331
2909
  5
2909
331
27C3
  5
27C3
331
2925
  5
2925
331
2889
  5
2889
331
288A
  5
288A
331
27A0
  5
27A0
331
27A4
  5
27A4
331
279E
  5
279E
331
27DE
  5
27DE
331
2802
  5
2802
331
27A2
  5
27A2
331
27E4
  5
27E4
331
27F2
  5
27F2
331
27F3
  5
27F3
331
27F1
  5
27F1
331
27F0
  5
27F0
331
27A1
  5
27A1
331
27E1
  5
27E1
331
287C
  5
287C
331
27E2
  5
27E2
331
27A3
  5
27A3
331
2912
  5
2912
331
2913
  5
2913
331
2914
  5
2914
331
2915
  5
2915
331
287D
  5
287D
331
27E6
  5
27E6
331
2888
  5
2888
331
2820
  5
2820
331
4DD
  5
4DD
331
279B
  5
279B
331
27B4
  5
27B4
331
27B3
  5
27B3
331
280E
  5
280E
331
279F
  5
279F
331
27F4
  5
27F4
331
28F2
  5
28F2
331
291B
  5
291B
331
291C
  5
291C
331
28F3
  5
28F3
331
28F4
  5
28F4
331
28FE
  5
28FE
331
28FF
  5
28FF
331
2916
  5
2916
331
2917
  5
2917
331
2918
  5
2918
331
2919
  5
2919
331
291A
  5
291A
  0
LAYOUT
  5
1D
102
{ACAD_REACTORS
330
19
102
}
102
{ACAD_XDICTIONARY
360
411C
102
}
330
19
100
AcDbPlotSettings
  1

  2
Fax
  4

  6

 40
0.0
 41
0.0
 42
0.0
 43
0.0
 44
0.0
 45
0.0
 46
0.0
 47
0.0
 48
0.0
 49
0.0
140
0.0
141
0.0
142
1.0
143
1.0
 70
   688
 72
     0
 73
     0
 74
     5
  7
monochrome.ctb
 75
    16
147
1.0
148
0.0
149
0.0
100
AcDbLayout
  1
Layout1
 70
     0
 71
     1
 10
0.0
 20
0.0
 11
12.0
 21
9.0
 12
0.0
 22
0.0
 32
0.0
 14
1.000000000000000E+20
 24
1.000000000000000E+20
 34
1.000000000000000E+20
 15
-1.000000000000000E+20
 25
-1.000000000000000E+20
 35
-1.000000000000000E+20
146
0.0
 13
0.0
 23
0.0
 33
0.0
 16
1.0
 26
0.0
 36
0.0
 17
0.0
 27
1.0
 37
0.0
 76
     0
330
1A
  0
LAYOUT
  5
21
102
{ACAD_REACTORS
330
19
102
}
102
{ACAD_XDICTIONARY
360
411E
102
}
330
19
100
AcDbPlotSettings
  1

  2
HP LaserJet 2100 Series PS
  4
Letter
  6

 40
5.365749835968018
 41
5.408073902130127
 42
5.132904052734375
 43
5.090576171875
 44
215.8999938964844
 45
279.3999938964844
 46
0.0
 47
0.0
 48
0.0
 49
0.0
140
0.0
141
0.0
142
1.0
143
1.984053267717587
 70
 11952
 72
     0
 73
     2
 74
     1
  7
monochrome.ctb
 75
     0
147
0.5040187258431721
148
0.0241725331186814
149
0.6847921724481011
100
AcDbLayout
  1
Model
 70
     1
 71
     0
 10
0.0
 20
0.0
 11
12.0
 21
9.0
 12
0.0
 22
0.0
 32
0.0
 14
0.0
 24
0.0
 34
0.0
 15
0.0
 25
0.0
 35
0.0
146
0.0
 13
0.0
 23
0.0
 33
0.0
 16
1.0
 26
0.0
 36
0.0
 17
0.0
 27
1.0
 37
0.0
 76
     0
330
1E
1001
ACAD_PSEXT
1000
HP LaserJet 2100 Series PS
1000
HP LaserJet 2100 Series PS
1000
LPT1:
1000

1070
     0
  0
MLINESTYLE
  5
17
102
{ACAD_REACTORS
330
16
102
}
330
16
100
AcDbMlineStyle
  2
STANDARD
 70
     0
  3

 62
   256
 51
90.0
 52
90.0
 71
     2
 49
0.5
 62
   256
  6
BYLAYER
 49
-0.5
 62
   256
  6
BYLAYER
  0
ACDBPLACEHOLDER
  5
F
102
{ACAD_REACTORS
330
E
102
}
330
E
  0
ACAD_PROXY_OBJECT
  5
693
102
{ACAD_REACTORS
330
692
102
}
330
692
100
AcDbProxyObject
 90
      499
 91
      519
 95
   983063
 70
     0
 93
     1841
310
4214DD185B99185C9928B81E85EB51B8AE3F2E07A17AD46E2B8FC02B5E8DC0F42B1CFD028000000C1008070000C3001FDFF8000000C1003FBFF000000182007F7FE00000030400FEFFC00000060801FDFF8000000C1003FBFF00000018200000000000000681FA0B0000001820100E000186003FBFF000000182007F7FE000
310
00030400FEFFC00000060801FDFF8000000C1003FBFF000000182007F7FE000000304000AD7A3703D0AC73F4160000003040201C00030C007F7FE00000030400FEFFC00000060801FDFF8000000C1003FBFF000000182007F7FE00000030400FEFFC000000608000
340
11
340
11
340
11
 94
        0
  0
XRECORD
  5
411A
102
{ACAD_REACTORS
330
4119
102
}
330
4119
100
AcDbXrecord
340
691
  0
XRECORD
  5
411B
102
{ACAD_REACTORS
330
4119
102
}
330
4119
100
AcDbXrecord
340
690
  0
DICTIONARYVAR
  5
A9E
102
{ACAD_REACTORS
330
A9D
102
}
330
A9D
100
DictionaryVariables
280
     0
  1
STANDARD
  0
DICTIONARYVAR
  5
A9F
102
{ACAD_REACTORS
330
A9D
102
}
330
A9D
100
DictionaryVariables
280
     0
  1
2
  0
XRECORD
  5
40FB
102
{ACAD_REACTORS
330
40F9
102
}
330
40F9
100
AcDbXrecord
280
     1
  0
DICTIONARY
  5
411C
330
1D
100
AcDbDictionary
280
     1
281
     1
  3
ACAD_XREC_ROUNDTRIP
360
411D
  0
DICTIONARY
  5
411E
330
21
100
AcDbDictionary
280
     1
281
     1
  3
ACAD_XREC_ROUNDTRIP
360
411F
  0
XRECORD
  5
411D
102
{ACAD_REACTORS
330
411C
102
}
330
411C
100
AcDbXrecord
102
SHADEPLOT
 70
     0
102
SHADEPLOTRESLEVEL
 70
     2
102
SHADEPLOTCUSTOMDPI
 70
   300
  0
XRECORD
  5
411F
102
{ACAD_REACTORS
330
411E
102
}
330
411E
100
AcDbXrecord
102
SHADEPLOT
 70
     0
102
SHADEPLOTRESLEVEL
 70
     2
102
SHADEPLOTCUSTOMDPI
 70
   300
  0
ENDSEC
  0
EOF
