  0
SECTION
  2
HEADER
  9
$ACADVER
  1
AC1015
  9
$ACADMAINTVER
 70
     6
  9
$DWGCODEPAGE
  3
ANSI_1252
  9
$INSBASE
 10
0.0
 20
0.0
 30
0.0
  9
$EXTMIN
 10
-7.237091902107086
 20
-0.0250000000000004
 30
0.0
  9
$EXTMAX
 10
15.80974747361798
 20
20.975
 30
0.0
  9
$LIMMIN
 10
0.0
 20
0.0
  9
$LIMMAX
 10
8.0
 20
10.5
  9
$ORTHOMODE
 70
     1
  9
$REGENMODE
 70
     1
  9
$FILLMODE
 70
     1
  9
$QTEXTMODE
 70
     0
  9
$MIRRTEXT
 70
     1
  9
$LTSCALE
 40
0.5
  9
$ATTMODE
 70
     1
  9
$TEXTSIZE
 40
0.09
  9
$TRACEWID
 40
0.05
  9
$TEXTSTYLE
  7
STANDARD
  9
$CLAYER
  8
0
  9
$CELTYPE
  6
ByLayer
  9
$CECOLOR
 62
   256
  9
$CELTSCALE
 40
1.0
  9
$DISPSILH
 70
     0
  9
$DIMSCALE
 40
1.000000000000049
  9
$DIMASZ
 40
0.25
  9
$DIMEXO
 40
0.062
  9
$DIMDLI
 40
0.375
  9
$DIMRND
 40
0.0
  9
$DIMDLE
 40
0.0
  9
$DIMEXE
 40
0.08
  9
$DIMTP
 40
0.0
  9
$DIMTM
 40
0.0
  9
$DIMTXT
 40
0.1525
  9
$DIMCEN
 40
0.0
  9
$DIMTSZ
 40
0.0
  9
$DIMTOL
 70
     0
  9
$DIMLIM
 70
     0
  9
$DIMTIH
 70
     1
  9
$DIMTOH
 70
     1
  9
$DIMSE1
 70
     0
  9
$DIMSE2
 70
     0
  9
$DIMTAD
 70
     0
  9
$DIMZIN
 70
     0
  9
$DIMBLK
  1

  9
$DIMASO
 70
     0
  9
$DIMSHO
 70
     0
  9
$DIMPOST
  1

  9
$DIMAPOST
  1

  9
$DIMALT
 70
     0
  9
$DIMALTD
 70
     2
  9
$DIMALTF
 40
25.4
  9
$DIMLFAC
 40
1.0
  9
$DIMTOFL
 70
     0
  9
$DIMTVP
 40
0.0
  9
$DIMTIX
 70
     0
  9
$DIMSOXD
 70
     0
  9
$DIMSAH
 70
     0
  9
$DIMBLK1
  1

  9
$DIMBLK2
  1

  9
$DIMSTYLE
  2
Standard
  9
$DIMCLRD
 70
     0
  9
$DIMCLRE
 70
     0
  9
$DIMCLRT
 70
     0
  9
$DIMTFAC
 40
1.0
  9
$DIMGAP
 40
0.09
  9
$DIMJUST
 70
     0
  9
$DIMSD1
 70
     0
  9
$DIMSD2
 70
     0
  9
$DIMTOLJ
 70
     1
  9
$DIMTZIN
 70
     0
  9
$DIMALTZ
 70
     0
  9
$DIMALTTZ
 70
     0
  9
$DIMUPT
 70
     0
  9
$DIMDEC
 70
     5
  9
$DIMTDEC
 70
     5
  9
$DIMALTU
 70
     5
  9
$DIMALTTD
 70
     2
  9
$DIMTXSTY
  7
STANDARD
  9
$DIMAUNIT
 70
     0
  9
$DIMADEC
 70
     0
  9
$DIMALTRND
 40
0.0
  9
$DIMAZIN
 70
     0
  9
$DIMDSEP
 70
    46
  9
$DIMATFIT
 70
     3
  9
$DIMFRAC
 70
     2
  9
$DIMLDRBLK
  1

  9
$DIMLUNIT
 70
     5
  9
$DIMLWD
 70
    -2
  9
$DIMLWE
 70
    -2
  9
$DIMTMOVE
 70
     2
  9
$LUNITS
 70
     5
  9
$LUPREC
 70
     4
  9
$SKETCHINC
 40
0.1
  9
$FILLETRAD
 40
0.0
  9
$AUNITS
 70
     0
  9
$AUPREC
 70
     0
  9
$MENU
  1
acad
  9
$ELEVATION
 40
0.0
  9
$PELEVATION
 40
0.0
  9
$THICKNESS
 40
0.0
  9
$LIMCHECK
 70
     0
  9
$CHAMFERA
 40
0.0
  9
$CHAMFERB
 40
0.0
  9
$CHAMFERC
 40
0.0
  9
$CHAMFERD
 40
0.0
  9
$SKPOLY
 70
     0
  9
$TDCREATE
 40
2447146.945318287
  9
$TDUCREATE
 40
2447147.27865162
  9
$TDUPDATE
 40
2454903.963030741
  9
$TDUUPDATE
 40
2454904.296364074
  9
$TDINDWG
 40
0.5152123843
  9
$TDUSRTIMER
 40
0.5152123843
  9
$USRTIMER
 70
     1
  9
$ANGBASE
 50
0.0
  9
$ANGDIR
 70
     0
  9
$PDMODE
 70
     0
  9
$PDSIZE
 40
0.0
  9
$PLINEWID
 40
0.0
  9
$SPLFRAME
 70
     0
  9
$SPLINETYPE
 70
     6
  9
$SPLINESEGS
 70
     8
  9
$HANDSEED
  5
4111
  9
$SURFTAB1
 70
     6
  9
$SURFTAB2
 70
     6
  9
$SURFTYPE
 70
     6
  9
$SURFU
 70
     6
  9
$SURFV
 70
     6
  9
$UCSBASE
  2

  9
$UCSNAME
  2

  9
$UCSORG
 10
0.0
 20
0.0
 30
0.0
  9
$UCSXDIR
 10
1.0
 20
0.0
 30
0.0
  9
$UCSYDIR
 10
0.0
 20
1.0
 30
0.0
  9
$UCSORTHOREF
  2

  9
$UCSORTHOVIEW
 70
     0
  9
$UCSORGTOP
 10
0.0
 20
0.0
 30
0.0
  9
$UCSORGBOTTOM
 10
0.0
 20
0.0
 30
0.0
  9
$UCSORGLEFT
 10
0.0
 20
0.0
 30
0.0
  9
$UCSORGRIGHT
 10
0.0
 20
0.0
 30
0.0
  9
$UCSORGFRONT
 10
0.0
 20
0.0
 30
0.0
  9
$UCSORGBACK
 10
0.0
 20
0.0
 30
0.0
  9
$PUCSBASE
  2

  9
$PUCSNAME
  2

  9
$PUCSORG
 10
0.0
 20
0.0
 30
0.0
  9
$PUCSXDIR
 10
1.0
 20
0.0
 30
0.0
  9
$PUCSYDIR
 10
0.0
 20
1.0
 30
0.0
  9
$PUCSORTHOREF
  2

  9
$PUCSORTHOVIEW
 70
     0
  9
$PUCSORGTOP
 10
0.0
 20
0.0
 30
0.0
  9
$PUCSORGBOTTOM
 10
0.0
 20
0.0
 30
0.0
  9
$PUCSORGLEFT
 10
0.0
 20
0.0
 30
0.0
  9
$PUCSORGRIGHT
 10
0.0
 20
0.0
 30
0.0
  9
$PUCSORGFRONT
 10
0.0
 20
0.0
 30
0.0
  9
$PUCSORGBACK
 10
0.0
 20
0.0
 30
0.0
  9
$USERI1
 70
     0
  9
$USERI2
 70
     0
  9
$USERI3
 70
     0
  9
$USERI4
 70
     0
  9
$USERI5
 70
     0
  9
$USERR1
 40
0.0
  9
$USERR2
 40
0.0
  9
$USERR3
 40
0.0
  9
$USERR4
 40
0.0
  9
$USERR5
 40
0.0
  9
$WORLDVIEW
 70
     1
  9
$SHADEDGE
 70
     3
  9
$SHADEDIF
 70
    70
  9
$TILEMODE
 70
     1
  9
$MAXACTVP
 70
    16
  9
$PINSBASE
 10
0.0
 20
0.0
 30
0.0
  9
$PLIMCHECK
 70
     0
  9
$PEXTMIN
 10
1.000000000000000E+20
 20
1.000000000000000E+20
 30
1.000000000000000E+20
  9
$PEXTMAX
 10
-1.000000000000000E+20
 20
-1.000000000000000E+20
 30
-1.000000000000000E+20
  9
$PLIMMIN
 10
0.0
 20
0.0
  9
$PLIMMAX
 10
12.0
 20
9.0
  9
$UNITMODE
 70
     0
  9
$VISRETAIN
 70
     0
  9
$PLINEGEN
 70
     1
  9
$PSLTSCALE
 70
     0
  9
$TREEDEPTH
 70
  3020
  9
$CMLSTYLE
  2
Standard
  9
$CMLJUST
 70
     0
  9
$CMLSCALE
 40
1.0
  9
$PROXYGRAPHICS
 70
     1
  9
$MEASUREMENT
 70
     0
  9
$CELWEIGHT
370
    -1
  9
$ENDCAPS
280
     0
  9
$JOINSTYLE
280
     0
  9
$LWDISPLAY
290
     0
  9
$INSUNITS
 70
     0
  9
$HYPERLINKBASE
  1

  9
$STYLESHEET
  1
monochrome.ctb
  9
$XEDIT
290
     1
  9
$CEPSNTYPE
380
     0
  9
$PSTYLEMODE
290
     1
  9
$FINGERPRINTGUID
  2
{4E0ABB9A-9863-42E8-B1DC-CC5425E26CAF}
  9
$VERSIONGUID
  2
{46D08579-55C7-4723-8005-59A01D9EED38}
  9
$EXTNAMES
290
     1
  9
$PSVPSCALE
 40
0.0
  9
$OLESTARTUP
290
     0
  0
ENDSEC
  0
SECTION
  2
CLASSES
  0
CLASS
  1
ACDBDICTIONARYWDFLT
  2
AcDbDictionaryWithDefault
  3
AutoCAD 2000
 90
        0
280
     0
281
     0
  0
CLASS
  1
ACDBPLACEHOLDER
  2
AcDbPlaceHolder
  3
ObjectDBX Classes
 90
        0
280
     0
281
     0
  0
CLASS
  1
LAYOUT
  2
AcDbLayout
  3
ObjectDBX Classes
 90
        0
280
     0
281
     0
  0
CLASS
  1
LONG_TRANSACTION
  2
AcDbLongTransaction
  3
ObjectDBX Classes
 90
   -65536
280
     1
281
     0
  0
CLASS
  1
LWPOLYLINE
  2
AcDbPolyline
  3
AutoCAD 2000
 90
        0
280
     0
281
     1
  0
CLASS
  1
HATCH
  2
AcDbHatch
  3
AutoCAD 2000
 90
        0
280
     0
281
     1
  0
CLASS
  1
XRECORD
  2
AcDbXrecord
  3
AutoCAD 2000
 90
        0
280
     0
281
     0
  0
CLASS
  1
LONG_TRANSACTION
  2
AcDbLongTransaction
  3
ObjectDBX Classes
 90
   -65536
280
     1
281
     0
  0
CLASS
  1
LWPOLYLINE
  2
AcDbPolyline
  3
AutoCAD 2000
 90
        0
280
     0
281
     1
  0
CLASS
  1
HATCH
  2
AcDbHatch
  3
AutoCAD 2000
 90
        0
280
     0
281
     1
  0
CLASS
  1
XRECORD
  2
AcDbXrecord
  3
AutoCAD 2000
 90
        0
280
     0
281
     0
  0
CLASS
  1
LONG_TRANSACTION
  2
AcDbLongTransaction
  3
ObjectDBX Classes
 90
   -65536
280
     1
281
     0
  0
CLASS
  1
LWPOLYLINE
  2
AcDbPolyline
  3
AutoCAD 2000
 90
        0
280
     0
281
     1
  0
CLASS
  1
HATCH
  2
AcDbHatch
  3
AutoCAD 2000
 90
        0
280
     0
281
     1
  0
CLASS
  1
XRECORD
  2
AcDbXrecord
  3
AutoCAD 2000
 90
        0
280
     0
281
     0
  0
CLASS
  1
LONG_TRANSACTION
  2
AcDbLongTransaction
  3
ObjectDBX Classes
 90
   -65536
280
     1
281
     0
  0
CLASS
  1
LWPOLYLINE
  2
AcDbPolyline
  3
AutoCAD 2000
 90
        0
280
     0
281
     1
  0
CLASS
  1
HATCH
  2
AcDbHatch
  3
AutoCAD 2000
 90
        0
280
     0
281
     1
  0
CLASS
  1
XRECORD
  2
AcDbXrecord
  3
AutoCAD 2000
 90
        0
280
     0
281
     0
  0
CLASS
  1
TABLESTYLE
  2
AcDbTableStyle
  3
ObjectDBX Classes
 90
     2047
280
     1
281
     0
  0
CLASS
  1
DICTIONARYVAR
  2
AcDbDictionaryVar
  3
AutoCAD 2000
 90
        0
280
     0
281
     0
  0
CLASS
  1
SORTENTSTABLE
  2
AcDbSortentsTable
  3
AutoCAD 2000
 90
        0
280
     0
281
     0
  0
CLASS
  1
DIMASSOC
  2
AcDbDimAssoc
  3
"AcDbDimAssoc|Product Desc:     AcDim ARX App For Dimension|Company:          Autodesk, Inc.|WEB Address:      www.autodesk.com"
 90
        0
280
     0
281
     0
  0
ENDSEC
  0
SECTION
  2
TABLES
  0
TABLE
  2
VPORT
  5
8
330
0
100
AcDbSymbolTable
 70
     3
  0
VPORT
  5
4102
330
8
100
AcDbSymbolTableRecord
100
AcDbViewportTableRecord
  2
*Active
 70
     0
 10
0.0
 20
0.0
 11
1.0
 21
1.0
 12
3.282355222109297
 22
6.580899924812622
 13
0.0
 23
0.0
 14
0.0625
 24
0.0625
 15
0.25
 25
0.25
 16
0.0
 26
0.0
 36
1.0
 17
0.0
 27
0.0
 37
0.0
 40
17.15080165887003
 41
1.703065134099617
 42
50.0
 43
0.0
 44
0.0
 50
0.0
 51
0.0
 71
     0
 72
   100
 73
     1
 74
     0
 75
     0
 76
     0
 77
     0
 78
     0
281
     0
 65
     1
110
0.0
120
0.0
130
0.0
111
1.0
121
0.0
131
0.0
112
0.0
122
1.0
132
0.0
 79
     0
146
0.0
  0
ENDTAB
  0
TABLE
  2
LTYPE
  5
5
330
0
100
AcDbSymbolTable
 70
     4
  0
LTYPE
  5
13
330
5
100
AcDbSymbolTableRecord
100
AcDbLinetypeTableRecord
  2
ByBlock
 70
     0
  3

 72
    65
 73
     0
 40
0.0
  0
LTYPE
  5
14
330
5
100
AcDbSymbolTableRecord
100
AcDbLinetypeTableRecord
  2
ByLayer
 70
     0
  3

 72
    65
 73
     0
 40
0.0
  0
LTYPE
  5
15
330
5
100
AcDbSymbolTableRecord
100
AcDbLinetypeTableRecord
  2
CONTINUOUS
 70
     0
  3
Solid line
 72
    65
 73
     0
 40
0.0
  0
LTYPE
  5
BCB
330
5
100
AcDbSymbolTableRecord
100
AcDbLinetypeTableRecord
  2
THD
 70
     0
  3
_ _ _ _ _ _ _ _ _ _ _ _ _ _ _ _ _ _ _ _ _ _ _ _
 72
    65
 73
     2
 40
0.15
 49
0.11
 74
     0
 49
-0.04
 74
     0
  0
LTYPE
  5
2B2F
330
5
100
AcDbSymbolTableRecord
100
AcDbLinetypeTableRecord
  2
HIDDEN
 70
     0
  3
Hidden __ __ __ __ __ __ __ __ __ __ __ __ __ _
 72
    65
 73
     2
 40
0.375
 49
0.25
 74
     0
 49
-0.125
 74
     0
  0
ENDTAB
  0
TABLE
  2
LAYER
  5
2
102
{ACAD_XDICTIONARY
360
A01
102
}
330
0
100
AcDbSymbolTable
 70
    13
  0
LAYER
  5
10
330
2
100
AcDbSymbolTableRecord
100
AcDbLayerTableRecord
  2
0
 70
     0
 62
     7
  6
CONTINUOUS
370
    -3
390
F
  0
LAYER
  5
3F
330
2
100
AcDbSymbolTableRecord
100
AcDbLayerTableRecord
  2
DIM
 70
     0
 62
     5
  6
CONTINUOUS
370
    -3
390
F
  0
LAYER
  5
BCC
330
2
100
AcDbSymbolTableRecord
100
AcDbLayerTableRecord
  2
Defpoints
 70
     0
 62
     7
  6
CONTINUOUS
290
     0
370
    -3
390
F
  0
ENDTAB
  0
TABLE
  2
STYLE
  5
3
330
0
100
AcDbSymbolTable
 70
     3
  0
STYLE
  5
11
330
3
100
AcDbSymbolTableRecord
100
AcDbTextStyleTableRecord
  2
STANDARD
 70
     0
 40
0.0
 41
1.0
 50
0.0
 71
     0
 42
0.09
  3
TXT
  4

  0
ENDTAB
  0
TABLE
  2
VIEW
  5
6
330
0
100
AcDbSymbolTable
 70
     0
  0
ENDTAB
  0
TABLE
  2
UCS
  5
7
330
0
100
AcDbSymbolTable
 70
     0
  0
ENDTAB
  0
TABLE
  2
APPID
  5
9
330
0
100
AcDbSymbolTable
 70
     6
  0
APPID
  5
12
330
9
100
AcDbSymbolTableRecord
100
AcDbRegAppTableRecord
  2
ACAD
 70
     0
  0
APPID
  5
A00
330
9
100
AcDbSymbolTableRecord
100
AcDbRegAppTableRecord
  2
ACAD_PSEXT
 70
     0
  0
APPID
  5
A47
330
9
100
AcDbSymbolTableRecord
100
AcDbRegAppTableRecord
  2
CONTENTBLOCKICON
 70
     0
  0
APPID
  5
BD0
330
9
100
AcDbSymbolTableRecord
100
AcDbRegAppTableRecord
  2
AcAecLayerStandard
 70
     0
  0
APPID
  5
1B37
330
9
100
AcDbSymbolTableRecord
100
AcDbRegAppTableRecord
  2
ACAD_DSTYLE_DIMTEXT_FILL
 70
     0
  0
APPID
  5
40FA
330
9
100
AcDbSymbolTableRecord
100
AcDbRegAppTableRecord
  2
DCO15
 70
     0
  0
ENDTAB
  0
TABLE
  2
DIMSTYLE
  5
A
330
0
100
AcDbSymbolTable
 70
     1
100
AcDbDimStyleTable
  0
DIMSTYLE
105
4E4
330
A
100
AcDbSymbolTableRecord
100
AcDbDimStyleTableRecord
  2
Standard
 70
     0
  3

  4

340
11
  0
ENDTAB
  0
TABLE
  2
BLOCK_RECORD
  5
1
330
0
100
AcDbSymbolTable
 70
    30
  0
BLOCK_RECORD
  5
1E
102
{ACAD_XDICTIONARY
360
4EE
102
}
330
1
100
AcDbSymbolTableRecord
100
AcDbBlockTableRecord
  2
*Model_Space
340
21
  0
BLOCK_RECORD
  5
1A
330
1
100
AcDbSymbolTableRecord
100
AcDbBlockTableRecord
  2
*Paper_Space
340
1D
  0
ENDTAB
  0
ENDSEC
  0
SECTION
  2
BLOCKS
  0
BLOCK
  5
4D
330
1E
100
AcDbEntity
  8
0
100
AcDbBlockBegin
  2
*Model_Space
 70
     0
 10
0.0
 20
0.0
 30
0.0
  3
*Model_Space
  1

  4

  0
ENDBLK
  5
4E
330
1E
100
AcDbEntity
  8
0
100
AcDbBlockEnd
  0
BLOCK
  5
4B
330
1A
100
AcDbEntity
 67
     1
  8
0
100
AcDbBlockBegin
  2
*Paper_Space
 70
     0
 10
0.0
 20
0.0
 30
0.0
  3
*Paper_Space
  1

  4

  0
ENDBLK
  5
4C
330
1A
100
AcDbEntity
 67
     1
  8
0
100
AcDbBlockEnd
  0
ENDSEC
  0
SECTION
  2
ENTITIES
  0
TEXT
  5
4DD
330
1E
100
AcDbEntity
  8
DIM
100
AcDbText
 10
6.58
 20
1.875
 30
0.0
 40
0.09
  1
 
 72
     1
 11
6.625
 21
1.875
 31
0.0
100
AcDbText
  0
LINE
  5
2760
330
1E
100
AcDbEntity
  8
0
100
AcDbLine
 10
-1.622368731322347
 20
3.647926871059907
 30
0.0
 11
-0.8250253903681966
 21
0.1942534261959317
 31
0.0
  0
LINE
  5
2761
330
1E
100
AcDbEntity
  8
0
100
AcDbLine
 10
-0.7568194858332547
 20
0.1400000000000006
 30
0.0
 11
0.7568194858332475
 21
0.139999999999997
 31
0.0
  0
CIRCLE
  5
2762
330
1E
100
AcDbEntity
  8
0
100
AcDbCircle
 10
-0.9452673760463313
 20
5.563858384204075
 30
0.0
 40
0.1325
  0
CIRCLE
  5
2763
330
1E
100
AcDbEntity
  8
0
100
AcDbCircle
 10
-0.5702673760463313
 20
6.563858384204075
 30
0.0
 40
0.1325
  0
CIRCLE
  5
2764
330
1E
100
AcDbEntity
  8
0
100
AcDbCircle
 10
-0.4452673760463384
 20
4.188858384204075
 30
0.0
 40
0.1325
  0
LINE
  5
2765
330
1E
100
AcDbEntity
  8
0
100
AcDbLine
 10
-1.622368731322332
 20
6.36397904754266
 30
0.0
 11
-1.622368731322347
 21
3.336748067278968
 31
0.0
  0
LINE
  5
2766
330
1E
100
AcDbEntity
  8
0
100
AcDbLine
 10
-0.0390173760463313
 20
6.729524510851448
 30
0.0
 11
-0.0390173760463384
 21
4.01347233436878
 31
0.0
  0
LINE
  5
2767
330
1E
100
AcDbEntity
  8
0
100
AcDbLine
 10
-0.7417123671418011
 20
0.3984199959264068
 30
0.0
 11
-0.0390173760463384
 21
4.01347233436878
 31
0.0
  0
ARC
  5
2769
330
1E
100
AcDbEntity
  8
0
100
AcDbCircle
 10
-0.7536379293528341
 20
0.3370682969609362
 30
0.0
 40
0.0625000000000013
100
AcDbArc
 50
78.99999999999889
 51
169.0000000000032
  0
LINE
  5
276A
330
1E
100
AcDbEntity
  8
0
100
AcDbLine
 10
-0.8932312949031598
 20
0.1785068523918643
 30
0.0
 11
-1.622368731322347
 21
3.33674806727897
 31
0.0
  0
LINE
  5
276B
330
1E
100
AcDbEntity
  8
0
100
AcDbLine
 10
-0.7568194858332547
 20
0.0700000000000038
 30
0.0
 11
0.7568194858332618
 21
0.0700000000000003
 31
0.0
  0
ARC
  5
276C
330
1E
100
AcDbEntity
  8
0
100
AcDbCircle
 10
-0.7568194858332475
 20
0.2100000000000009
 30
0.0
 40
0.07
100
AcDbArc
 50
192.9999999999999
 51
270.0
  0
ARC
  5
276D
330
1E
100
AcDbEntity
  8
0
100
AcDbCircle
 10
-0.7568194858332475
 20
0.2100000000000009
 30
0.0
 40
0.14
100
AcDbArc
 50
192.9999999999999
 51
270.0
  0
CIRCLE
  5
276F
330
1E
100
AcDbEntity
  8
0
100
AcDbCircle
 10
-1.132767376046338
 20
3.188858384204075
 30
0.0
 40
0.1325
  0
LINE
  5
2770
330
1E
100
AcDbEntity
  8
0
100
AcDbLine
 10
1.622368731322361
 20
3.647926871059907
 30
0.0
 11
0.8250253903682108
 21
0.1942534261959246
 31
0.0
  0
ARC
  5
2771
330
1E
100
AcDbEntity
  8
0
100
AcDbCircle
 10
0.7568194858332475
 20
0.2099999999999973
 30
0.0
 40
0.07
100
AcDbArc
 50
269.9999999999996
 51
346.9999999999997
  0
CIRCLE
  5
2772
330
1E
100
AcDbEntity
  8
0
100
AcDbCircle
 10
0.9452673760463455
 20
5.563858384204075
 30
0.0
 40
0.1325
  0
CIRCLE
  5
2773
330
1E
100
AcDbEntity
  8
0
100
AcDbCircle
 10
0.5702673760463455
 20
6.563858384204075
 30
0.0
 40
0.1325
  0
CIRCLE
  5
2774
330
1E
100
AcDbEntity
  8
0
100
AcDbCircle
 10
0.4452673760463526
 20
4.188858384204075
 30
0.0
 40
0.1325
  0
LINE
  5
2775
330
1E
100
AcDbEntity
  8
0
100
AcDbLine
 10
1.622368731322347
 20
6.363979047542653
 30
0.0
 11
1.622368731322361
 21
3.336748067278958
 31
0.0
  0
LINE
  5
2776
330
1E
100
AcDbEntity
  8
0
100
AcDbLine
 10
0.0390173760463526
 20
6.729524510851448
 30
0.0
 11
0.0390173760463526
 21
4.01347233436878
 31
0.0
  0
LINE
  5
2777
330
1E
100
AcDbEntity
  8
0
100
AcDbLine
 10
0.7417123671418153
 20
0.3984199959264068
 30
0.0
 11
0.0390173760463526
 21
4.01347233436878
 31
0.0
  0
ARC
  5
2779
330
1E
100
AcDbEntity
  8
0
100
AcDbCircle
 10
0.7536379293528484
 20
0.3370682969609362
 30
0.0
 40
0.0625000000000013
100
AcDbArc
 50
10.99999999999677
 51
101.0000000000011
  0
LINE
  5
277A
330
1E
100
AcDbEntity
  8
0
100
AcDbLine
 10
0.893231294903174
 20
0.1785068523918643
 30
0.0
 11
1.622368731322361
 21
3.336748067278951
 31
0.0
  0
ARC
  5
277B
330
1E
100
AcDbEntity
  8
0
100
AcDbCircle
 10
0.7568194858332618
 20
0.2100000000000009
 30
0.0
 40
0.14
100
AcDbArc
 50
270.0
 51
346.9999999999999
  0
CIRCLE
  5
277C
330
1E
100
AcDbEntity
  8
0
100
AcDbCircle
 10
1.132767376046353
 20
3.188858384204075
 30
0.0
 40
0.1325
  0
LINE
  5
2785
330
1E
100
AcDbEntity
  8
0
100
AcDbLine
 10
-1.006499327617078
 20
0.3579457996387117
 30
0.0
 11
-1.396789406903693
 21
2.048477862041095
 31
0.0
  0
LINE
  5
2786
330
1E
100
AcDbEntity
  8
0
100
AcDbLine
 10
-0.5781250000000142
 20
0.0
 30
0.0
 11
0.5781250000000142
 21
0.0
 31
0.0
  0
ARC
  5
2787
330
1E
100
AcDbEntity
  8
0
100
AcDbCircle
 10
-1.328583502368687
 20
2.064224435845175
 30
0.0
 40
0.07
100
AcDbArc
 50
102.9999999999998
 51
193.0000000000002
  0
LINE
  5
2788
330
1E
100
AcDbEntity
  8
0
100
AcDbLine
 10
-0.6196443416205568
 20
0.1399999999999935
 30
0.0
 11
-0.8703889554230955
 21
0.3907446138026103
 31
0.0
  0
ARC
  5
2789
330
1E
100
AcDbEntity
  8
0
100
AcDbCircle
 10
-0.9382934230820936
 20
0.3736923734427862
 30
0.0
 40
0.07
100
AcDbArc
 50
192.9999999999978
 51
282.9999999999977
  0
LINE
  5
278A
330
1E
100
AcDbEntity
  8
0
100
AcDbLine
 10
0.6281250000000114
 20
0.0700000000000003
 30
0.0
 11
0.6281250000000114
 21
0.0499999999999972
 31
0.0
  0
ARC
  5
278B
330
1E
100
AcDbEntity
  8
0
100
AcDbCircle
 10
0.5781250000000142
 20
0.0499999999999972
 30
0.0
 40
0.05
100
AcDbArc
 50
270.0
 51
0.0000000000010178
  0
LINE
  5
278C
330
1E
100
AcDbEntity
  8
0
  6
HIDDEN
 62
     8
100
AcDbLine
 10
0.4343750000000028
 20
0.0700000000000003
 30
0.0
 11
0.4343750000000028
 21
0.0499999999999972
 31
0.0
  0
ARC
  5
278D
330
1E
100
AcDbEntity
  8
0
  6
HIDDEN
 62
     8
100
AcDbCircle
 10
0.484375
 20
0.0499999999999972
 30
0.0
 40
0.05
100
AcDbArc
 50
179.999999999999
 51
270.0
  0
LINE
  5
278E
330
1E
100
AcDbEntity
  8
0
100
AcDbLine
 10
-0.6281250000000114
 20
0.0700000000000003
 30
0.0
 11
-0.6281250000000114
 21
0.0499999999999972
 31
0.0
  0
ARC
  5
278F
330
1E
100
AcDbEntity
  8
0
100
AcDbCircle
 10
-0.5781250000000142
 20
0.0499999999999972
 30
0.0
 40
0.05
100
AcDbArc
 50
179.999999999999
 51
270.0
  0
LINE
  5
2790
330
1E
100
AcDbEntity
  8
0
  6
HIDDEN
 62
     8
100
AcDbLine
 10
-0.4343750000000028
 20
0.0700000000000003
 30
0.0
 11
-0.4343750000000028
 21
0.0499999999999972
 31
0.0
  0
ARC
  5
2791
330
1E
100
AcDbEntity
  8
0
  6
HIDDEN
 62
     8
100
AcDbCircle
 10
-0.484375
 20
0.0499999999999972
 30
0.0
 40
0.05
100
AcDbArc
 50
270.0
 51
0.0000000000010178
  0
LINE
  5
2792
330
1E
100
AcDbEntity
  8
0
100
AcDbLine
 10
-0.3428018481571939
 20
7.03330898296233
 30
0.0
 11
-1.136211951216765
 21
6.850135827648211
 31
0.0
  0
LINE
  5
2793
330
1E
100
AcDbEntity
  8
0
100
AcDbLine
 10
-1.136211951216765
 20
6.850135827648211
 30
0.0
 11
-1.622368731322332
 21
6.36397904754266
 31
0.0
  0
LINE
  5
2794
330
1E
100
AcDbEntity
  8
0
100
AcDbLine
 10
-0.0390173760463313
 20
6.729524510851448
 30
0.0
 11
-0.3428018481571939
 21
7.03330898296233
 31
0.0
  0
LINE
  5
2795
330
1E
100
AcDbEntity
  8
0
100
AcDbLine
 10
0.3428018481572011
 20
7.03330898296233
 30
0.0
 11
1.136211951216787
 21
6.850135827648209
 31
0.0
  0
LINE
  5
2796
330
1E
100
AcDbEntity
  8
0
100
AcDbLine
 10
1.136211951216787
 20
6.850135827648209
 30
0.0
 11
1.622368731322347
 21
6.363979047542653
 31
0.0
  0
LINE
  5
2797
330
1E
100
AcDbEntity
  8
0
100
AcDbLine
 10
0.0390173760463526
 20
6.729524510851448
 30
0.0
 11
0.3428018481572011
 21
7.03330898296233
 31
0.0
  0
LINE
  5
2799
330
1E
100
AcDbEntity
  8
0
100
AcDbLine
 10
0.6196443416205497
 20
0.1399999999999935
 30
0.0
 11
0.8703889554230884
 21
0.3907446138026103
 31
0.0
  0
LINE
  5
279A
330
1E
100
AcDbEntity
  8
0
100
AcDbLine
 10
-0.7568194858332404
 20
13.3030100853982
 30
0.0
 11
-0.7568194858332404
 21
13.11880358897293
 31
0.0
  0
LINE
  5
279B
330
1E
100
AcDbEntity
  8
0
100
AcDbLine
 10
-0.7568194858332404
 20
12.85562145233812
 30
0.0
 11
-0.7568194858332547
 21
12.24380358897296
 31
0.0
  0
LINE
  5
279C
330
1E
100
AcDbEntity
  8
0
100
AcDbLine
 10
-0.7568194858332404
 20
11.98057896283815
 30
0.0
 11
-0.7568194858332404
 21
11.79665886640914
 31
0.0
  0
LINE
  5
279D
330
1E
100
AcDbEntity
  8
0
100
AcDbLine
 10
-1.622368731322339
 20
13.36219127590541
 30
0.0
 11
1.622368731322361
 21
13.36219127590558
 31
0.0
  0
LINE
  5
279E
330
1E
100
AcDbEntity
  8
0
100
AcDbLine
 10
0.7144151741800968
 20
11.73719127590554
 30
0.0
 11
-0.7144151741800826
 21
11.73719127590554
 31
0.0
  0
LINE
  5
279F
330
1E
100
AcDbEntity
  8
0
100
AcDbLine
 10
-0.8250253903682179
 20
13.33299444547071
 30
0.0
 11
-0.8250253903681895
 21
13.15999492475745
 31
0.0
  0
LINE
  5
27A0
330
1E
100
AcDbEntity
  8
0
  6
THD
100
AcDbLine
 10
-0.8250253903682037
 20
12.8143876270536
 30
0.0
 11
-0.8250253903682037
 21
12.28499492475748
 31
0.0
  0
LINE
  5
27A1
330
1E
100
AcDbEntity
  8
0
100
AcDbLine
 10
0.7568194858332475
 20
13.3030100853982
 30
0.0
 11
0.7568194858332404
 21
13.11880358897293
 31
0.0
  0
LINE
  5
27A2
330
1E
100
AcDbEntity
  8
0
100
AcDbLine
 10
0.7568194858332689
 20
12.85557896283812
 30
0.0
 11
0.7568194858332689
 21
12.24380358897296
 31
0.0
  0
LINE
  5
27A3
330
1E
100
AcDbEntity
  8
0
100
AcDbLine
 10
0.7568194858332404
 20
11.98057896283816
 30
0.0
 11
0.7568194858332547
 21
11.79665886640914
 31
0.0
  0
LWPOLYLINE
  5
27A4
330
1E
100
AcDbEntity
  8
0
100
AcDbPolyline
 90
       10
 70
     0
 43
0.0
 10
-0.6714289316696878
 20
12.90714855953739
 10
-0.6494899141705517
 20
12.92354589430552
 10
-0.6339998419705566
 20
12.94133894420552
 10
-0.6242744457705456
 20
12.95967959830552
 10
-0.619646972070548
 20
12.97803349940552
 10
-0.6196417111705515
 20
12.99634905240553
 10
-0.6242505408705554
 20
13.01468316010552
 10
-0.6339528129705556
 20
13.03301756620551
 10
-0.649450502270561
 20
13.05084258240553
 10
-0.6711327940705516
 20
13.06705514700552
  0
LINE
  5
27B0
330
1E
100
AcDbEntity
  8
0
100
AcDbLine
 10
-0.8250253903682037
 20
13.15999492475745
 30
0.0
 11
-0.6711327940705516
 21
13.06705514700551
 31
0.0
  0
CIRCLE
  5
27B1
330
1E
100
AcDbEntity
  8
0
100
AcDbCircle
 10
0.0000000000000071
 20
12.54969127590553
 30
0.0
 40
0.5781250000000071
  0
CIRCLE
  5
27B2
330
1E
100
AcDbEntity
  8
0
  6
HIDDEN
 62
     8
100
AcDbCircle
 10
0.0000000000000071
 20
12.54969127590553
 30
0.0
 40
0.6281250000000072
  0
CIRCLE
  5
27B3
330
1E
100
AcDbEntity
  8
0
100
AcDbCircle
 10
0.0000000000000071
 20
12.54969127590553
 30
0.0
 40
0.4843750000000071
  0
CIRCLE
  5
27B4
330
1E
100
AcDbEntity
  8
0
  6
HIDDEN
 62
     8
100
AcDbCircle
 10
0.0000000000000071
 20
12.54969127590553
 30
0.0
 40
0.4343750000000071
  0
LINE
  5
27B5
330
1E
100
AcDbEntity
  8
0
100
AcDbLine
 10
-0.8250253903682037
 20
12.8143876270536
 30
0.0
 11
-0.6714289316694888
 21
12.90714855953754
 31
0.0
  0
LWPOLYLINE
  5
27B6
330
1E
100
AcDbEntity
  8
0
100
AcDbPolyline
 90
       10
 70
     0
 43
0.0
 10
-0.6714289316696878
 20
12.19223399227369
 10
-0.6494899141705517
 20
12.17583665750557
 10
-0.6339998419705566
 20
12.15804360760556
 10
-0.6242744457705456
 20
12.13970295350556
 10
-0.619646972070548
 20
12.12134905240556
 10
-0.6196417111705515
 20
12.10303349940555
 10
-0.6242505408705554
 20
12.08469939170557
 10
-0.6339528129705556
 20
12.06636498560557
 10
-0.649450502270561
 20
12.04853996940555
 10
-0.6711327940705516
 20
12.03232740480557
  0
LINE
  5
27C2
330
1E
100
AcDbEntity
  8
0
100
AcDbLine
 10
-0.8250253903682037
 20
11.93938762705363
 30
0.0
 11
-0.6711327940705516
 21
12.03232740480557
 31
0.0
  0
LINE
  5
27C3
330
1E
100
AcDbEntity
  8
0
100
AcDbLine
 10
-0.8250253903682037
 20
12.28499492475748
 30
0.0
 11
-0.6714289316694888
 21
12.19223399227354
 31
0.0
  0
LWPOLYLINE
  5
27C4
330
1E
100
AcDbEntity
  8
0
100
AcDbPolyline
 90
       10
 70
     0
 43
0.0
 10
0.671428931669702
 20
12.90714855953739
 10
0.6494899141705659
 20
12.92354589430552
 10
0.6339998419705708
 20
12.94133894420552
 10
0.6242744457705598
 20
12.95967959830552
 10
0.6196469720705622
 20
12.97803349940552
 10
0.6196417111705657
 20
12.99634905240553
 10
0.6242505408705696
 20
13.01468316010552
 10
0.6339528129705698
 20
13.03301756620551
 10
0.6494505022705752
 20
13.05084258240553
 10
0.6711327940705658
 20
13.06705514700552
  0
LINE
  5
27D0
330
1E
100
AcDbEntity
  8
0
100
AcDbLine
 10
0.8250253903682179
 20
13.15999492475745
 30
0.0
 11
0.6711327940705658
 21
13.06705514700551
 31
0.0
  0
LINE
  5
27D1
330
1E
100
AcDbEntity
  8
0
100
AcDbLine
 10
0.8250253903682179
 20
12.8143876270536
 30
0.0
 11
0.671428931669503
 21
12.90714855953754
 31
0.0
  0
LWPOLYLINE
  5
27D2
330
1E
100
AcDbEntity
  8
0
100
AcDbPolyline
 90
       10
 70
     0
 43
0.0
 10
0.671428931669702
 20
12.19223399227369
 10
0.6494899141705659
 20
12.17583665750557
 10
0.6339998419705708
 20
12.15804360760556
 10
0.6242744457705598
 20
12.13970295350556
 10
0.6196469720705622
 20
12.12134905240556
 10
0.6196417111705657
 20
12.10303349940555
 10
0.6242505408705696
 20
12.08469939170557
 10
0.6339528129705698
 20
12.06636498560557
 10
0.6494505022705752
 20
12.04853996940555
 10
0.6711327940705658
 20
12.03232740480557
  0
LINE
  5
27DE
330
1E
100
AcDbEntity
  8
0
100
AcDbLine
 10
0.8250253903682179
 20
11.93938762705363
 30
0.0
 11
0.6711327940705658
 21
12.03232740480557
 31
0.0
  0
LINE
  5
27DF
330
1E
100
AcDbEntity
  8
0
100
AcDbLine
 10
0.8250253903682179
 20
12.28499492475748
 30
0.0
 11
0.671428931669503
 21
12.19223399227354
 31
0.0
  0
ARC
  5
27E0
330
1E
100
AcDbEntity
  8
0
100
AcDbCircle
 10
0.7769151741800968
 20
13.36219127590554
 30
0.0
 40
0.0625000000000013
100
AcDbArc
 50
180.0000000000065
 51
293.9999999999966
  0
LINE
  5
27E1
330
1E
100
AcDbEntity
  8
0
  6
THD
100
AcDbLine
 10
-0.8250253903681895
 20
11.93938762705363
 30
0.0
 11
-0.8250253903681895
 21
11.85248440050411
 31
0.0
  0
LINE
  5
27E2
330
1E
100
AcDbEntity
  8
0
100
AcDbLine
 10
-0.7514941339878476
 20
11.79428786700821
 30
0.0
 11
-0.8084293180980922
 21
11.81963704417741
 31
0.0
  0
ARC
  5
27E3
330
1E
100
AcDbEntity
  8
0
100
AcDbCircle
 10
-0.7769151741800826
 20
11.73719127590555
 30
0.0
 40
0.0625000000000013
100
AcDbArc
 50
359.9999999999971
 51
65.99999999999672
  0
ARC
  5
27E4
330
1E
100
AcDbEntity
  8
0
100
AcDbCircle
 10
-0.7769151741800826
 20
13.36219127590554
 30
0.0
 40
0.0625000000000013
100
AcDbArc
 50
246.0000000000034
 51
359.9999999999935
  0
LINE
  5
27E5
330
1E
100
AcDbEntity
  8
0
100
AcDbLine
 10
-0.8023362143723247
 20
13.30509468480288
 30
0.0
 11
-0.8487693942019803
 21
13.36219127590553
 31
0.0
  0
LWPOLYLINE
  5
27E6
330
1E
100
AcDbEntity
  8
0
100
AcDbPolyline
 90
        7
 70
     0
 43
0.0
 10
-0.8655598700370106
 20
11.86429647686557
 42
-0.0575175993703072
 10
-0.8647202947823161
 20
11.87713984005349
 42
-0.0575870569599245
 10
-0.8609798636834967
 20
11.88943899882243
 42
-0.029957619768547
 10
-0.8560412467275427
 20
11.89915706596831
 42
-0.1255978914420533
 10
-0.8541855434203143
 20
11.90103305513497
 42
-0.2968910854495478
 10
-0.8507945372739556
 20
11.9009100522798
 42
-0.1520637169863341
 10
-0.8469974418751463
 20
11.89597202777716
  0
LINE
  5
27EF
330
1E
100
AcDbEntity
  8
0
100
AcDbLine
 10
-0.8084293180980922
 20
11.81963704417741
 30
0.0
 11
-0.8469974418751605
 21
11.89597202777716
 31
0.0
  0
LINE
  5
27F0
330
1E
100
AcDbEntity
  8
0
100
AcDbLine
 10
-0.8784226383518927
 20
11.86429647686673
 30
0.0
 11
-1.622368731322347
 21
13.33673296701685
 31
0.0
  0
LINE
  5
27F1
330
1E
100
AcDbEntity
  8
0
100
AcDbLine
 10
-0.8250253903681966
 20
11.93938762705363
 30
0.0
 11
-0.8250253903681966
 21
11.85248440050413
 31
0.0
  0
LINE
  5
27F2
330
1E
100
AcDbEntity
  8
0
100
AcDbLine
 10
-0.8250253903682037
 20
12.28499492475748
 30
0.0
 11
-0.8552163887552169
 21
12.20394113139153
 31
0.0
  0
LINE
  5
27F3
330
1E
100
AcDbEntity
  8
0
100
AcDbLine
 10
-0.8250253903682037
 20
11.93938762705363
 30
0.0
 11
-0.8552910375633331
 21
12.0206418301242
 31
0.0
  0
LWPOLYLINE
  5
27F4
330
1E
100
AcDbEntity
  8
0
100
AcDbPolyline
 90
       10
 70
     0
 43
0.0
 10
-0.8552910375633402
 20
12.0206418301242
 10
-0.8636840281589002
 20
12.04853996940555
 10
-0.867170249706831
 20
12.06636498560557
 10
-0.8693527860452619
 20
12.08469939170557
 10
-0.8703895471455638
 20
12.10303349940555
 10
-0.8703883637005632
 20
12.12134905240556
 10
-0.8693474086128035
 20
12.13970295350556
 10
-0.8671596704837015
 20
12.15804360760556
 10
-0.8636751624104448
 20
12.17583665750557
 10
-0.855216388755224
 20
12.2039411313915
  0
LINE
  5
2800
330
1E
100
AcDbEntity
  8
0
100
AcDbLine
 10
-0.8250253903682037
 20
12.8143876270536
 30
0.0
 11
-0.8552163887552169
 21
12.89544142041956
 31
0.0
  0
LINE
  5
2801
330
1E
100
AcDbEntity
  8
0
100
AcDbLine
 10
-0.8250253903682037
 20
13.15999492475745
 30
0.0
 11
-0.8552910375633331
 21
13.07874072168689
 31
0.0
  0
LWPOLYLINE
  5
2802
330
1E
100
AcDbEntity
  8
0
100
AcDbPolyline
 90
       10
 70
     0
 43
0.0
 10
-0.8552910375633402
 20
13.07874072168688
 10
-0.8636840281589002
 20
13.05084258240553
 10
-0.867170249706831
 20
13.03301756620551
 10
-0.8693527860452619
 20
13.01468316010552
 10
-0.8703895471455638
 20
12.99634905240553
 10
-0.8703883637005632
 20
12.97803349940552
 10
-0.8693474086128035
 20
12.95967959830552
 10
-0.8671596704837015
 20
12.94133894420552
 10
-0.8636751624104448
 20
12.92354589430552
 10
-0.855216388755224
 20
12.89544142041958
  0
LINE
  5
280E
330
1E
100
AcDbEntity
  8
0
100
AcDbLine
 10
-0.8250253903682037
 20
12.8143876270536
 30
0.0
 11
-0.8250253903682037
 21
12.28499492475748
 31
0.0
  0
LWPOLYLINE
  5
280F
330
1E
100
AcDbEntity
  8
0
  6
HIDDEN
 62
     8
100
AcDbPolyline
 90
       15
 70
     0
 43
0.0
 10
-1.225102746860969
 20
12.93788023134327
 42
-0.018035071427639
 10
-1.233159928122035
 20
12.96161967232003
 42
-0.0379130400581009
 10
-1.235711045969474
 20
12.973282627343
 42
-0.0058818211515876
 10
-1.240645279109714
 20
13.01168369950661
 42
-0.0162635672703074
 10
-1.241813427149758
 20
13.02564028385345
 42
-0.0111005671671607
 10
-1.242672986182775
 20
13.05549901023467
 42
-0.0113995124974287
 10
-1.242201238968249
 20
13.08458312487807
 42
-0.0152478201964053
 10
-1.240716556951739
 20
13.10590797423307
 42
-0.0099469142382724
 10
-1.236797670538095
 20
13.13843679786529
 42
-0.02999897885399
 10
-1.233070576662357
 20
13.15684491217163
 42
-0.0272101831099775
 10
-1.226672964857329
 20
13.17653492240788
 42
-0.0867590676124281
 10
-1.220788900167264
 20
13.18631444117537
 42
-0.1161308313627551
 10
-1.21383244405741
 20
13.19133169769726
 42
-0.2860826769762104
 10
-1.20620033497076
 20
13.19007128494093
 42
-0.1837180095351791
 10
-1.200819330761448
 20
13.1798964409168
  0
LWPOLYLINE
  5
2820
330
1E
100
AcDbEntity
  8
0
100
AcDbPolyline
 90
       15
 70
     0
 43
0.0
 10
-1.218688259589548
 20
13.0018090414196
 42
-0.0180350714275692
 10
-1.222488816788143
 20
13.0130068909369
 42
-0.0379130400584535
 10
-1.223692174263363
 20
13.0185082848157
 42
-0.0058818211514426
 10
-1.226019642725731
 20
13.03662199810033
 42
-0.0162635672701967
 10
-1.226570655952173
 20
13.04320529260364
 42
-0.011100567167221
 10
-1.226976108326241
 20
13.05728959750055
 42
-0.0113995124973087
 10
-1.226753586055239
 20
13.07100851950204
 42
-0.0152478201969531
 10
-1.226053264349325
 20
13.08106741070727
 42
-0.0099469142385357
 10
-1.224204733022148
 20
13.0964111954394
 42
-0.0299989788537255
 10
-1.222446669873229
 20
13.10509426822536
 42
-0.0272101831100389
 10
-1.219428928455749
 20
13.11438200890288
 42
-0.086759067612196
 10
-1.216653426243454
 20
13.11899498945359
 42
-0.1161308313623365
 10
-1.213372079021823
 20
13.12136161988843
 42
-0.2860826769761382
 10
-1.209772027565848
 20
13.12076708556941
 42
-0.1837180095348567
 10
-1.207233818033167
 20
13.11596763084105
  0
LWPOLYLINE
  5
2831
330
1E
100
AcDbEntity
  8
0
  6
HIDDEN
 62
     8
100
AcDbPolyline
 90
       15
 70
     0
 43
0.0
 10
-0.8829502868623465
 20
12.68219127590554
 42
-0.0405370935351734
 10
-0.8731382899292726
 20
12.67372968127755
 42
-0.0943302861063379
 10
-0.8700179417557337
 20
12.66906965090362
 42
-0.031757992413421
 10
-0.8636549269343874
 20
12.65099148229441
 42
-0.0318454455680907
 10
-0.8596470062022021
 20
12.63230367465334
 42
-0.0099222039215638
 10
-0.8554704239784741
 20
12.5997892602539
 42
-0.015735155153791
 10
-0.8538915711793322
 20
12.57917529965626
 42
-0.0112440931446286
 10
-0.8532284451218359
 20
12.54969127590694
 42
-0.0112440931448709
 10
-0.8538915711791972
 20
12.52020725215746
 42
-0.0157351551540767
 10
-0.8554704239783035
 20
12.4995932915593
 42
-0.0099222039219898
 10
-0.8596470062018184
 20
12.46707887715986
 42
-0.0318454455667088
 10
-0.8636549269337976
 20
12.44839106951899
 42
-0.0317579924099331
 10
-0.8700179417551865
 20
12.43031290090864
 42
-0.094330286101168
 10
-0.873138289928697
 20
12.4256528705344
 42
-0.0405370935331454
 10
-0.8829502868617354
 20
12.41719127590554
  0
LWPOLYLINE
  5
2842
330
1E
100
AcDbEntity
  8
0
100
AcDbPolyline
 90
       15
 70
     0
 43
0.0
 10
-0.8829502868620196
 20
12.61219127590554
 42
-0.0405370935331752
 10
-0.878321986421895
 20
12.60819995768482
 42
-0.0943302861032188
 10
-0.8768501240758866
 20
12.60600183014992
 42
-0.0317579924130988
 10
-0.8738487019903403
 20
12.5974743921267
 42
-0.0318454455677783
 10
-0.8719581733430886
 20
12.58865938852242
 42
-0.0099222039210161
 10
-0.8699880873884922
 20
12.57332240059823
 42
-0.0157351551530716
 10
-0.8692433455021131
 20
12.56359883427852
 42
-0.0112440931447211
 10
-0.8689305501919691
 20
12.54969127590592
 42
-0.0112440931445583
 10
-0.8692433455020492
 20
12.5357837175338
 42
-0.0157351551545523
 10
-0.8699880873884283
 20
12.52606015121394
 42
-0.0099222039222747
 10
-0.8719581733429109
 20
12.51072316328965
 42
-0.0318454455659512
 10
-0.873848701990056
 20
12.50190815968547
 42
-0.0317579924093388
 10
-0.8768501240756237
 20
12.49338072166172
 42
-0.0943302861023262
 10
-0.878321986421625
 20
12.4911825941267
 42
-0.040537093533443
 10
-0.8829502868617354
 20
12.48719127590554
  0
LINE
  5
285C
330
1E
100
AcDbEntity
  8
0
  6
HIDDEN
 62
     8
100
AcDbLine
 10
-0.8829502868617425
 20
12.68219127590553
 30
0.0
 11
-0.9438271893998476
 21
12.68219127590553
 31
0.0
  0
LINE
  5
285D
330
1E
100
AcDbEntity
  8
0
100
AcDbLine
 10
-0.8829502868617425
 20
12.61219127590554
 30
0.0
 11
-0.9471798221064915
 21
12.61219127590553
 31
0.0
  0
LINE
  5
285E
330
1E
100
AcDbEntity
  8
0
100
AcDbLine
 10
-0.8829502868617425
 20
12.48719127590552
 30
0.0
 11
-0.953166666225485
 21
12.48719127590552
 31
0.0
  0
LINE
  5
2868
330
1E
100
AcDbEntity
  8
0
  6
HIDDEN
 62
     8
100
AcDbLine
 10
-0.8829502868617425
 20
12.41719127590553
 30
0.0
 11
-0.9565192989321076
 21
12.41719127590553
 31
0.0
  0
LWPOLYLINE
  5
2869
330
1E
100
AcDbEntity
  8
0
100
AcDbPolyline
 90
        7
 70
     0
 43
0.0
 10
-0.9471798221064844
 20
12.61219127590553
 42
-0.0497267153244134
 10
-0.9497476094316681
 20
12.61271840938228
 42
-0.0862196217073106
 10
-0.9510995244307878
 20
12.61341171302
 42
-0.0280164461359681
 10
-0.9525771743432898
 20
12.61466110601676
 42
-0.0161200224712917
 10
-0.954942686751977
 20
12.61704919289537
 42
-0.0489427978863901
 10
-0.9567876928793169
 20
12.6194731371519
 42
-0.0371420653183381
 10
-0.9586342636631287
 20
12.62303268648458
  0
LINE
  5
2872
330
1E
100
AcDbEntity
  8
0
100
AcDbLine
 10
-0.9586342636631358
 20
12.62303268648458
 30
0.0
 11
-1.207233818033167
 21
13.11596763084105
 31
0.0
  0
LWPOLYLINE
  5
2873
330
1E
100
AcDbEntity
  8
0
100
AcDbPolyline
 90
        7
 70
     0
 43
0.0
 10
-0.9531666662254779
 20
12.48719127590552
 42
-0.0497267153224686
 10
-0.9557344535507042
 20
12.48771840938227
 42
-0.0862196217008608
 10
-0.9570863685497812
 20
12.48841171301998
 42
-0.0280164461299223
 10
-0.958564018462269
 20
12.4896611060167
 42
-0.0161200224683299
 10
-0.9609295308709704
 20
12.49204919289536
 42
-0.0489427978886949
 10
-0.9627745369982819
 20
12.49447313715188
 42
-0.0371420653207399
 10
-0.9646211077821221
 20
12.49803268648457
  0
LINE
  5
287C
330
1E
100
AcDbEntity
  8
0
100
AcDbLine
 10
-0.9646211077821221
 20
12.49803268648457
 30
0.0
 11
-1.218688259589811
 21
13.00180904142009
 31
0.0
  0
LINE
  5
287D
330
1E
100
AcDbEntity
  8
0
  6
HIDDEN
 62
     8
100
AcDbLine
 10
-0.9552816309564918
 20
12.69303268648458
 30
0.0
 11
-1.200819330761455
 21
13.1798964409168
 31
0.0
  0
LINE
  5
287E
330
1E
100
AcDbEntity
  8
0
  6
HIDDEN
 62
     8
100
AcDbLine
 10
-0.9679737404887447
 20
12.42803268648457
 30
0.0
 11
-1.225102746861538
 21
12.93788023134437
 31
0.0
  0
LINE
  5
287F
330
1E
100
AcDbEntity
  8
0
100
AcDbLine
 10
-0.0390173760463384
 20
13.43219127590553
 30
0.0
 11
-1.622368731322325
 21
13.43219127590555
 31
0.0
  0
LINE
  5
2880
330
1E
100
AcDbEntity
  8
0
100
AcDbLine
 10
-0.0390173760463384
 20
13.43219127590553
 30
0.0
 11
-0.0390173760463384
 21
13.36219127590553
 31
0.0
  0
LINE
  5
2881
330
1E
100
AcDbEntity
  8
0
100
AcDbLine
 10
-1.622368731322354
 20
13.43219127590554
 30
0.0
 11
-1.622368731322339
 21
13.33673296701688
 31
0.0
  0
LINE
  5
2882
330
1E
100
AcDbEntity
  8
0
100
AcDbLine
 10
-0.8655598700370106
 20
11.86429647686557
 30
0.0
 11
-1.622368731322979
 21
13.36219127590541
 31
0.0
  0
LINE
  5
2883
330
1E
100
AcDbEntity
  8
0
100
AcDbLine
 10
-0.8784226383518927
 20
11.86429647686673
 30
0.0
 11
-0.8655598700370106
 21
11.86429647686557
 31
0.0
  0
LINE
  5
2884
330
1E
100
AcDbEntity
  8
0
100
AcDbLine
 10
-0.8084293180980922
 20
11.81963704417741
 30
0.0
 11
-0.8609798636834967
 21
11.88943899882243
 31
0.0
  0
LINE
  5
2885
330
1E
100
AcDbEntity
  8
0
100
AcDbLine
 10
0.8250253903682392
 20
13.33299444547071
 30
0.0
 11
0.8250253903682108
 21
13.15999492475745
 31
0.0
  0
LINE
  5
2886
330
1E
100
AcDbEntity
  8
0
100
AcDbLine
 10
0.878422638351914
 20
11.86429647686673
 30
0.0
 11
1.622368731322368
 21
13.33673296701689
 31
0.0
  0
LINE
  5
2887
330
1E
100
AcDbEntity
  8
0
100
AcDbLine
 10
0.8250253903682179
 20
11.93938762705363
 30
0.0
 11
0.8250253903682179
 21
11.85248440050413
 31
0.0
  0
LINE
  5
2888
330
1E
100
AcDbEntity
  8
0
100
AcDbLine
 10
0.825025390368225
 20
12.28499492475748
 30
0.0
 11
0.8552163887552382
 21
12.20394113139153
 31
0.0
  0
LINE
  5
2889
330
1E
100
AcDbEntity
  8
0
100
AcDbLine
 10
0.825025390368225
 20
11.93938762705363
 30
0.0
 11
0.8552910375633545
 21
12.0206418301242
 31
0.0
  0
LWPOLYLINE
  5
288A
330
1E
100
AcDbEntity
  8
0
100
AcDbPolyline
 90
       10
 70
     0
 43
0.0
 10
0.8552910375633616
 20
12.0206418301242
 10
0.8636840281589215
 20
12.04853996940555
 10
0.8671702497068523
 20
12.06636498560557
 10
0.8693527860452832
 20
12.08469939170557
 10
0.8703895471455851
 20
12.10303349940555
 10
0.8703883637005845
 20
12.12134905240556
 10
0.8693474086128248
 20
12.13970295350556
 10
0.8671596704837228
 20
12.15804360760556
 10
0.8636751624104662
 20
12.17583665750557
 10
0.8552163887552453
 20
12.2039411313915
  0
LINE
  5
2896
330
1E
100
AcDbEntity
  8
0
100
AcDbLine
 10
0.825025390368225
 20
12.8143876270536
 30
0.0
 11
0.8552163887552382
 21
12.89544142041956
 31
0.0
  0
LINE
  5
2897
330
1E
100
AcDbEntity
  8
0
100
AcDbLine
 10
0.825025390368225
 20
13.15999492475745
 30
0.0
 11
0.8552910375633545
 21
13.07874072168689
 31
0.0
  0
LWPOLYLINE
  5
2898
330
1E
100
AcDbEntity
  8
0
100
AcDbPolyline
 90
       10
 70
     0
 43
0.0
 10
0.8552910375633616
 20
13.07874072168688
 10
0.8636840281589215
 20
13.05084258240553
 10
0.8671702497068523
 20
13.03301756620551
 10
0.8693527860452832
 20
13.01468316010552
 10
0.8703895471455851
 20
12.99634905240553
 10
0.8703883637005845
 20
12.97803349940552
 10
0.8693474086128248
 20
12.95967959830552
 10
0.8671596704837228
 20
12.94133894420552
 10
0.8636751624104662
 20
12.92354589430552
 10
0.8552163887552453
 20
12.89544142041958
  0
LINE
  5
28A4
330
1E
100
AcDbEntity
  8
0
100
AcDbLine
 10
0.825025390368225
 20
12.8143876270536
 30
0.0
 11
0.825025390368225
 21
12.28499492475748
 31
0.0
  0
LWPOLYLINE
  5
28A5
330
1E
100
AcDbEntity
  8
0
  6
HIDDEN
 62
     8
100
AcDbPolyline
 90
       15
 70
     0
 43
0.0
 10
1.225102746860991
 20
12.93788023134327
 42
0.018035071427639
 10
1.233159928122056
 20
12.96161967232003
 42
0.0379130400581009
 10
1.235711045969495
 20
12.973282627343
 42
0.0058818211515876
 10
1.240645279109735
 20
13.01168369950661
 42
0.0162635672703074
 10
1.241813427149779
 20
13.02564028385345
 42
0.0111005671671607
 10
1.242672986182797
 20
13.05549901023467
 42
0.0113995124974287
 10
1.242201238968271
 20
13.08458312487807
 42
0.0152478201964053
 10
1.24071655695176
 20
13.10590797423307
 42
0.0099469142382724
 10
1.236797670538117
 20
13.13843679786529
 42
0.02999897885399
 10
1.233070576662378
 20
13.15684491217163
 42
0.0272101831099775
 10
1.22667296485735
 20
13.17653492240788
 42
0.0867590676124281
 10
1.220788900167285
 20
13.18631444117537
 42
0.1161308313627551
 10
1.213832444057431
 20
13.19133169769726
 42
0.2860826769762104
 10
1.206200334970781
 20
13.19007128494093
 42
0.1837180095351791
 10
1.200819330761469
 20
13.1798964409168
  0
LWPOLYLINE
  5
28B6
330
1E
100
AcDbEntity
  8
0
100
AcDbPolyline
 90
       15
 70
     0
 43
0.0
 10
1.21868825958957
 20
13.0018090414196
 42
0.0180350714275692
 10
1.222488816788165
 20
13.0130068909369
 42
0.0379130400584535
 10
1.223692174263384
 20
13.0185082848157
 42
0.0058818211514426
 10
1.226019642725753
 20
13.03662199810033
 42
0.0162635672701967
 10
1.226570655952195
 20
13.04320529260364
 42
0.011100567167221
 10
1.226976108326262
 20
13.05728959750055
 42
0.0113995124973087
 10
1.22675358605526
 20
13.07100851950204
 42
0.0152478201969531
 10
1.226053264349346
 20
13.08106741070727
 42
0.0099469142385357
 10
1.22420473302217
 20
13.0964111954394
 42
0.0299989788537255
 10
1.22244666987325
 20
13.10509426822536
 42
0.0272101831100389
 10
1.21942892845577
 20
13.11438200890288
 42
0.086759067612196
 10
1.216653426243475
 20
13.11899498945359
 42
0.1161308313623365
 10
1.213372079021845
 20
13.12136161988843
 42
0.2860826769761382
 10
1.209772027565869
 20
13.12076708556941
 42
0.1837180095348567
 10
1.207233818033188
 20
13.11596763084105
  0
LWPOLYLINE
  5
28C7
330
1E
100
AcDbEntity
  8
0
  6
HIDDEN
 62
     8
100
AcDbPolyline
 90
       15
 70
     0
 43
0.0
 10
0.8829502868623678
 20
12.68219127590554
 42
0.0405370935351734
 10
0.8731382899292939
 20
12.67372968127755
 42
0.0943302861063379
 10
0.870017941755755
 20
12.66906965090362
 42
0.031757992413421
 10
0.8636549269344087
 20
12.65099148229441
 42
0.0318454455680907
 10
0.8596470062022235
 20
12.63230367465334
 42
0.0099222039215638
 10
0.8554704239784954
 20
12.5997892602539
 42
0.015735155153791
 10
0.8538915711793536
 20
12.57917529965626
 42
0.0112440931446286
 10
0.8532284451218573
 20
12.54969127590694
 42
0.0112440931448709
 10
0.8538915711792185
 20
12.52020725215746
 42
0.0157351551540767
 10
0.8554704239783249
 20
12.4995932915593
 42
0.0099222039219898
 10
0.8596470062018398
 20
12.46707887715986
 42
0.0318454455667088
 10
0.863654926933819
 20
12.44839106951899
 42
0.0317579924099331
 10
0.8700179417552079
 20
12.43031290090864
 42
0.094330286101168
 10
0.8731382899287183
 20
12.4256528705344
 42
0.0405370935331454
 10
0.8829502868617567
 20
12.41719127590554
  0
LWPOLYLINE
  5
28D8
330
1E
100
AcDbEntity
  8
0
100
AcDbPolyline
 90
       15
 70
     0
 43
0.0
 10
0.8829502868620409
 20
12.61219127590554
 42
0.0405370935331752
 10
0.8783219864219163
 20
12.60819995768482
 42
0.0943302861032188
 10
0.8768501240759079
 20
12.60600183014992
 42
0.0317579924130988
 10
0.8738487019903616
 20
12.5974743921267
 42
0.0318454455677783
 10
0.8719581733431099
 20
12.58865938852242
 42
0.0099222039210161
 10
0.8699880873885135
 20
12.57332240059823
 42
0.0157351551530716
 10
0.8692433455021345
 20
12.56359883427852
 42
0.0112440931447211
 10
0.8689305501919904
 20
12.54969127590592
 42
0.0112440931445583
 10
0.8692433455020705
 20
12.5357837175338
 42
0.0157351551545523
 10
0.8699880873884496
 20
12.52606015121394
 42
0.0099222039222747
 10
0.8719581733429322
 20
12.51072316328965
 42
0.0318454455659512
 10
0.8738487019900774
 20
12.50190815968547
 42
0.0317579924093388
 10
0.876850124075645
 20
12.49338072166172
 42
0.0943302861023262
 10
0.8783219864216463
 20
12.4911825941267
 42
0.040537093533443
 10
0.8829502868617567
 20
12.48719127590554
  0
LINE
  5
28F2
330
1E
100
AcDbEntity
  8
0
  6
HIDDEN
 62
     8
100
AcDbLine
 10
0.8829502868617638
 20
12.68219127590553
 30
0.0
 11
0.9438271893998689
 21
12.68219127590553
 31
0.0
  0
LINE
  5
28F3
330
1E
100
AcDbEntity
  8
0
100
AcDbLine
 10
0.8829502868617638
 20
12.61219127590554
 30
0.0
 11
0.9471798221065129
 21
12.61219127590553
 31
0.0
  0
LINE
  5
28F4
330
1E
100
AcDbEntity
  8
0
100
AcDbLine
 10
0.8829502868617638
 20
12.48719127590552
 30
0.0
 11
0.9531666662255063
 21
12.48719127590552
 31
0.0
  0
LINE
  5
28FE
330
1E
100
AcDbEntity
  8
0
  6
HIDDEN
 62
     8
100
AcDbLine
 10
0.8829502868617638
 20
12.41719127590553
 30
0.0
 11
0.956519298932129
 21
12.41719127590553
 31
0.0
  0
LWPOLYLINE
  5
28FF
330
1E
100
AcDbEntity
  8
0
100
AcDbPolyline
 90
        7
 70
     0
 43
0.0
 10
0.9471798221065058
 20
12.61219127590553
 42
0.0497267153244134
 10
0.9497476094316895
 20
12.61271840938228
 42
0.0862196217073106
 10
0.9510995244308091
 20
12.61341171302
 42
0.0280164461359681
 10
0.9525771743433111
 20
12.61466110601676
 42
0.0161200224712917
 10
0.9549426867519983
 20
12.61704919289537
 42
0.0489427978863901
 10
0.9567876928793382
 20
12.6194731371519
 42
0.0371420653183381
 10
0.95863426366315
 20
12.62303268648458
  0
LINE
  5
2908
330
1E
100
AcDbEntity
  8
0
100
AcDbLine
 10
0.9586342636631571
 20
12.62303268648458
 30
0.0
 11
1.207233818033188
 21
13.11596763084105
 31
0.0
  0
LWPOLYLINE
  5
2909
330
1E
100
AcDbEntity
  8
0
100
AcDbPolyline
 90
        7
 70
     0
 43
0.0
 10
0.9531666662254992
 20
12.48719127590552
 42
0.0497267153224686
 10
0.9557344535507255
 20
12.48771840938227
 42
0.0862196217008608
 10
0.9570863685498026
 20
12.48841171301998
 42
0.0280164461299223
 10
0.9585640184622903
 20
12.4896611060167
 42
0.0161200224683299
 10
0.9609295308709918
 20
12.49204919289536
 42
0.0489427978886949
 10
0.9627745369983032
 20
12.49447313715188
 42
0.0371420653207399
 10
0.9646211077821434
 20
12.49803268648457
  0
LINE
  5
2912
330
1E
100
AcDbEntity
  8
0
100
AcDbLine
 10
0.9646211077821434
 20
12.49803268648457
 30
0.0
 11
1.218688259589833
 21
13.00180904142009
 31
0.0
  0
LINE
  5
2913
330
1E
100
AcDbEntity
  8
0
  6
HIDDEN
 62
     8
100
AcDbLine
 10
0.9552816309565131
 20
12.69303268648458
 30
0.0
 11
1.200819330761476
 21
13.1798964409168
 31
0.0
  0
LINE
  5
2914
330
1E
100
AcDbEntity
  8
0
  6
HIDDEN
 62
     8
100
AcDbLine
 10
0.9679737404887661
 20
12.42803268648457
 30
0.0
 11
1.225102746861559
 21
12.93788023134437
 31
0.0
  0
LINE
  5
2915
330
1E
100
AcDbEntity
  8
0
100
AcDbLine
 10
0.0390173760463597
 20
13.43219127590553
 30
0.0
 11
1.622368731322347
 21
13.43219127590555
 31
0.0
  0
LINE
  5
2916
330
1E
100
AcDbEntity
  8
0
100
AcDbLine
 10
0.0390173760463597
 20
13.43219127590553
 30
0.0
 11
0.0390173760463597
 21
13.36219127590553
 31
0.0
  0
LINE
  5
2917
330
1E
100
AcDbEntity
  8
0
100
AcDbLine
 10
1.622368731322375
 20
13.43219127590554
 30
0.0
 11
1.622368731322361
 21
13.33673296701688
 31
0.0
  0
LINE
  5
2918
330
1E
100
AcDbEntity
  8
0
100
AcDbLine
 10
0.8655598700371101
 20
11.8642964768671
 30
0.0
 11
1.622368731322368
 21
13.36219127590554
 31
0.0
  0
LINE
  5
2919
330
1E
100
AcDbEntity
  8
0
100
AcDbLine
 10
0.802336214372346
 20
13.30509468480288
 30
0.0
 11
0.8487693942020016
 21
13.36219127590553
 31
0.0
  0
LINE
  5
291A
330
1E
100
AcDbEntity
  8
0
100
AcDbLine
 10
0.7514941339878618
 20
11.79428786700821
 30
0.0
 11
0.8084293180981064
 21
11.81963704417741
 31
0.0
  0
ARC
  5
291B
330
1E
100
AcDbEntity
  8
0
100
AcDbCircle
 10
0.7769151741800968
 20
11.73719127590555
 30
0.0
 40
0.0625000000000013
100
AcDbArc
 50
114.0000000000029
 51
180.0000000000028
  0
LWPOLYLINE
  5
291C
330
1E
100
AcDbEntity
  8
0
100
AcDbPolyline
 90
        7
 70
     0
 43
0.0
 10
0.8655598700370248
 20
11.86429647686557
 42
0.0575175993703072
 10
0.8647202947823303
 20
11.87713984005349
 42
0.0575870569599245
 10
0.8609798636835109
 20
11.88943899882243
 42
0.029957619768547
 10
0.8560412467275569
 20
11.89915706596831
 42
0.1255978914420533
 10
0.8541855434203285
 20
11.90103305513497
 42
0.2968910854495478
 10
0.8507945372739698
 20
11.9009100522798
 42
0.1520637169863341
 10
0.8469974418751605
 20
11.89597202777716
  0
LINE
  5
2925
330
1E
100
AcDbEntity
  8
0
100
AcDbLine
 10
0.8084293180981064
 20
11.81963704417741
 30
0.0
 11
0.8469974418751747
 21
11.89597202777716
 31
0.0
  0
LINE
  5
2926
330
1E
100
AcDbEntity
  8
0
100
AcDbLine
 10
0.8784226383519069
 20
11.86429647686673
 30
0.0
 11
0.8655598700370248
 21
11.86429647686557
 31
0.0
  0
LINE
  5
2927
330
1E
100
AcDbEntity
  8
0
100
AcDbLine
 10
0.8084293180981064
 20
11.81963704417741
 30
0.0
 11
0.8609798636835109
 21
11.88943899882243
 31
0.0
  0
CIRCLE
  5
2928
330
1E
100
AcDbEntity
  8
0
100
AcDbCircle
 10
0.0000000000000071
 20
12.54969127590553
 30
0.0
 40
0.306
  0
LINE
  5
2929
330
1E
100
AcDbEntity
  8
0
100
AcDbLine
 10
7.225059159363219
 20
0.4232996132516149
 30
0.0
 11
7.225059159363262
 21
7.033308982962332
 31
0.0
  0
LWPOLYLINE
  5
292A
330
1E
100
AcDbEntity
  8
0
100
AcDbPolyline
 90
        7
 70
     0
 43
0.0
 10
5.657164360323243
 20
0.4255423175909634
 42
-0.0664535282452353
 10
5.673046523541281
 20
0.4161231828149141
 42
-0.0883251748351869
 10
5.682306882280109
 20
0.4057041305666616
 42
-0.0438041714911999
 10
5.689454086342032
 20
0.3913808904255802
 42
-0.0445311467080907
 10
5.693900938592648
 20
0.3762746962645274
 42
-0.0898465825805525
 10
5.694147998595213
 20
0.3626043823163343
 42
-0.0670593260546073
 10
5.688839911234837
 20
0.345139607839716
  0
LWPOLYLINE
  5
2933
330
1E
100
AcDbEntity
  8
0
100
AcDbPolyline
 90
        7
 70
     0
 43
0.0
 10
5.587155750465882
 20
0.1226067711528565
 42
-0.0477401187425374
 10
5.580088556794763
 20
0.1104814219193955
 42
-0.0702275835540065
 10
5.573475307516908
 20
0.1035698237407132
 42
-0.025772329194196
 10
5.56388202244986
 20
0.0967832381104969
 42
-0.025340188615632
 10
5.553472071451708
 20
0.0909125097042462
 42
-0.0690198331151016
 10
5.544213652230503
 20
0.0877928824590271
 42
-0.0473162493183946
 10
5.530059159363219
 20
0.0864781426828003
  0
LINE
  5
293C
330
1E
100
AcDbEntity
  8
0
100
AcDbLine
 10
5.58715575046589
 20
0.1226067711528565
 30
0.0
 11
5.688839911234844
 21
0.3451396078397231
 31
0.0
  0
LINE
  5
293E
330
1E
100
AcDbEntity
  8
0
  6
THD
100
AcDbLine
 10
6.077862808215166
 20
0.1942534261959388
 30
0.0
 11
5.996809014849212
 21
0.3250250073298453
 31
0.0
  0
LINE
  5
293F
330
1E
100
AcDbEntity
  8
0
  6
THD
100
AcDbLine
 10
5.732255510511315
 20
0.1942534261959388
 30
0.0
 11
5.81350971358188
 21
0.3253483468412313
 31
0.0
  0
LWPOLYLINE
  5
2940
330
1E
100
AcDbEntity
  8
0
  6
THD
100
AcDbPolyline
 90
       10
 70
     0
 43
0.0
 10
5.81350971358188
 20
0.3253483468412917
 10
5.841407852863227
 20
0.3617023831190593
 10
5.859232869063249
 20
0.3768028676463331
 10
5.877567275163244
 20
0.3862564711409711
 10
5.895901382863229
 20
0.3907471768343456
 10
5.914216935863237
 20
0.390742050770875
 10
5.932570836963237
 20
0.3862331789220228
 10
5.950911491063238
 20
0.3767570439965553
 10
5.968704540963245
 20
0.361663981343515
 10
5.996809014849177
 20
0.3250250073298844
  0
LINE
  5
294C
330
1E
100
AcDbEntity
  8
0
  6
THD
100
AcDbLine
 10
6.607255510511287
 20
0.1942534261959246
 30
0.0
 11
6.684269273322492
 21
0.0700000000000021
 31
0.0
  0
LINE
  5
294D
330
1E
100
AcDbEntity
  8
0
  6
THD
100
AcDbLine
 10
6.607255510511287
 20
0.1942534261959388
 30
0.0
 11
6.68830930387724
 21
0.3250250073298453
 31
0.0
  0
LINE
  5
294E
330
1E
100
AcDbEntity
  8
0
  6
THD
100
AcDbLine
 10
6.952862808215137
 20
0.1942534261959388
 30
0.0
 11
6.871608605144573
 21
0.3253483468412313
 31
0.0
  0
LWPOLYLINE
  5
294F
330
1E
100
AcDbEntity
  8
0
  6
THD
100
AcDbPolyline
 90
       10
 70
     0
 43
0.0
 10
6.871608605144559
 20
0.3253483468412917
 10
6.843710465863211
 20
0.3617023831190593
 10
6.82588544966319
 20
0.3768028676463331
 10
6.807551043563194
 20
0.3862564711409711
 10
6.789216935863209
 20
0.3907471768343456
 10
6.770901382863201
 20
0.390742050770875
 10
6.752547481763202
 20
0.3862331789220228
 10
6.734206827663201
 20
0.3767570439965553
 10
6.716413777763194
 20
0.361663981343515
 10
6.688309303877254
 20
0.3250250073298844
  0
LINE
  5
295B
330
1E
100
AcDbEntity
  8
0
  6
THD
100
AcDbLine
 10
6.952862808215137
 20
0.1942534261959246
 30
0.0
 11
6.875849045403932
 21
0.0700000000000038
 31
0.0
  0
LINE
  5
295C
330
1E
100
AcDbEntity
  8
0
  6
HIDDEN
 62
     8
100
AcDbLine
 10
7.155059159363219
 20
0.2971000059608571
 30
0.0
 11
7.15509253818972
 21
3.609357142440896
 31
0.0
  0
LINE
  5
295D
330
1E
100
AcDbEntity
  8
0
100
AcDbLine
 10
7.155092538189722
 20
3.609357142440823
 30
0.0
 11
7.155059159363276
 21
7.033308982962332
 31
0.0
  0
LINE
  5
295F
330
1E
100
AcDbEntity
  8
0
100
AcDbLine
 10
7.155059159363276
 20
7.033308982962332
 30
0.0
 11
7.225059159363262
 21
7.033308982962332
 31
0.0
  0
LINE
  5
2960
330
1E
100
AcDbEntity
  8
0
100
AcDbLine
 10
5.530059159363205
 20
0.1400000000000006
 30
0.0
 11
5.595103412953442
 21
0.1400000000000006
 31
0.0
  0
LINE
  5
2961
330
1E
100
AcDbEntity
  8
0
  6
HIDDEN
 62
     8
100
AcDbLine
 10
5.595103412953442
 20
0.1400000000000006
 30
0.0
 11
7.093443871260682
 21
0.139999999999997
 31
0.0
  0
LINE
  5
2962
330
1E
100
AcDbEntity
  8
0
100
AcDbLine
 10
7.093443871260682
 20
0.139999999999997
 30
0.0
 11
7.155059159363219
 21
0.139999999999997
 31
0.0
  0
LINE
  5
2963
330
1E
100
AcDbEntity
  8
0
100
AcDbLine
 10
5.530059159363219
 20
0.0700000000000056
 30
0.0
 11
7.155059159363212
 21
0.0700000000000003
 31
0.0
  0
LINE
  5
296C
330
1E
100
AcDbEntity
  8
0
100
AcDbLine
 10
7.155059159363212
 20
0.139999999999997
 30
0.0
 11
7.155059159363219
 21
0.0700000000000021
 31
0.0
  0
LINE
  5
296D
330
1E
100
AcDbEntity
  8
0
100
AcDbLine
 10
5.530059159363212
 20
0.139999999999997
 30
0.0
 11
5.530059159363219
 21
0.0700000000000021
 31
0.0
  0
LINE
  5
296E
330
1E
100
AcDbEntity
  8
0
100
AcDbLine
 10
5.764434159363191
 20
0.0
 30
0.0
 11
6.920684159363219
 21
0.0
 31
0.0
  0
LINE
  5
296F
330
1E
100
AcDbEntity
  8
0
100
AcDbLine
 10
6.970684159363216
 20
0.0700000000000003
 30
0.0
 11
6.970684159363216
 21
0.0499999999999972
 31
0.0
  0
ARC
  5
2970
330
1E
100
AcDbEntity
  8
0
100
AcDbCircle
 10
6.920684159363219
 20
0.0499999999999972
 30
0.0
 40
0.05
100
AcDbArc
 50
270.0
 51
0.0000000000010178
  0
ARC
  5
2972
330
1E
100
AcDbEntity
  8
0
  6
HIDDEN
 62
     8
100
AcDbCircle
 10
6.826934159363205
 20
0.0499999999999972
 30
0.0
 40
0.05
100
AcDbArc
 50
179.999999999999
 51
270.0
  0
LINE
  5
2973
330
1E
100
AcDbEntity
  8
0
100
AcDbLine
 10
5.714434159363194
 20
0.0700000000000003
 30
0.0
 11
5.714434159363194
 21
0.0499999999999972
 31
0.0
  0
ARC
  5
2974
330
1E
100
AcDbEntity
  8
0
100
AcDbCircle
 10
5.764434159363191
 20
0.0499999999999972
 30
0.0
 40
0.05
100
AcDbArc
 50
179.999999999999
 51
270.0
  0
ARC
  5
2976
330
1E
100
AcDbEntity
  8
0
  6
HIDDEN
 62
     8
100
AcDbCircle
 10
5.858184159363205
 20
0.0499999999999972
 30
0.0
 40
0.05
100
AcDbArc
 50
270.0
 51
0.0000000000010178
  0
LINE
  5
2979
330
1E
100
AcDbEntity
  8
0
  6
HIDDEN
 62
     8
100
AcDbLine
 10
6.75830930387724
 20
0.3876486446252798
 30
0.0
 11
6.75830930387724
 21
0.0700000000000021
 31
0.0
  0
LINE
  5
297A
330
1E
100
AcDbEntity
  8
0
  6
HIDDEN
 62
     8
100
AcDbLine
 10
6.801809014849155
 20
0.3876629077922438
 30
0.0
 11
6.801809014849162
 21
0.0700000000000021
 31
0.0
  0
LINE
  5
297B
330
1E
100
AcDbEntity
  8
0
  6
THD
100
AcDbLine
 10
5.732255510511315
 20
0.1942534261959246
 30
0.0
 11
5.809269273322521
 21
0.0700000000000021
 31
0.0
  0
LINE
  5
297C
330
1E
100
AcDbEntity
  8
0
  6
THD
100
AcDbLine
 10
6.077862808215166
 20
0.1942534261959246
 30
0.0
 11
6.00084904540396
 21
0.0700000000000038
 31
0.0
  0
LINE
  5
297F
330
1E
100
AcDbEntity
  8
0
  6
HIDDEN
 62
     8
100
AcDbLine
 10
5.883309303877269
 20
0.3876486446252798
 30
0.0
 11
5.883309303877269
 21
0.0700000000000021
 31
0.0
  0
LINE
  5
2980
330
1E
100
AcDbEntity
  8
0
  6
HIDDEN
 62
     8
100
AcDbLine
 10
5.926809014849184
 20
0.3876629077922438
 30
0.0
 11
5.926809014849191
 21
0.0700000000000021
 31
0.0
  0
LINE
  5
298D
330
1E
100
AcDbEntity
  8
0
100
AcDbLine
 10
1.006499327617064
 20
0.3579457996387117
 30
0.0
 11
1.396789406903679
 21
2.048477862041095
 31
0.0
  0
ARC
  5
298E
330
1E
100
AcDbEntity
  8
0
100
AcDbCircle
 10
1.328583502368673
 20
2.064224435845175
 30
0.0
 40
0.07
100
AcDbArc
 50
346.9999999999997
 51
77.00000000000019
  0
ARC
  5
298F
330
1E
100
AcDbEntity
  8
0
100
AcDbCircle
 10
0.9382934230820794
 20
0.3736923734427862
 30
0.0
 40
0.07
100
AcDbArc
 50
257.0000000000023
 51
347.0000000000022
  0
LWPOLYLINE
  5
2990
330
1E
100
AcDbEntity
  8
0
100
AcDbPolyline
 90
        4
 70
     0
 43
0.0
 10
7.225059159363219
 20
0.4232996132516149
 42
0.013394984508593
 10
7.220871138200515
 20
0.4210684360632406
 42
0.0898465825805525
 10
7.210374311932775
 20
0.4123074338151014
 42
0.0670593260546073
 10
7.200644847944751
 20
0.3968629633013485
  0
LWPOLYLINE
  5
2996
330
1E
100
AcDbEntity
  8
0
100
AcDbPolyline
 90
        4
 70
     0
 43
0.0
 10
7.098960687175797
 20
0.174330126614489
 42
0.0477401187425374
 10
7.094419376335736
 20
0.1610506004078651
 42
0.0702275835540065
 10
7.093522672417507
 20
0.1515268838288364
 42
0.0253997865754026
 10
7.0946458771773
 20
0.139999999999997
 42
0.025340188615632
  0
LINE
  5
299C
330
1E
100
AcDbEntity
  8
0
100
AcDbLine
 10
7.098960687175797
 20
0.1743301266144961
 30
0.0
 11
7.200644847944751
 21
0.3968629633013592
 31
0.0
  0
LINE
  5
299D
330
1E
100
AcDbEntity
  8
0
100
AcDbLine
 10
6.995865766633628
 20
1.949012717570424
 30
0.0
 11
6.479814159192863
 21
0.8196487417832721
 31
0.0
  0
LINE
  5
299E
330
1E
100
AcDbEntity
  8
0
  6
HIDDEN
 62
     8
100
AcDbLine
 10
6.931917584598651
 20
1.976754558218929
 30
0.0
 11
6.415865977157885
 21
0.8473905824317605
 31
0.0
  0
LINE
  5
299F
330
1E
100
AcDbEntity
  8
0
100
AcDbLine
 10
6.75377622035834
 20
2.05403540002547
 30
0.0
 11
6.226917795122894
 21
0.9010210169257888
 31
0.0
  0
LINE
  5
29A0
330
1E
100
AcDbEntity
  8
0
  6
HIDDEN
 62
     8
100
AcDbLine
 10
6.817724402393317
 20
2.026293559376967
 30
0.0
 11
6.290865977157871
 21
0.8732791762772934
 31
0.0
  0
LWPOLYLINE
  5
29A1
330
1E
100
AcDbEntity
  8
0
100
AcDbPolyline
 90
       15
 70
     0
 43
0.0
 10
6.753776220357231
 20
2.054035400023061
 42
-0.05559651440747
 10
6.771512894476793
 20
2.083311397917349
 42
-0.0786061866460522
 10
6.789146546333114
 20
2.100008433461095
 42
-0.0332747854580201
 10
6.820740839826776
 20
2.118720429681879
 42
-0.0552768722026225
 10
6.841485747297959
 20
2.126475428665255
 42
-0.0545908071575804
 10
6.870864104490686
 20
2.130562369597147
 42
-0.0545968779292382
 10
6.900427402602368
 20
2.12819427263889
 42
-0.0551302516249883
 10
6.928636591840665
 20
2.119493907034272
 42
-0.0550599667211833
 10
6.954297394541193
 20
2.104824527252784
 42
-0.0564378927139446
 10
6.975828911934862
 20
2.085081675833187
 42
-0.0563629857853365
 10
6.992426110538723
 20
2.06099485719183
 42
-0.0575693883386077
 10
7.000428628606514
 20
2.040707820701947
 42
-0.0348245776128342
 10
7.007261690773525
 20
2.00538626614734
 42
-0.0804060440005895
 10
7.006315758020953
 20
1.981140974677679
 42
-0.0575652387389907
 10
6.995865766633614
 20
1.949012717570426
  0
LWPOLYLINE
  5
29B2
330
1E
100
AcDbEntity
  8
0
  6
HIDDEN
 62
     8
100
AcDbPolyline
 90
       15
 70
     0
 43
0.0
 10
6.817724402392791
 20
2.026293559375834
 42
-0.0555965144081367
 10
6.826090758109594
 20
2.040102992344849
 42
-0.0786061866465356
 10
6.834408518419153
 20
2.047978952506982
 42
-0.0332747854584237
 10
6.849311487048261
 20
2.056805365818669
 42
-0.0552768722031247
 10
6.85909682076106
 20
2.060463384207054
 42
-0.0545908071575361
 10
6.872954536418007
 20
2.06239118653342
 42
-0.0545968779291898
 10
6.886899488357479
 20
2.061274159666317
 42
-0.0551302516250482
 10
6.90020570969628
 20
2.057170213626407
 42
-0.055059966721391
 10
6.912309861913528
 20
2.05025069486155
 42
-0.0564378927135743
 10
6.922466238042624
 20
2.040938029097596
 42
-0.0563629857849503
 10
6.930295105308588
 20
2.029576322191289
 42
-0.0575693883382398
 10
6.934069877982111
 20
2.020006965356366
 42
-0.0348245776121793
 10
6.937293020513685
 20
2.003345854717473
 42
-0.080406044000749
 10
6.936846825819075
 20
1.991909396477091
 42
-0.0575652387393208
 10
6.931917584598637
 20
1.97675455821893
  0
LWPOLYLINE
  5
29C3
330
1E
100
AcDbEntity
  8
0
100
AcDbPolyline
 90
       15
 70
     0
 43
0.0
 10
6.475059159363212
 20
0.4327882544963551
 42
-0.0567757993514295
 10
6.471113863627281
 20
0.3991255730821806
 42
-0.0798871545245322
 10
6.46193753436129
 20
0.3767721136691513
 42
-0.0342434707818445
 10
6.440943225438694
 20
0.3472041790685623
 42
-0.0565307948098574
 10
6.425171558111003
 20
0.3318506565252779
 42
-0.0551286798504101
 10
6.399969085663692
 20
0.3164377886212719
 42
-0.0552018570309859
 10
6.372043183113931
 20
0.3069211285777094
 42
-0.0545911380789614
 10
6.342559159364569
 20
0.3036923734427859
 42
-0.0545911380789785
 10
6.313075135615129
 20
0.3069211285771232
 42
-0.0552018570309838
 10
6.285149233065148
 20
0.3164377886201386
 42
-0.0551286798503567
 10
6.259946760617531
 20
0.3318506565236348
 42
-0.0565307948099806
 10
6.244175093289535
 20
0.3472041790666012
 42
-0.0342434707819355
 10
6.223180784366306
 20
0.3767721136667763
 42
-0.0798871545249381
 10
6.214004455099861
 20
0.399125573079651
 42
-0.0567757993515583
 10
6.210059159363212
 20
0.4327882544937189
  0
LWPOLYLINE
  5
29D4
330
1E
100
AcDbEntity
  8
0
  6
HIDDEN
 62
     8
100
AcDbPolyline
 90
       15
 70
     0
 43
0.0
 10
6.405059159363212
 20
0.4327882544949624
 42
-0.056775799351823
 10
6.403198170808516
 20
0.4169096311863925
 42
-0.0798871545250303
 10
6.398869713607589
 20
0.4063655465576019
 42
-0.0342434707810682
 10
6.388966737700763
 20
0.3924184075950947
 42
-0.0565307948091587
 10
6.381527271980097
 20
0.3851761799803022
 42
-0.0551286798505386
 10
6.369639313278533
 20
0.3779059592708691
 42
-0.0552018570310871
 10
6.35646671773619
 20
0.3734169686842819
 42
-0.0545911380789802
 10
6.342559159363844
 20
0.37189397097913
 42
-0.0545911380790021
 10
6.328651600991478
 20
0.3734169686840048
 42
-0.0552018570310251
 10
6.315479005449056
 20
0.3779059592703256
 42
-0.0551286798505224
 10
6.303591046747329
 20
0.3851761799795277
 42
-0.0565307948105653
 10
6.296151581026571
 20
0.3924184075941568
 42
-0.0342434707822047
 10
6.28624860511939
 20
0.4063655465564828
 42
-0.0798871545250922
 10
6.28192014791825
 20
0.4169096311851703
 42
-0.0567757993518863
 10
6.280059159363212
 20
0.4327882544937189
  0
LINE
  5
29E5
330
1E
100
AcDbEntity
  8
0
100
AcDbLine
 10
6.475059159363205
 20
0.4327882544937225
 30
0.0
 11
6.475059159363205
 21
0.7978515812737221
 31
0.0
  0
LWPOLYLINE
  5
29E6
330
1E
100
AcDbEntity
  8
0
100
AcDbPolyline
 90
        7
 70
     0
 43
0.0
 10
6.475059159363205
 20
0.7978515812737186
 42
-0.0178851892600117
 10
6.47523008159633
 20
0.8026136833782047
 42
-0.0313453188581622
 10
6.475594415582421
 20
0.8053099169606561
 42
-0.00444983538997
 10
6.476358405735361
 20
0.8089681314421213
 42
-0.0044365717554913
 10
6.477189766086596
 20
0.8126230846271785
 42
-0.0312513475316837
 10
6.477983930518626
 20
0.8152365112583411
 42
-0.0178582451277121
 10
6.479814159192863
 20
0.8196487417832614
  0
LWPOLYLINE
  5
29EF
330
1E
100
AcDbEntity
  8
0
  6
HIDDEN
 62
     8
100
AcDbPolyline
 90
        7
 70
     0
 43
0.0
 10
6.405059159363205
 20
0.7978515812737168
 42
-0.0178851892607701
 10
6.405447618983963
 20
0.808674540602361
 42
-0.0313453188573698
 10
6.40627565077051
 20
0.8148023441985721
 42
-0.004449835367702
 10
6.408011992026779
 20
0.8231164680199399
 42
-0.0044365717335188
 10
6.409901447370913
 20
0.8314231798043004
 42
-0.0312513475339767
 10
6.411706366534666
 20
0.837362785784272
 42
-0.0178582451287193
 10
6.415865977157878
 20
0.8473905824317605
  0
LINE
  5
29F8
330
1E
100
AcDbEntity
  8
0
  6
HIDDEN
 62
     8
100
AcDbLine
 10
6.405059159363212
 20
0.4327882544937225
 30
0.0
 11
6.405059159363205
 21
0.7978515812737221
 31
0.0
  0
LWPOLYLINE
  5
29F9
330
1E
100
AcDbEntity
  8
0
100
AcDbPolyline
 90
        7
 70
     0
 43
0.0
 10
6.21005915936319
 20
0.8237401751192515
 42
-0.017885189260748
 10
6.210665156371569
 20
0.8406239916718832
 42
-0.0313453188575785
 10
6.211956885958585
 20
0.850183365282021
 42
-0.0044498353699158
 10
6.214665578318424
 20
0.8631533984433517
 42
-0.0044365717357201
 10
6.217613128655216
 20
0.8761118688269569
 42
-0.0312513475324846
 10
6.22042880255065
 20
0.8853776541557394
 42
-0.0178582451278468
 10
6.226917795122887
 20
0.9010210169257906
  0
LWPOLYLINE
  5
2A02
330
1E
100
AcDbEntity
  8
0
  6
HIDDEN
 62
     8
100
AcDbPolyline
 90
        7
 70
     0
 43
0.0
 10
6.280059159363191
 20
0.8237401751192515
 42
-0.0178851892600134
 10
6.280447618983935
 20
0.8345631344479543
 42
-0.0313453188555789
 10
6.281275650770496
 20
0.840690938044105
 42
-0.004449835366712
 10
6.283011992026665
 20
0.8490050618650784
 42
-0.0044365717329553
 10
6.284901447370899
 20
0.8573117736498332
 42
-0.0312513475327687
 10
6.286706366534638
 20
0.8632513796298085
 42
-0.0178582451280362
 10
6.290865977157864
 20
0.8732791762772898
  0
LINE
  5
2A0B
330
1E
100
AcDbEntity
  8
0
  6
HIDDEN
 62
     8
100
AcDbLine
 10
6.280059159363198
 20
0.4327882544937225
 30
0.0
 11
6.280059159363198
 21
0.823740175119255
 31
0.0
  0
LINE
  5
2A0C
330
1E
100
AcDbEntity
  8
0
100
AcDbLine
 10
6.210059159363205
 20
0.4327882544937225
 30
0.0
 11
6.210059159363198
 21
0.8237401751192479
 31
0.0
  0
LINE
  5
2B42
330
1E
100
AcDbEntity
  8
0
  6
HIDDEN
 62
     8
100
AcDbLine
 10
7.0946458771773
 20
0.139999999999997
 30
0.0
 11
7.0946458771773
 21
0.0700000000000003
 31
0.0
  0
MTEXT
  5
2BD0
330
1E
100
AcDbEntity
  8
DIM
100
AcDbMText
 10
-3.848081396644544
 20
13.70459965536297
 30
0.0
 40
0.0900000000000044
 41
0.0
 71
     1
 72
     1
  1
\A1;
 73
     1
 44
1.0
  0
MTEXT
  5
2BFD
330
1E
100
AcDbEntity
  8
DIM
100
AcDbMText
 10
-3.823247557340692
 20
13.59557087568753
 30
0.0
 40
0.0900000000000044
 41
0.0
 71
     1
 72
     1
  1
\A1;
 73
     1
 44
1.0
  0
MTEXT
  5
2C18
330
1E
100
AcDbEntity
  8
DIM
100
AcDbMText
 10
-4.189138738572949
 20
13.42149254388096
 30
0.0
 40
0.0900000000000044
 41
0.0
 71
     1
 72
     1
  1
\A1;
 73
     1
 44
1.0
  0
MTEXT
  5
2C1C
330
1E
100
AcDbEntity
  8
DIM
100
AcDbMText
 10
-8.70112019078316
 20
11.51986666581298
 30
0.0
 40
0.0900000000000044
 41
0.0
 71
     9
 72
     1
  1
\A1;
 73
     1
 44
1.0
  0
ARC
  5
3609
330
1E
100
AcDbEntity
  8
0
100
AcDbCircle
 10
6.289380727572645
 20
3.798571492825333
 30
0.0
 40
0.9379816107271392
100
AcDbArc
 50
337.3562055462318
 51
355.9840045281573
  0
ARC
  5
360A
330
1E
100
AcDbEntity
  8
0
100
AcDbCircle
 10
6.306989349433716
 20
3.590997464133482
 30
0.0
 40
0.8483018899929758
100
AcDbArc
 50
346.0531909704795
 51
1.240141314230169
  0
LINE
  5
3611
330
1E
100
AcDbEntity
  8
0
100
AcDbLine
 10
5.657164360323243
 20
0.4255423175909634
 30
0.0
 11
7.155059159363233
 21
3.437447753928481
 31
0.0
  0
MTEXT
  5
3733
330
1E
100
AcDbEntity
  8
DIM
100
AcDbMText
 10
4.504680707690965
 20
16.87131632442495
 30
0.0
 40
0.1525000000000075
 41
0.0
 71
     9
 72
     1
  1
\A1;
 73
     1
 44
1.0
  0
LINE
  5
378C
330
1E
100
AcDbEntity
  8
0
100
AcDbLine
 10
7.155060945049891
 20
6.850135827648208
 30
0.0
 11
7.22505915936326
 21
6.850135827648208
 31
0.0
  0
LINE
  5
378D
330
1E
100
AcDbEntity
  8
0
100
AcDbLine
 10
7.155065684410587
 20
6.363979047542651
 30
0.0
 11
7.225059159363257
 21
6.363979047542651
 31
0.0
  0
LINE
  5
402D
330
1E
100
AcDbEntity
  8
0
100
AcDbLine
 10
-7.225059159363205
 20
0.4232996132516149
 30
0.0
 11
-7.225059159363248
 21
7.033308982962332
 31
0.0
  0
LWPOLYLINE
  5
402E
330
1E
100
AcDbEntity
  8
0
100
AcDbPolyline
 90
        7
 70
     0
 43
0.0
 10
-5.657164360323229
 20
0.4255423175909634
 42
0.0664535282452353
 10
-5.673046523541267
 20
0.4161231828149141
 42
0.0883251748351869
 10
-5.682306882280095
 20
0.4057041305666616
 42
0.0438041714911999
 10
-5.689454086342018
 20
0.3913808904255802
 42
0.0445311467080907
 10
-5.693900938592634
 20
0.3762746962645274
 42
0.0898465825805525
 10
-5.694147998595199
 20
0.3626043823163343
 42
0.0670593260546073
 10
-5.688839911234823
 20
0.345139607839716
  0
LWPOLYLINE
  5
4037
330
1E
100
AcDbEntity
  8
0
100
AcDbPolyline
 90
        7
 70
     0
 43
0.0
 10
-5.587155750465868
 20
0.1226067711528565
 42
0.0477401187425374
 10
-5.580088556794749
 20
0.1104814219193955
 42
0.0702275835540065
 10
-5.573475307516894
 20
0.1035698237407132
 42
0.025772329194196
 10
-5.563882022449846
 20
0.0967832381104969
 42
0.025340188615632
 10
-5.553472071451694
 20
0.0909125097042462
 42
0.0690198331151016
 10
-5.544213652230489
 20
0.0877928824590271
 42
0.0473162493183946
 10
-5.530059159363205
 20
0.0864781426828003
  0
LINE
  5
4040
330
1E
100
AcDbEntity
  8
0
100
AcDbLine
 10
-5.587155750465875
 20
0.1226067711528565
 30
0.0
 11
-5.68883991123483
 21
0.3451396078397231
 31
0.0
  0
LINE
  5
4041
330
1E
100
AcDbEntity
  8
0
  6
THD
100
AcDbLine
 10
-6.077862808215151
 20
0.1942534261959388
 30
0.0
 11
-5.996809014849198
 21
0.3250250073298453
 31
0.0
  0
LINE
  5
4042
330
1E
100
AcDbEntity
  8
0
  6
THD
100
AcDbLine
 10
-5.732255510511301
 20
0.1942534261959388
 30
0.0
 11
-5.813509713581865
 21
0.3253483468412313
 31
0.0
  0
LWPOLYLINE
  5
4043
330
1E
100
AcDbEntity
  8
0
  6
THD
100
AcDbPolyline
 90
       10
 70
     0
 43
0.0
 10
-5.813509713581865
 20
0.3253483468412917
 10
-5.841407852863213
 20
0.3617023831190593
 10
-5.859232869063234
 20
0.3768028676463331
 10
-5.87756727516323
 20
0.3862564711409711
 10
-5.895901382863215
 20
0.3907471768343456
 10
-5.914216935863223
 20
0.390742050770875
 10
-5.932570836963222
 20
0.3862331789220228
 10
-5.950911491063224
 20
0.3767570439965553
 10
-5.96870454096323
 20
0.361663981343515
 10
-5.996809014849163
 20
0.3250250073298844
  0
LINE
  5
404F
330
1E
100
AcDbEntity
  8
0
  6
THD
100
AcDbLine
 10
-6.607255510511273
 20
0.1942534261959246
 30
0.0
 11
-6.684269273322478
 21
0.0700000000000021
 31
0.0
  0
LINE
  5
4050
330
1E
100
AcDbEntity
  8
0
  6
THD
100
AcDbLine
 10
-6.607255510511273
 20
0.1942534261959388
 30
0.0
 11
-6.688309303877226
 21
0.3250250073298453
 31
0.0
  0
LINE
  5
4051
330
1E
100
AcDbEntity
  8
0
  6
THD
100
AcDbLine
 10
-6.952862808215123
 20
0.1942534261959388
 30
0.0
 11
-6.871608605144559
 21
0.3253483468412313
 31
0.0
  0
LWPOLYLINE
  5
4052
330
1E
100
AcDbEntity
  8
0
  6
THD
100
AcDbPolyline
 90
       10
 70
     0
 43
0.0
 10
-6.871608605144544
 20
0.3253483468412917
 10
-6.843710465863197
 20
0.3617023831190593
 10
-6.825885449663176
 20
0.3768028676463331
 10
-6.80755104356318
 20
0.3862564711409711
 10
-6.789216935863195
 20
0.3907471768343456
 10
-6.770901382863187
 20
0.390742050770875
 10
-6.752547481763187
 20
0.3862331789220228
 10
-6.734206827663186
 20
0.3767570439965553
 10
-6.716413777763179
 20
0.361663981343515
 10
-6.68830930387724
 20
0.3250250073298844
  0
LINE
  5
405E
330
1E
100
AcDbEntity
  8
0
  6
THD
100
AcDbLine
 10
-6.952862808215123
 20
0.1942534261959246
 30
0.0
 11
-6.875849045403918
 21
0.0700000000000038
 31
0.0
  0
LINE
  5
405F
330
1E
100
AcDbEntity
  8
0
  6
HIDDEN
 62
     8
100
AcDbLine
 10
-7.155059159363205
 20
0.2971000059608571
 30
0.0
 11
-7.155092538189706
 21
3.609357142440896
 31
0.0
  0
LINE
  5
4060
330
1E
100
AcDbEntity
  8
0
100
AcDbLine
 10
-7.155092538189708
 20
3.609357142440823
 30
0.0
 11
-7.155059159363262
 21
7.033308982962332
 31
0.0
  0
LINE
  5
4061
330
1E
100
AcDbEntity
  8
0
100
AcDbLine
 10
-7.155059159363262
 20
7.033308982962332
 30
0.0
 11
-7.225059159363248
 21
7.033308982962332
 31
0.0
  0
LINE
  5
4062
330
1E
100
AcDbEntity
  8
0
100
AcDbLine
 10
-5.530059159363191
 20
0.1400000000000006
 30
0.0
 11
-5.595103412953428
 21
0.1400000000000006
 31
0.0
  0
LINE
  5
4063
330
1E
100
AcDbEntity
  8
0
  6
HIDDEN
 62
     8
100
AcDbLine
 10
-5.595103412953428
 20
0.1400000000000006
 30
0.0
 11
-7.093443871260668
 21
0.139999999999997
 31
0.0
  0
LINE
  5
4064
330
1E
100
AcDbEntity
  8
0
100
AcDbLine
 10
-7.093443871260668
 20
0.139999999999997
 30
0.0
 11
-7.155059159363205
 21
0.139999999999997
 31
0.0
  0
LINE
  5
4065
330
1E
100
AcDbEntity
  8
0
100
AcDbLine
 10
-5.530059159363205
 20
0.0700000000000056
 30
0.0
 11
-7.155059159363198
 21
0.0700000000000003
 31
0.0
  0
LINE
  5
4066
330
1E
100
AcDbEntity
  8
0
100
AcDbLine
 10
-7.155059159363198
 20
0.139999999999997
 30
0.0
 11
-7.155059159363205
 21
0.0700000000000021
 31
0.0
  0
LINE
  5
4067
330
1E
100
AcDbEntity
  8
0
100
AcDbLine
 10
-5.530059159363198
 20
0.139999999999997
 30
0.0
 11
-5.530059159363205
 21
0.0700000000000021
 31
0.0
  0
LINE
  5
4068
330
1E
100
AcDbEntity
  8
0
100
AcDbLine
 10
-5.764434159363177
 20
0.0
 30
0.0
 11
-6.920684159363205
 21
0.0
 31
0.0
  0
LINE
  5
4069
330
1E
100
AcDbEntity
  8
0
100
AcDbLine
 10
-6.970684159363202
 20
0.0700000000000003
 30
0.0
 11
-6.970684159363202
 21
0.0499999999999972
 31
0.0
  0
ARC
  5
406A
330
1E
100
AcDbEntity
  8
0
100
AcDbCircle
 10
-6.920684159363205
 20
0.0499999999999972
 30
0.0
 40
0.05
100
AcDbArc
 50
179.999999999999
 51
270.0
  0
ARC
  5
406B
330
1E
100
AcDbEntity
  8
0
  6
HIDDEN
 62
     8
100
AcDbCircle
 10
-6.826934159363191
 20
0.0499999999999972
 30
0.0
 40
0.05
100
AcDbArc
 50
270.0
 51
0.0000000000010248
  0
LINE
  5
406C
330
1E
100
AcDbEntity
  8
0
100
AcDbLine
 10
-5.714434159363179
 20
0.0700000000000003
 30
0.0
 11
-5.714434159363179
 21
0.0499999999999972
 31
0.0
  0
ARC
  5
406D
330
1E
100
AcDbEntity
  8
0
100
AcDbCircle
 10
-5.764434159363177
 20
0.0499999999999972
 30
0.0
 40
0.05
100
AcDbArc
 50
270.0
 51
0.0000000000010248
  0
ARC
  5
406E
330
1E
100
AcDbEntity
  8
0
  6
HIDDEN
 62
     8
100
AcDbCircle
 10
-5.858184159363191
 20
0.0499999999999972
 30
0.0
 40
0.05
100
AcDbArc
 50
179.999999999999
 51
270.0
  0
LINE
  5
406F
330
1E
100
AcDbEntity
  8
0
  6
HIDDEN
 62
     8
100
AcDbLine
 10
-6.758309303877226
 20
0.3876486446252798
 30
0.0
 11
-6.758309303877226
 21
0.0700000000000021
 31
0.0
  0
LINE
  5
4070
330
1E
100
AcDbEntity
  8
0
  6
HIDDEN
 62
     8
100
AcDbLine
 10
-6.801809014849141
 20
0.3876629077922438
 30
0.0
 11
-6.801809014849148
 21
0.0700000000000021
 31
0.0
  0
LINE
  5
4071
330
1E
100
AcDbEntity
  8
0
  6
THD
100
AcDbLine
 10
-5.732255510511301
 20
0.1942534261959246
 30
0.0
 11
-5.809269273322506
 21
0.0700000000000021
 31
0.0
  0
LINE
  5
4072
330
1E
100
AcDbEntity
  8
0
  6
THD
100
AcDbLine
 10
-6.077862808215151
 20
0.1942534261959246
 30
0.0
 11
-6.000849045403946
 21
0.0700000000000038
 31
0.0
  0
LINE
  5
4073
330
1E
100
AcDbEntity
  8
0
  6
HIDDEN
 62
     8
100
AcDbLine
 10
-5.883309303877255
 20
0.3876486446252798
 30
0.0
 11
-5.883309303877255
 21
0.0700000000000021
 31
0.0
  0
LINE
  5
4074
330
1E
100
AcDbEntity
  8
0
  6
HIDDEN
 62
     8
100
AcDbLine
 10
-5.926809014849169
 20
0.3876629077922438
 30
0.0
 11
-5.926809014849177
 21
0.0700000000000021
 31
0.0
  0
LWPOLYLINE
  5
4075
330
1E
100
AcDbEntity
  8
0
100
AcDbPolyline
 90
        4
 70
     0
 43
0.0
 10
-7.225059159363205
 20
0.4232996132516149
 42
-0.013394984508593
 10
-7.220871138200501
 20
0.4210684360632406
 42
-0.0898465825805525
 10
-7.21037431193276
 20
0.4123074338151014
 42
-0.0670593260546073
 10
-7.200644847944737
 20
0.3968629633013485
  0
LWPOLYLINE
  5
407B
330
1E
100
AcDbEntity
  8
0
100
AcDbPolyline
 90
        4
 70
     0
 43
0.0
 10
-7.098960687175783
 20
0.174330126614489
 42
-0.0477401187425374
 10
-7.094419376335722
 20
0.1610506004078651
 42
-0.0702275835540065
 10
-7.093522672417493
 20
0.1515268838288364
 42
-0.0253997865754026
 10
-7.094645877177285
 20
0.139999999999997
 42
-0.025340188615632
  0
LINE
  5
4081
330
1E
100
AcDbEntity
  8
0
100
AcDbLine
 10
-7.098960687175783
 20
0.1743301266144961
 30
0.0
 11
-7.200644847944737
 21
0.3968629633013592
 31
0.0
  0
LINE
  5
4082
330
1E
100
AcDbEntity
  8
0
100
AcDbLine
 10
-6.995865766633614
 20
1.949012717570424
 30
0.0
 11
-6.479814159192848
 21
0.8196487417832721
 31
0.0
  0
LINE
  5
4083
330
1E
100
AcDbEntity
  8
0
  6
HIDDEN
 62
     8
100
AcDbLine
 10
-6.931917584598637
 20
1.976754558218929
 30
0.0
 11
-6.415865977157871
 21
0.8473905824317605
 31
0.0
  0
LINE
  5
4084
330
1E
100
AcDbEntity
  8
0
100
AcDbLine
 10
-6.753776220358326
 20
2.05403540002547
 30
0.0
 11
-6.22691779512288
 21
0.9010210169257888
 31
0.0
  0
LINE
  5
4085
330
1E
100
AcDbEntity
  8
0
  6
HIDDEN
 62
     8
100
AcDbLine
 10
-6.817724402393303
 20
2.026293559376967
 30
0.0
 11
-6.290865977157857
 21
0.8732791762772934
 31
0.0
  0
LWPOLYLINE
  5
4086
330
1E
100
AcDbEntity
  8
0
100
AcDbPolyline
 90
       15
 70
     0
 43
0.0
 10
-6.753776220357217
 20
2.054035400023061
 42
0.05559651440747
 10
-6.771512894476778
 20
2.083311397917349
 42
0.0786061866460522
 10
-6.7891465463331
 20
2.100008433461095
 42
0.0332747854580201
 10
-6.820740839826762
 20
2.118720429681879
 42
0.0552768722026225
 10
-6.841485747297945
 20
2.126475428665255
 42
0.0545908071575804
 10
-6.870864104490671
 20
2.130562369597147
 42
0.0545968779292382
 10
-6.900427402602354
 20
2.12819427263889
 42
0.0551302516249883
 10
-6.92863659184065
 20
2.119493907034272
 42
0.0550599667211833
 10
-6.954297394541179
 20
2.104824527252784
 42
0.0564378927139446
 10
-6.975828911934848
 20
2.085081675833187
 42
0.0563629857853365
 10
-6.992426110538709
 20
2.06099485719183
 42
0.0575693883386077
 10
-7.0004286286065
 20
2.040707820701947
 42
0.0348245776128342
 10
-7.007261690773511
 20
2.00538626614734
 42
0.0804060440005895
 10
-7.006315758020939
 20
1.981140974677679
 42
0.0575652387389907
 10
-6.9958657666336
 20
1.949012717570426
  0
LWPOLYLINE
  5
4097
330
1E
100
AcDbEntity
  8
0
  6
HIDDEN
 62
     8
100
AcDbPolyline
 90
       15
 70
     0
 43
0.0
 10
-6.817724402392777
 20
2.026293559375834
 42
0.0555965144081367
 10
-6.826090758109579
 20
2.040102992344849
 42
0.0786061866465356
 10
-6.834408518419139
 20
2.047978952506982
 42
0.0332747854584237
 10
-6.849311487048247
 20
2.056805365818669
 42
0.0552768722031247
 10
-6.859096820761046
 20
2.060463384207054
 42
0.0545908071575361
 10
-6.872954536417993
 20
2.06239118653342
 42
0.0545968779291898
 10
-6.886899488357464
 20
2.061274159666317
 42
0.0551302516250482
 10
-6.900205709696266
 20
2.057170213626407
 42
0.055059966721391
 10
-6.912309861913514
 20
2.05025069486155
 42
0.0564378927135743
 10
-6.92246623804261
 20
2.040938029097596
 42
0.0563629857849503
 10
-6.930295105308574
 20
2.029576322191289
 42
0.0575693883382398
 10
-6.934069877982097
 20
2.020006965356366
 42
0.0348245776121793
 10
-6.937293020513671
 20
2.003345854717473
 42
0.080406044000749
 10
-6.93684682581906
 20
1.991909396477091
 42
0.0575652387393208
 10
-6.931917584598622
 20
1.97675455821893
  0
LWPOLYLINE
  5
40A8
330
1E
100
AcDbEntity
  8
0
100
AcDbPolyline
 90
       15
 70
     0
 43
0.0
 10
-6.475059159363198
 20
0.4327882544963551
 42
0.0567757993514295
 10
-6.471113863627267
 20
0.3991255730821806
 42
0.0798871545245322
 10
-6.461937534361276
 20
0.3767721136691513
 42
0.0342434707818445
 10
-6.44094322543868
 20
0.3472041790685623
 42
0.0565307948098574
 10
-6.425171558110989
 20
0.3318506565252779
 42
0.0551286798504101
 10
-6.399969085663678
 20
0.3164377886212719
 42
0.0552018570309859
 10
-6.372043183113917
 20
0.3069211285777094
 42
0.0545911380789614
 10
-6.342559159364555
 20
0.3036923734427859
 42
0.0545911380789785
 10
-6.313075135615115
 20
0.3069211285771232
 42
0.0552018570309838
 10
-6.285149233065134
 20
0.3164377886201386
 42
0.0551286798503567
 10
-6.259946760617517
 20
0.3318506565236348
 42
0.0565307948099806
 10
-6.24417509328952
 20
0.3472041790666012
 42
0.0342434707819355
 10
-6.223180784366292
 20
0.3767721136667763
 42
0.0798871545249381
 10
-6.214004455099847
 20
0.399125573079651
 42
0.0567757993515583
 10
-6.210059159363198
 20
0.4327882544937189
  0
LWPOLYLINE
  5
40B9
330
1E
100
AcDbEntity
  8
0
  6
HIDDEN
 62
     8
100
AcDbPolyline
 90
       15
 70
     0
 43
0.0
 10
-6.405059159363198
 20
0.4327882544949624
 42
0.056775799351823
 10
-6.403198170808501
 20
0.4169096311863925
 42
0.0798871545250303
 10
-6.398869713607574
 20
0.4063655465576019
 42
0.0342434707810682
 10
-6.388966737700748
 20
0.3924184075950947
 42
0.0565307948091587
 10
-6.381527271980083
 20
0.3851761799803022
 42
0.0551286798505386
 10
-6.369639313278519
 20
0.3779059592708691
 42
0.0552018570310871
 10
-6.356466717736176
 20
0.3734169686842819
 42
0.0545911380789802
 10
-6.34255915936383
 20
0.37189397097913
 42
0.0545911380790021
 10
-6.328651600991464
 20
0.3734169686840048
 42
0.0552018570310251
 10
-6.315479005449042
 20
0.3779059592703256
 42
0.0551286798505224
 10
-6.303591046747314
 20
0.3851761799795277
 42
0.0565307948105653
 10
-6.296151581026557
 20
0.3924184075941568
 42
0.0342434707822047
 10
-6.286248605119376
 20
0.4063655465564828
 42
0.0798871545250922
 10
-6.281920147918235
 20
0.4169096311851703
 42
0.0567757993518863
 10
-6.280059159363198
 20
0.4327882544937189
  0
LINE
  5
40CA
330
1E
100
AcDbEntity
  8
0
100
AcDbLine
 10
-6.475059159363191
 20
0.4327882544937225
 30
0.0
 11
-6.475059159363191
 21
0.7978515812737221
 31
0.0
  0
LWPOLYLINE
  5
40CB
330
1E
100
AcDbEntity
  8
0
100
AcDbPolyline
 90
        7
 70
     0
 43
0.0
 10
-6.475059159363191
 20
0.7978515812737186
 42
0.0178851892600117
 10
-6.475230081596315
 20
0.8026136833782047
 42
0.0313453188581622
 10
-6.475594415582407
 20
0.8053099169606561
 42
0.00444983538997
 10
-6.476358405735347
 20
0.8089681314421213
 42
0.0044365717554913
 10
-6.477189766086582
 20
0.8126230846271785
 42
0.0312513475316837
 10
-6.477983930518612
 20
0.8152365112583411
 42
0.0178582451277121
 10
-6.479814159192848
 20
0.8196487417832614
  0
LWPOLYLINE
  5
40D4
330
1E
100
AcDbEntity
  8
0
  6
HIDDEN
 62
     8
100
AcDbPolyline
 90
        7
 70
     0
 43
0.0
 10
-6.405059159363191
 20
0.7978515812737168
 42
0.0178851892607701
 10
-6.405447618983949
 20
0.808674540602361
 42
0.0313453188573698
 10
-6.406275650770496
 20
0.8148023441985721
 42
0.004449835367702
 10
-6.408011992026765
 20
0.8231164680199399
 42
0.0044365717335188
 10
-6.409901447370899
 20
0.8314231798043004
 42
0.0312513475339767
 10
-6.411706366534652
 20
0.837362785784272
 42
0.0178582451287193
 10
-6.415865977157864
 20
0.8473905824317605
  0
LINE
  5
40DD
330
1E
100
AcDbEntity
  8
0
  6
HIDDEN
 62
     8
100
AcDbLine
 10
-6.405059159363198
 20
0.4327882544937225
 30
0.0
 11
-6.405059159363191
 21
0.7978515812737221
 31
0.0
  0
LWPOLYLINE
  5
40DE
330
1E
100
AcDbEntity
  8
0
100
AcDbPolyline
 90
        7
 70
     0
 43
0.0
 10
-6.210059159363176
 20
0.8237401751192515
 42
0.017885189260748
 10
-6.210665156371555
 20
0.8406239916718832
 42
0.0313453188575785
 10
-6.211956885958571
 20
0.850183365282021
 42
0.0044498353699158
 10
-6.21466557831841
 20
0.8631533984433517
 42
0.0044365717357201
 10
-6.217613128655202
 20
0.8761118688269569
 42
0.0312513475324846
 10
-6.220428802550636
 20
0.8853776541557394
 42
0.0178582451278468
 10
-6.226917795122873
 20
0.9010210169257906
  0
LWPOLYLINE
  5
40E7
330
1E
100
AcDbEntity
  8
0
  6
HIDDEN
 62
     8
100
AcDbPolyline
 90
        7
 70
     0
 43
0.0
 10
-6.280059159363177
 20
0.8237401751192515
 42
0.0178851892600134
 10
-6.280447618983921
 20
0.8345631344479543
 42
0.0313453188555789
 10
-6.281275650770482
 20
0.840690938044105
 42
0.004449835366712
 10
-6.283011992026651
 20
0.8490050618650784
 42
0.0044365717329553
 10
-6.284901447370885
 20
0.8573117736498332
 42
0.0312513475327687
 10
-6.286706366534624
 20
0.8632513796298085
 42
0.0178582451280362
 10
-6.29086597715785
 20
0.8732791762772898
  0
LINE
  5
40F0
330
1E
100
AcDbEntity
  8
0
  6
HIDDEN
 62
     8
100
AcDbLine
 10
-6.280059159363184
 20
0.4327882544937225
 30
0.0
 11
-6.280059159363184
 21
0.823740175119255
 31
0.0
  0
LINE
  5
40F1
330
1E
100
AcDbEntity
  8
0
100
AcDbLine
 10
-6.21005915936319
 20
0.4327882544937225
 30
0.0
 11
-6.210059159363183
 21
0.8237401751192479
 31
0.0
  0
LINE
  5
40F2
330
1E
100
AcDbEntity
  8
0
  6
HIDDEN
 62
     8
100
AcDbLine
 10
-7.094645877177285
 20
0.139999999999997
 30
0.0
 11
-7.094645877177285
 21
0.0700000000000003
 31
0.0
  0
ARC
  5
40F3
330
1E
100
AcDbEntity
  8
0
100
AcDbCircle
 10
-6.289380727572631
 20
3.798571492825333
 30
0.0
 40
0.9379816107271392
100
AcDbArc
 50
184.0159954718427
 51
202.6437944537682
  0
ARC
  5
40F4
330
1E
100
AcDbEntity
  8
0
100
AcDbCircle
 10
-6.306989349433701
 20
3.590997464133482
 30
0.0
 40
0.8483018899929758
100
AcDbArc
 50
178.7598586857698
 51
193.9468090295205
  0
LINE
  5
40F5
330
1E
100
AcDbEntity
  8
0
100
AcDbLine
 10
-5.657164360323229
 20
0.4255423175909634
 30
0.0
 11
-7.155059159363219
 21
3.437447753928481
 31
0.0
  0
LINE
  5
40F6
330
1E
100
AcDbEntity
  8
0
100
AcDbLine
 10
-7.155060945049877
 20
6.850135827648208
 30
0.0
 11
-7.225059159363246
 21
6.850135827648208
 31
0.0
  0
LINE
  5
40F7
330
1E
100
AcDbEntity
  8
0
100
AcDbLine
 10
-7.155065684410573
 20
6.363979047542651
 30
0.0
 11
-7.225059159363243
 21
6.363979047542651
 31
0.0
  0
ENDSEC
  0
SECTION
  2
OBJECTS
  0
DICTIONARY
  5
C
330
0
100
AcDbDictionary
281
     1
  3
ACAD_COLOR
350
691
  3
ACAD_GROUP
350
D
  3
ACAD_LAYOUT
350
19
  3
ACAD_MATERIAL
350
690
  3
ACAD_MLINESTYLE
350
16
  3
ACAD_PLOTSETTINGS
350
18
  3
ACAD_PLOTSTYLENAME
350
E
  3
ACAD_TABLESTYLE
350
692
  3
AcadDim
350
378E
  3
ACDBHEADERROUNDTRIPXREC
350
410A
  3
AcDbVariableDictionary
350
A9D
  3
ASE_INDEX_DICTIONARY
350
40F9
  0
DICTIONARY
  5
A01
330
2
100
AcDbDictionary
280
     1
281
     1
  3
ACAD_LAYERFILTERS
360
2B41
  3
ACAD_LAYERSTATES
360
A02
  3
ACLYDICTIONARY
360
2B40
  0
DICTIONARY
  5
4EE
330
1E
100
AcDbDictionary
280
     1
281
     1
  3
ACAD_SORTENTS
360
1BD2
  0
DICTIONARY
  5
691
102
{ACAD_REACTORS
330
C
102
}
330
C
100
AcDbDictionary
281
     1
  0
DICTIONARY
  5
D
102
{ACAD_REACTORS
330
C
102
}
330
C
100
AcDbDictionary
281
     1
  0
DICTIONARY
  5
19
102
{ACAD_REACTORS
330
C
102
}
330
C
100
AcDbDictionary
281
     1
  3
Layout1
350
1D
  3
Model
350
21
  0
DICTIONARY
  5
690
102
{ACAD_REACTORS
330
C
102
}
330
C
100
AcDbDictionary
281
     1
  0
DICTIONARY
  5
16
102
{ACAD_REACTORS
330
C
102
}
330
C
100
AcDbDictionary
281
     1
  3
Standard
350
17
  0
DICTIONARY
  5
18
102
{ACAD_REACTORS
330
C
102
}
330
C
100
AcDbDictionary
281
     1
  0
ACDBDICTIONARYWDFLT
  5
E
102
{ACAD_REACTORS
330
C
102
}
330
C
100
AcDbDictionary
281
     1
  3
Normal
350
F
100
AcDbDictionaryWithDefault
340
F
  0
DICTIONARY
  5
692
102
{ACAD_REACTORS
330
C
102
}
330
C
100
AcDbDictionary
281
     1
  3
Standard
350
693
  0
XRECORD
  5
378E
102
{ACAD_REACTORS
330
C
102
}
330
C
100
AcDbXrecord
280
     1
 90
   990106
  3

 60
     0
 61
     0
 62
     1
 63
     3
 64
     0
 65
     0
 66
     0
 67
     3
 68
     1
 69
     0
 70
     0
 71
     0
 72
     0
 40
0.0
170
     0
340
0
  0
DICTIONARY
  5
410A
102
{ACAD_REACTORS
330
C
102
}
330
C
100
AcDbDictionary
281
     1
  3
COLORDICT
350
410B
  3
MATERIALDICT
350
410C
  0
DICTIONARY
  5
A9D
102
{ACAD_REACTORS
330
C
102
}
330
C
100
AcDbDictionary
281
     1
  3
CTABLESTYLE
350
A9E
  3
DIMASSOC
350
A9F
  0
DICTIONARY
  5
40F9
102
{ACAD_REACTORS
330
C
102
}
330
C
100
AcDbDictionary
281
     1
  3
ASEBlockHierarchyIndexRecord
350
40FB
1001
DCO15
1040
1650279701.856
  0
DICTIONARY
  5
2B41
102
{ACAD_REACTORS
330
A01
102
}
330
A01
100
AcDbDictionary
281
     1
  0
DICTIONARY
  5
A02
102
{ACAD_REACTORS
330
A01
102
}
330
A01
100
AcDbDictionary
281
     1
  0
DICTIONARY
  5
2B40
102
{ACAD_REACTORS
330
A01
102
}
330
A01
100
AcDbDictionary
281
     1
1001
ACAD
1000
<All
  0
SORTENTSTABLE
  5
1BD2
102
{ACAD_REACTORS
330
4EE
102
}
330
4EE
100
AcDbSortentsTable
330
1E
331
0
  5
1BC6
331
2880
  5
2880
331
2881
  5
2881
331
29D4
  5
29D4
331
2996
  5
2996
331
299C
  5
299C
331
2761
  5
2761
331
2797
  5
2797
331
2869
  5
2869
331
28A4
  5
28A4
331
294D
  5
294D
331
294E
  5
294E
331
294F
  5
294F
331
2885
  5
2885
331
2886
  5
2886
331
27E1
  5
27E1
331
27E2
  5
27E2
331
2802
  5
2802
331
27F2
  5
27F2
331
27F3
  5
27F3
331
2A02
  5
2A02
331
2A0B
  5
2A0B
331
2A0C
  5
2A0C
331
2887
  5
2887
331
2888
  5
2888
331
27C2
  5
27C2
331
27F1
  5
27F1
331
2799
  5
2799
331
27DE
  5
27DE
331
2774
  5
2774
331
27A3
  5
27A3
331
29C3
  5
29C3
331
279E
  5
279E
331
285D
  5
285D
331
27A0
  5
27A0
331
2789
  5
2789
331
279D
  5
279D
331
2791
  5
2791
331
2772
  5
2772
331
285C
  5
285C
331
2868
  5
2868
331
28B6
  5
28B6
331
279F
  5
279F
331
287D
  5
287D
331
2796
  5
2796
331
2773
  5
2773
331
27EF
  5
27EF
331
276A
  5
276A
331
28C7
  5
28C7
331
2770
  5
2770
331
27D0
  5
27D0
331
2897
  5
2897
331
2898
  5
2898
331
2961
  5
2961
331
2962
  5
2962
331
2963
  5
2963
331
296C
  5
296C
331
296D
  5
296D
331
296E
  5
296E
331
296F
  5
296F
331
2792
  5
2792
331
27C3
  5
27C3
331
2889
  5
2889
331
288A
  5
288A
331
2793
  5
2793
331
2933
  5
2933
331
2795
  5
2795
331
279C
  5
279C
331
277C
  5
277C
331
278D
  5
278D
331
277B
  5
277B
331
278B
  5
278B
331
27A2
  5
27A2
331
27B4
  5
27B4
331
2765
  5
2765
331
2760
  5
2760
331
2777
  5
2777
331
28D8
  5
28D8
331
2776
  5
2776
331
277A
  5
277A
331
27B3
  5
27B3
331
278E
  5
278E
331
2794
  5
2794
331
2917
  5
2917
331
2918
  5
2918
331
2919
  5
2919
331
291A
  5
291A
331
291B
  5
291B
331
291C
  5
291C
331
27B6
  5
27B6
331
280F
  5
280F
331
276D
  5
276D
331
276F
  5
276F
331
29B2
  5
29B2
331
298F
  5
298F
331
2990
  5
2990
331
278A
  5
278A
331
2896
  5
2896
331
27E3
  5
27E3
331
2764
  5
2764
331
299D
  5
299D
331
299E
  5
299E
331
299F
  5
299F
331
29A0
  5
29A0
331
29A1
  5
29A1
331
27DF
  5
27DF
331
2771
  5
2771
331
27B2
  5
27B2
331
2763
  5
2763
331
27F0
  5
27F0
331
2B42
  5
2B42
331
2BD0
  5
2BD0
331
2BFD
  5
2BFD
331
2C18
  5
2C18
331
2C1C
  5
2C1C
331
3609
  5
3609
331
360A
  5
360A
331
3611
  5
3611
331
3733
  5
3733
331
2928
  5
2928
331
2929
  5
2929
331
292A
  5
292A
331
2873
  5
2873
331
297B
  5
297B
331
297C
  5
297C
331
297F
  5
297F
331
2980
  5
2980
331
298D
  5
298D
331
298E
  5
298E
331
2842
  5
2842
331
2801
  5
2801
331
2775
  5
2775
331
2882
  5
2882
331
4DD
  5
4DD
331
278C
  5
278C
331
276B
  5
276B
331
27D1
  5
27D1
331
29EF
  5
29EF
331
29F8
  5
29F8
331
29F9
  5
29F9
331
2785
  5
2785
331
2766
  5
2766
331
2787
  5
2787
331
27A4
  5
27A4
331
2762
  5
2762
331
28A5
  5
28A5
331
2912
  5
2912
331
2913
  5
2913
331
2914
  5
2914
331
2915
  5
2915
331
2916
  5
2916
331
2925
  5
2925
331
2926
  5
2926
331
2927
  5
2927
331
2769
  5
2769
331
2786
  5
2786
331
2820
  5
2820
331
27E0
  5
27E0
331
2788
  5
2788
331
2790
  5
2790
331
27E5
  5
27E5
331
2970
  5
2970
331
2972
  5
2972
331
2973
  5
2973
331
2974
  5
2974
331
2976
  5
2976
331
2979
  5
2979
331
297A
  5
297A
331
2779
  5
2779
331
27B5
  5
27B5
331
27D2
  5
27D2
331
27B0
  5
27B0
331
28F2
  5
28F2
331
28F3
  5
28F3
331
28F4
  5
28F4
331
28FE
  5
28FE
331
28FF
  5
28FF
331
285E
  5
285E
331
2800
  5
2800
331
279A
  5
279A
331
276C
  5
276C
331
278F
  5
278F
331
294C
  5
294C
331
279B
  5
279B
331
27B1
  5
27B1
331
27F4
  5
27F4
331
2767
  5
2767
331
27A1
  5
27A1
331
2908
  5
2908
331
2909
  5
2909
331
287C
  5
287C
331
2831
  5
2831
331
27C4
  5
27C4
331
2883
  5
2883
331
2884
  5
2884
331
29E5
  5
29E5
331
29E6
  5
29E6
331
2872
  5
2872
331
27E6
  5
27E6
331
287E
  5
287E
331
287F
  5
287F
331
27E4
  5
27E4
331
295B
  5
295B
331
295C
  5
295C
331
295D
  5
295D
331
295F
  5
295F
331
2960
  5
2960
331
293C
  5
293C
331
293E
  5
293E
331
293F
  5
293F
331
2940
  5
2940
331
280E
  5
280E
  0
LAYOUT
  5
1D
102
{ACAD_REACTORS
330
19
102
}
102
{ACAD_XDICTIONARY
360
410D
102
}
330
19
100
AcDbPlotSettings
  1

  2
Fax
  4

  6

 40
0.0
 41
0.0
 42
0.0
 43
0.0
 44
0.0
 45
0.0
 46
0.0
 47
0.0
 48
0.0
 49
0.0
140
0.0
141
0.0
142
1.0
143
1.0
 70
   688
 72
     0
 73
     0
 74
     5
  7
monochrome.ctb
 75
    16
147
1.0
148
0.0
149
0.0
100
AcDbLayout
  1
Layout1
 70
     0
 71
     1
 10
0.0
 20
0.0
 11
12.0
 21
9.0
 12
0.0
 22
0.0
 32
0.0
 14
1.000000000000000E+20
 24
1.000000000000000E+20
 34
1.000000000000000E+20
 15
-1.000000000000000E+20
 25
-1.000000000000000E+20
 35
-1.000000000000000E+20
146
0.0
 13
0.0
 23
0.0
 33
0.0
 16
1.0
 26
0.0
 36
0.0
 17
0.0
 27
1.0
 37
0.0
 76
     0
330
1A
  0
LAYOUT
  5
21
102
{ACAD_REACTORS
330
19
102
}
102
{ACAD_XDICTIONARY
360
410F
102
}
330
19
100
AcDbPlotSettings
  1

  2
HP LaserJet 2100 Series PS
  4
Letter
  6

 40
5.365749835968018
 41
5.408073902130127
 42
5.132904052734375
 43
5.090576171875
 44
215.8999938964844
 45
279.3999938964844
 46
0.0
 47
0.0
 48
0.0
 49
0.0
140
0.0
141
0.0
142
1.0
143
1.984053267717587
 70
 11952
 72
     0
 73
     2
 74
     1
  7
monochrome.ctb
 75
     0
147
0.5040187258431721
148
0.0241725331186814
149
0.6847921724481011
100
AcDbLayout
  1
Model
 70
     1
 71
     0
 10
0.0
 20
0.0
 11
12.0
 21
9.0
 12
0.0
 22
0.0
 32
0.0
 14
0.0
 24
0.0
 34
0.0
 15
0.0
 25
0.0
 35
0.0
146
0.0
 13
0.0
 23
0.0
 33
0.0
 16
1.0
 26
0.0
 36
0.0
 17
0.0
 27
1.0
 37
0.0
 76
     0
330
1E
1001
ACAD_PSEXT
1000
HP LaserJet 2100 Series PS
1000
HP LaserJet 2100 Series PS
1000
LPT1:
1000

1070
     0
  0
MLINESTYLE
  5
17
102
{ACAD_REACTORS
330
16
102
}
330
16
100
AcDbMlineStyle
  2
STANDARD
 70
     0
  3

 62
   256
 51
90.0
 52
90.0
 71
     2
 49
0.5
 62
   256
  6
BYLAYER
 49
-0.5
 62
   256
  6
BYLAYER
  0
ACDBPLACEHOLDER
  5
F
102
{ACAD_REACTORS
330
E
102
}
330
E
  0
ACAD_PROXY_OBJECT
  5
693
102
{ACAD_REACTORS
330
692
102
}
330
692
100
AcDbProxyObject
 90
      499
 91
      519
 95
   983063
 70
     0
 93
     1841
310
4214DD185B99185C9928B81E85EB51B8AE3F2E07A17AD46E2B8FC02B5E8DC0F42B1CFD028000000C1008070000C3001FDFF8000000C1003FBFF000000182007F7FE00000030400FEFFC00000060801FDFF8000000C1003FBFF00000018200000000000000681FA0B0000001820100E000186003FBFF000000182007F7FE000
310
00030400FEFFC00000060801FDFF8000000C1003FBFF000000182007F7FE000000304000AD7A3703D0AC73F4160000003040201C00030C007F7FE00000030400FEFFC00000060801FDFF8000000C1003FBFF000000182007F7FE00000030400FEFFC000000608000
340
11
340
11
340
11
 94
        0
  0
XRECORD
  5
410B
102
{ACAD_REACTORS
330
410A
102
}
330
410A
100
AcDbXrecord
340
691
  0
XRECORD
  5
410C
102
{ACAD_REACTORS
330
410A
102
}
330
410A
100
AcDbXrecord
340
690
  0
DICTIONARYVAR
  5
A9E
102
{ACAD_REACTORS
330
A9D
102
}
330
A9D
100
DictionaryVariables
280
     0
  1
STANDARD
  0
DICTIONARYVAR
  5
A9F
102
{ACAD_REACTORS
330
A9D
102
}
330
A9D
100
DictionaryVariables
280
     0
  1
2
  0
XRECORD
  5
40FB
102
{ACAD_REACTORS
330
40F9
102
}
330
40F9
100
AcDbXrecord
280
     1
  0
DICTIONARY
  5
410D
330
1D
100
AcDbDictionary
280
     1
281
     1
  3
ACAD_XREC_ROUNDTRIP
360
410E
  0
DICTIONARY
  5
410F
330
21
100
AcDbDictionary
280
     1
281
     1
  3
ACAD_XREC_ROUNDTRIP
360
4110
  0
XRECORD
  5
410E
102
{ACAD_REACTORS
330
410D
102
}
330
410D
100
AcDbXrecord
102
SHADEPLOT
 70
     0
102
SHADEPLOTRESLEVEL
 70
     2
102
SHADEPLOTCUSTOMDPI
 70
   300
  0
XRECORD
  5
4110
102
{ACAD_REACTORS
330
410F
102
}
330
410F
100
AcDbXrecord
102
SHADEPLOT
 70
     0
102
SHADEPLOTRESLEVEL
 70
     2
102
SHADEPLOTCUSTOMDPI
 70
   300
  0
ENDSEC
  0
EOF
