  0
SECTION
  2
HEADER
  9
$ACADVER
  1
AC1015
  9
$ACADMAINTVER
 70
     6
  9
$DWGCODEPAGE
  3
ANSI_1252
  9
$INSBASE
 10
0.0
 20
0.0
 30
0.0
  9
$EXTMIN
 10
-1.626624944643879
 20
-0.0050028302081202
 30
-0.0000000000112498
  9
$EXTMAX
 10
8.747968119453986
 20
8.250616786293726
 30
0.0000000000002956
  9
$LIMMIN
 10
0.0
 20
0.0
  9
$LIMMAX
 10
21.00000000000053
 20
15.61216552679092
  9
$ORTHOMODE
 70
     1
  9
$REGENMODE
 70
     1
  9
$FILLMODE
 70
     1
  9
$QTEXTMODE
 70
     0
  9
$MIRRTEXT
 70
     1
  9
$LTSCALE
 40
1.0
  9
$ATTMODE
 70
     1
  9
$TEXTSIZE
 40
0.18
  9
$TRACEWID
 40
0.05
  9
$TEXTSTYLE
  7
STANDARD
  9
$CLAYER
  8
0
  9
$CELTYPE
  6
BYLAYER
  9
$CECOLOR
 62
   256
  9
$CELTSCALE
 40
1.0
  9
$DISPSILH
 70
     0
  9
$DIMSCALE
 40
1.0
  9
$DIMASZ
 40
0.250000000000005
  9
$DIMEXO
 40
0.062
  9
$DIMDLI
 40
0.375
  9
$DIMRND
 40
0.0
  9
$DIMDLE
 40
0.0
  9
$DIMEXE
 40
0.160000000000004
  9
$DIMTP
 40
0.0
  9
$DIMTM
 40
0.0
  9
$DIMTXT
 40
0.180000000000004
  9
$DIMCEN
 40
-0.06
  9
$DIMTSZ
 40
0.0
  9
$DIMTOL
 70
     0
  9
$DIMLIM
 70
     0
  9
$DIMTIH
 70
     1
  9
$DIMTOH
 70
     1
  9
$DIMSE1
 70
     0
  9
$DIMSE2
 70
     0
  9
$DIMTAD
 70
     0
  9
$DIMZIN
 70
     0
  9
$DIMBLK
  1

  9
$DIMASO
 70
     0
  9
$DIMSHO
 70
     0
  9
$DIMPOST
  1

  9
$DIMAPOST
  1

  9
$DIMALT
 70
     0
  9
$DIMALTD
 70
     2
  9
$DIMALTF
 40
25.4
  9
$DIMLFAC
 40
1.0
  9
$DIMTOFL
 70
     0
  9
$DIMTVP
 40
0.0
  9
$DIMTIX
 70
     0
  9
$DIMSOXD
 70
     0
  9
$DIMSAH
 70
     0
  9
$DIMBLK1
  1

  9
$DIMBLK2
  1

  9
$DIMSTYLE
  2
STANDARD
  9
$DIMCLRD
 70
     0
  9
$DIMCLRE
 70
     0
  9
$DIMCLRT
 70
     0
  9
$DIMTFAC
 40
1.0
  9
$DIMGAP
 40
0.09
  9
$DIMJUST
 70
     0
  9
$DIMSD1
 70
     0
  9
$DIMSD2
 70
     0
  9
$DIMTOLJ
 70
     1
  9
$DIMTZIN
 70
     0
  9
$DIMALTZ
 70
     0
  9
$DIMALTTZ
 70
     0
  9
$DIMUPT
 70
     0
  9
$DIMDEC
 70
     5
  9
$DIMTDEC
 70
     5
  9
$DIMALTU
 70
     2
  9
$DIMALTTD
 70
     2
  9
$DIMTXSTY
  7
STANDARD
  9
$DIMAUNIT
 70
     0
  9
$DIMADEC
 70
     0
  9
$DIMALTRND
 40
0.0
  9
$DIMAZIN
 70
     0
  9
$DIMDSEP
 70
    46
  9
$DIMATFIT
 70
     3
  9
$DIMFRAC
 70
     2
  9
$DIMLDRBLK
  1

  9
$DIMLUNIT
 70
     5
  9
$DIMLWD
 70
    -2
  9
$DIMLWE
 70
    -2
  9
$DIMTMOVE
 70
     2
  9
$LUNITS
 70
     2
  9
$LUPREC
 70
     3
  9
$SKETCHINC
 40
0.1
  9
$FILLETRAD
 40
0.05
  9
$AUNITS
 70
     0
  9
$AUPREC
 70
     0
  9
$MENU
  1
ACAD
  9
$ELEVATION
 40
0.0
  9
$PELEVATION
 40
0.0
  9
$THICKNESS
 40
0.0
  9
$LIMCHECK
 70
     0
  9
$CHAMFERA
 40
0.0
  9
$CHAMFERB
 40
0.0
  9
$CHAMFERC
 40
0.0
  9
$CHAMFERD
 40
0.0
  9
$SKPOLY
 70
     0
  9
$TDCREATE
 40
2449021.767420139
  9
$TDUCREATE
 40
2449022.100753472
  9
$TDUPDATE
 40
2454162.831477616
  9
$TDUUPDATE
 40
2454163.164810949
  9
$TDINDWG
 40
0.1887823148
  9
$TDUSRTIMER
 40
0.1887823148
  9
$USRTIMER
 70
     1
  9
$ANGBASE
 50
0.0
  9
$ANGDIR
 70
     0
  9
$PDMODE
 70
     0
  9
$PDSIZE
 40
0.0
  9
$PLINEWID
 40
0.0
  9
$SPLFRAME
 70
     0
  9
$SPLINETYPE
 70
     6
  9
$SPLINESEGS
 70
     8
  9
$HANDSEED
  5
2FA
  9
$SURFTAB1
 70
     6
  9
$SURFTAB2
 70
     6
  9
$SURFTYPE
 70
     6
  9
$SURFU
 70
     6
  9
$SURFV
 70
     6
  9
$UCSBASE
  2

  9
$UCSNAME
  2

  9
$UCSORG
 10
0.0
 20
0.0
 30
0.0
  9
$UCSXDIR
 10
1.0
 20
0.0
 30
0.0
  9
$UCSYDIR
 10
0.0
 20
1.0
 30
0.0
  9
$UCSORTHOREF
  2

  9
$UCSORTHOVIEW
 70
     0
  9
$UCSORGTOP
 10
0.0
 20
0.0
 30
0.0
  9
$UCSORGBOTTOM
 10
0.0
 20
0.0
 30
0.0
  9
$UCSORGLEFT
 10
0.0
 20
0.0
 30
0.0
  9
$UCSORGRIGHT
 10
0.0
 20
0.0
 30
0.0
  9
$UCSORGFRONT
 10
0.0
 20
0.0
 30
0.0
  9
$UCSORGBACK
 10
0.0
 20
0.0
 30
0.0
  9
$PUCSBASE
  2

  9
$PUCSNAME
  2

  9
$PUCSORG
 10
0.0
 20
0.0
 30
0.0
  9
$PUCSXDIR
 10
1.0
 20
0.0
 30
0.0
  9
$PUCSYDIR
 10
0.0
 20
1.0
 30
0.0
  9
$PUCSORTHOREF
  2

  9
$PUCSORTHOVIEW
 70
     0
  9
$PUCSORGTOP
 10
0.0
 20
0.0
 30
0.0
  9
$PUCSORGBOTTOM
 10
0.0
 20
0.0
 30
0.0
  9
$PUCSORGLEFT
 10
0.0
 20
0.0
 30
0.0
  9
$PUCSORGRIGHT
 10
0.0
 20
0.0
 30
0.0
  9
$PUCSORGFRONT
 10
0.0
 20
0.0
 30
0.0
  9
$PUCSORGBACK
 10
0.0
 20
0.0
 30
0.0
  9
$USERI1
 70
     0
  9
$USERI2
 70
     0
  9
$USERI3
 70
     0
  9
$USERI4
 70
     0
  9
$USERI5
 70
     0
  9
$USERR1
 40
0.0
  9
$USERR2
 40
0.0
  9
$USERR3
 40
0.0
  9
$USERR4
 40
0.0
  9
$USERR5
 40
0.0
  9
$WORLDVIEW
 70
     1
  9
$SHADEDGE
 70
     3
  9
$SHADEDIF
 70
    70
  9
$TILEMODE
 70
     1
  9
$MAXACTVP
 70
    16
  9
$PINSBASE
 10
0.0
 20
0.0
 30
0.0
  9
$PLIMCHECK
 70
     0
  9
$PEXTMIN
 10
1.000000000000000E+20
 20
1.000000000000000E+20
 30
1.000000000000000E+20
  9
$PEXTMAX
 10
-1.000000000000000E+20
 20
-1.000000000000000E+20
 30
-1.000000000000000E+20
  9
$PLIMMIN
 10
0.0
 20
0.0
  9
$PLIMMAX
 10
12.0
 20
9.0
  9
$UNITMODE
 70
     0
  9
$VISRETAIN
 70
     0
  9
$PLINEGEN
 70
     1
  9
$PSLTSCALE
 70
     0
  9
$TREEDEPTH
 70
  3020
  9
$CMLSTYLE
  2
STANDARD
  9
$CMLJUST
 70
     0
  9
$CMLSCALE
 40
1.0
  9
$PROXYGRAPHICS
 70
     1
  9
$MEASUREMENT
 70
     0
  9
$CELWEIGHT
370
    -1
  9
$ENDCAPS
280
     0
  9
$JOINSTYLE
280
     0
  9
$LWDISPLAY
290
     0
  9
$INSUNITS
 70
     0
  9
$HYPERLINKBASE
  1

  9
$STYLESHEET
  1

  9
$XEDIT
290
     1
  9
$CEPSNTYPE
380
     0
  9
$PSTYLEMODE
290
     1
  9
$FINGERPRINTGUID
  2
{7F5DA417-9279-4C18-924D-BD44579AE668}
  9
$VERSIONGUID
  2
{96CC5B8F-7E29-44D2-92F9-F23136ACF05F}
  9
$EXTNAMES
290
     1
  9
$PSVPSCALE
 40
0.0
  9
$OLESTARTUP
290
     0
  0
ENDSEC
  0
SECTION
  2
CLASSES
  0
CLASS
  1
DICTIONARYVAR
  2
AcDbDictionaryVar
  3
AutoCAD 2000
 90
        0
280
     0
281
     0
  0
CLASS
  1
LWPOLYLINE
  2
AcDbPolyline
  3
AutoCAD 2000
 90
        0
280
     0
281
     1
  0
CLASS
  1
ACDBDICTIONARYWDFLT
  2
AcDbDictionaryWithDefault
  3
AutoCAD 2000
 90
        0
280
     0
281
     0
  0
CLASS
  1
ACDBPLACEHOLDER
  2
AcDbPlaceHolder
  3
ObjectDBX Classes
 90
        0
280
     0
281
     0
  0
CLASS
  1
LAYOUT
  2
AcDbLayout
  3
ObjectDBX Classes
 90
        0
280
     0
281
     0
  0
CLASS
  1
TABLESTYLE
  2
AcDbTableStyle
  3
ObjectDBX Classes
 90
     2047
280
     1
281
     0
  0
CLASS
  1
SORTENTSTABLE
  2
AcDbSortentsTable
  3
AutoCAD 2000
 90
        0
280
     0
281
     0
  0
ENDSEC
  0
SECTION
  2
TABLES
  0
TABLE
  2
VPORT
  5
19
330
0
100
AcDbSymbolTable
 70
     4
  0
VPORT
  5
2EA
330
19
100
AcDbSymbolTableRecord
100
AcDbViewportTableRecord
  2
*Active
 70
     0
 10
0.0
 20
0.0
 11
1.0
 21
1.0
 12
9.719629102113309
 22
6.683566330264233
 13
0.0
 23
0.0
 14
0.0625
 24
0.0625
 15
0.25
 25
0.25
 16
0.0
 26
0.0
 36
1.0
 17
0.0
 27
0.0
 37
0.0
 40
15.8119771407928
 41
1.814583333333333
 42
50.0
 43
0.0
 44
0.0
 50
0.0
 51
0.0
 71
     0
 72
   100
 73
     1
 74
     1
 75
     0
 76
     0
 77
     0
 78
     0
281
     0
 65
     1
110
0.0
120
0.0
130
0.0
111
1.0
121
0.0
131
0.0
112
0.0
122
1.0
132
0.0
 79
     0
146
0.0
  0
ENDTAB
  0
TABLE
  2
LTYPE
  5
14
330
0
100
AcDbSymbolTable
 70
     2
  0
LTYPE
  5
15
330
14
100
AcDbSymbolTableRecord
100
AcDbLinetypeTableRecord
  2
BYBLOCK
 70
     0
  3

 72
    65
 73
     0
 40
0.0
  0
LTYPE
  5
16
330
14
100
AcDbSymbolTableRecord
100
AcDbLinetypeTableRecord
  2
BYLAYER
 70
     0
  3

 72
    65
 73
     0
 40
0.0
  0
LTYPE
  5
8
330
14
100
AcDbSymbolTableRecord
100
AcDbLinetypeTableRecord
  2
CONTINUOUS
 70
     0
  3
Solid line
 72
    65
 73
     0
 40
0.0
  0
LTYPE
  5
2D8
330
14
100
AcDbSymbolTableRecord
100
AcDbLinetypeTableRecord
  2
HIDDEN
 70
     0
  3
Hidden __ __ __ __ __ __ __ __ __ __ __ __ __ _
 72
    65
 73
     2
 40
0.375
 49
0.25
 74
     0
 49
-0.125
 74
     0
  0
ENDTAB
  0
TABLE
  2
LAYER
  5
10
330
0
100
AcDbSymbolTable
 70
     1
  0
LAYER
  5
4
330
10
100
AcDbSymbolTableRecord
100
AcDbLayerTableRecord
  2
0
 70
     0
 62
     7
  6
CONTINUOUS
370
    -3
390
5
  0
ENDTAB
  0
TABLE
  2
STYLE
  5
11
330
0
100
AcDbSymbolTable
 70
     2
  0
STYLE
  5
12
330
11
100
AcDbSymbolTableRecord
100
AcDbTextStyleTableRecord
  2
STANDARD
 70
     0
 40
0.0
 41
1.0
 50
0.0
 71
     0
 42
0.18
  3
TXT
  4

  0
STYLE
  5
2D7
330
11
100
AcDbSymbolTableRecord
100
AcDbTextStyleTableRecord
  2

 70
     1
 40
0.0
 41
1.0
 50
0.0
 71
     0
 42
0.18
  3
ltypeshp.shx
  4

  0
ENDTAB
  0
TABLE
  2
VIEW
  5
17
330
0
100
AcDbSymbolTable
 70
     0
  0
ENDTAB
  0
TABLE
  2
UCS
  5
18
330
0
100
AcDbSymbolTable
 70
     0
  0
ENDTAB
  0
TABLE
  2
APPID
  5
1B
330
0
100
AcDbSymbolTable
 70
     1
  0
APPID
  5
1C
330
1B
100
AcDbSymbolTableRecord
100
AcDbRegAppTableRecord
  2
ACAD
 70
     0
  0
ENDTAB
  0
TABLE
  2
DIMSTYLE
  5
1D
330
0
100
AcDbSymbolTable
 70
     1
100
AcDbDimStyleTable
  0
DIMSTYLE
105
1E
330
1D
100
AcDbSymbolTableRecord
100
AcDbDimStyleTableRecord
  2
STANDARD
 70
     0
  3

  4

340
12
  0
ENDTAB
  0
TABLE
  2
BLOCK_RECORD
  5
1
330
0
100
AcDbSymbolTable
 70
     0
  0
BLOCK_RECORD
  5
2
102
{ACAD_XDICTIONARY
360
2D4
102
}
330
1
100
AcDbSymbolTableRecord
100
AcDbBlockTableRecord
  2
*MODEL_SPACE
340
A
  0
BLOCK_RECORD
  5
C
330
1
100
AcDbSymbolTableRecord
100
AcDbBlockTableRecord
  2
*PAPER_SPACE
340
F
  0
ENDTAB
  0
ENDSEC
  0
SECTION
  2
BLOCKS
  0
BLOCK
  5
3
330
2
100
AcDbEntity
  8
0
100
AcDbBlockBegin
  2
*MODEL_SPACE
 70
     0
 10
0.0
 20
0.0
 30
0.0
  3
*MODEL_SPACE
  1

  4

  0
ENDBLK
  5
9
330
2
100
AcDbEntity
  8
0
100
AcDbBlockEnd
  0
BLOCK
  5
D
330
C
100
AcDbEntity
 67
     1
  8
0
100
AcDbBlockBegin
  2
*PAPER_SPACE
 70
     0
 10
0.0
 20
0.0
 30
0.0
  3
*PAPER_SPACE
  1

  4

  0
ENDBLK
  5
E
330
C
100
AcDbEntity
 67
     1
  8
0
100
AcDbBlockEnd
  0
ENDSEC
  0
SECTION
  2
ENTITIES
  0
LINE
  5
27
330
2
100
AcDbEntity
  8
0
100
AcDbLine
 10
0.2598027005364525
 20
4.555548662464704
 30
0.0
 11
0.2598027005364525
 21
4.073548662464704
 31
0.0
  0
LINE
  5
29
330
2
100
AcDbEntity
  8
0
100
AcDbLine
 10
0.5196103216717862
 20
4.555548662464704
 30
0.0
 11
0.5196103216717862
 21
4.073548662464704
 31
0.0
  0
LINE
  5
2A
330
2
100
AcDbEntity
  8
0
100
AcDbLine
 10
-0.2598125417342114
 20
4.555548662464704
 30
0.0
 11
-0.2598125417342114
 21
4.073548662464704
 31
0.0
  0
LINE
  5
2B
330
2
100
AcDbEntity
  8
0
100
AcDbLine
 10
-0.5196201628695398
 20
4.555548662464704
 30
0.0
 11
-0.5196201628695398
 21
4.073548662464704
 31
0.0
  0
LINE
  5
30
330
2
100
AcDbEntity
  8
0
100
AcDbLine
 10
0.3906200794011188
 20
1.704545454545455
 30
0.0
 11
0.2922081016983444
 21
1.761363636363635
 31
0.0
  0
LINE
  5
31
330
2
100
AcDbEntity
  8
0
100
AcDbLine
 10
-0.2922179428961034
 20
1.704551136363639
 30
0.0
 11
-0.3906299205988795
 21
1.761369318181819
 31
0.0
  0
LINE
  5
32
330
2
100
AcDbEntity
  8
0
100
AcDbLine
 10
-0.2922179428961034
 20
1.704551136363639
 30
0.0
 11
0.2922081016983444
 21
1.761363636363635
 31
0.0
  0
LINE
  5
33
330
2
100
AcDbEntity
  8
0
100
AcDbLine
 10
0.3906200794011152
 20
0.5681818181818201
 30
0.0
 11
-0.3906299205988848
 21
0.5113693181818189
 31
0.0
  0
LINE
  5
34
330
2
100
AcDbEntity
  8
0
100
AcDbLine
 10
-0.3906299205988848
 20
0.5113693181818189
 30
0.0
 11
-0.2922179428961087
 21
0.5681875000000005
 31
0.0
  0
LINE
  5
35
330
2
100
AcDbEntity
  8
0
100
AcDbLine
 10
0.2922081016983391
 20
0.5113636363636385
 30
0.0
 11
0.3906200794011152
 21
0.5681818181818183
 31
0.0
  0
LINE
  5
36
330
2
100
AcDbEntity
  8
0
100
AcDbLine
 10
-0.2922179428961087
 20
0.0000056818181804
 30
0.0
 11
0.2922081016983391
 21
0.0568181818181817
 31
0.0
  0
LINE
  5
37
330
2
100
AcDbEntity
  8
0
100
AcDbLine
 10
-0.2922081016983391
 20
0.0
 30
0.0
 11
0.2922081016983391
 21
0.0
 31
0.0
  0
LINE
  5
38
330
2
100
AcDbEntity
  8
0
100
AcDbLine
 10
-0.2922179428961087
 20
0.227278409090907
 30
0.0
 11
0.2922081016983391
 21
0.2840909090909083
 31
0.0
  0
LINE
  5
39
330
2
100
AcDbEntity
  8
0
100
AcDbLine
 10
-0.2922179428961087
 20
0.1136420454545455
 30
0.0
 11
0.2922081016983391
 21
0.1704545454545432
 31
0.0
  0
LINE
  5
3A
330
2
100
AcDbEntity
  8
0
100
AcDbLine
 10
-0.2922179428961087
 20
0.4545511363636354
 30
0.0
 11
0.2922081016983391
 21
0.5113636363636385
 31
0.0
  0
LINE
  5
3B
330
2
100
AcDbEntity
  8
0
100
AcDbLine
 10
-0.2922179428961087
 20
0.3409147727272757
 30
0.0
 11
0.2922081016983391
 21
0.3977272727272716
 31
0.0
  0
LINE
  5
3C
330
2
100
AcDbEntity
  8
0
100
AcDbLine
 10
0.3906200794011152
 20
0.454545454545455
 30
0.0
 11
-0.3906299205988848
 21
0.3977329545454555
 31
0.0
  0
LINE
  5
3D
330
2
100
AcDbEntity
  8
0
100
AcDbLine
 10
0.3906200794011152
 20
0.3409090909090917
 30
0.0
 11
-0.3906299205988848
 21
0.2840965909090922
 31
0.0
  0
LINE
  5
3E
330
2
100
AcDbEntity
  8
0
100
AcDbLine
 10
0.3906200794011152
 20
0.2272727272727266
 30
0.0
 11
-0.3906299205988848
 21
0.1704602272727254
 31
0.0
  0
LINE
  5
3F
330
2
100
AcDbEntity
  8
0
100
AcDbLine
 10
0.3906200794011152
 20
0.1136363636363615
 30
0.0
 11
-0.3642578737068813
 21
0.0720497720085422
 31
0.0
  0
LINE
  5
40
330
2
100
AcDbEntity
  8
0
100
AcDbLine
 10
-0.3906299205988848
 20
0.1704602272727254
 30
0.0
 11
-0.2922179428961087
 21
0.227278409090907
 31
0.0
  0
LINE
  5
41
330
2
100
AcDbEntity
  8
0
100
AcDbLine
 10
-0.2922179428961087
 20
0.1136420454545455
 30
0.0
 11
-0.3906299205988848
 21
0.1704602272727254
 31
0.0
  0
LINE
  5
42
330
2
100
AcDbEntity
  8
0
100
AcDbLine
 10
-0.3642578737068813
 20
0.0720497720085422
 30
0.0
 11
-0.2922081016983391
 21
0.0
 31
0.0
  0
LINE
  5
43
330
2
100
AcDbEntity
  8
0
100
AcDbLine
 10
-0.3642578737068813
 20
0.0720497720085422
 30
0.0
 11
-0.2922179428961087
 21
0.1136420454545455
 31
0.0
  0
LINE
  5
44
330
2
100
AcDbEntity
  8
0
100
AcDbLine
 10
-0.2922179428961087
 20
0.4545511363636354
 30
0.0
 11
-0.3906299205988848
 21
0.5113693181818189
 31
0.0
  0
LINE
  5
45
330
2
100
AcDbEntity
  8
0
100
AcDbLine
 10
-0.2922179428961087
 20
0.3409147727272757
 30
0.0
 11
-0.3906299205988848
 21
0.3977329545454555
 31
0.0
  0
LINE
  5
46
330
2
100
AcDbEntity
  8
0
100
AcDbLine
 10
-0.3906299205988848
 20
0.2840965909090922
 30
0.0
 11
-0.2922179428961087
 21
0.3409147727272757
 31
0.0
  0
LINE
  5
47
330
2
100
AcDbEntity
  8
0
100
AcDbLine
 10
-0.3906299205988848
 20
0.3977329545454555
 30
0.0
 11
-0.2922179428961087
 21
0.4545511363636354
 31
0.0
  0
LINE
  5
48
330
2
100
AcDbEntity
  8
0
100
AcDbLine
 10
-0.2922179428961087
 20
0.2272784090909088
 30
0.0
 11
-0.3906299205988848
 21
0.2840965909090922
 31
0.0
  0
LINE
  5
49
330
2
100
AcDbEntity
  8
0
100
AcDbLine
 10
0.2922081016983391
 20
0.1704545454545432
 30
0.0
 11
0.3906200794011152
 21
0.2272727272727249
 31
0.0
  0
LINE
  5
4A
330
2
100
AcDbEntity
  8
0
100
AcDbLine
 10
0.3906200794011134
 20
0.1136363636363615
 30
0.0
 11
0.2922081016983391
 21
0.1704545454545432
 31
0.0
  0
LINE
  5
4B
330
2
100
AcDbEntity
  8
0
100
AcDbLine
 10
0.3282293855742235
 20
0.0360212838758809
 30
0.0
 11
0.2922081016983391
 21
0.0568181818181817
 31
0.0
  0
LINE
  5
4C
330
2
100
AcDbEntity
  8
0
100
AcDbLine
 10
0.2922081016983391
 20
-0.0000000000000018
 30
0.0
 11
0.3282293855742235
 21
0.0360212838758809
 31
0.0
  0
LINE
  5
4D
330
2
100
AcDbEntity
  8
0
100
AcDbLine
 10
0.2922081016983391
 20
0.0568181818181817
 30
0.0
 11
0.3906200794011152
 21
0.1136363636363615
 31
0.0
  0
LINE
  5
4E
330
2
100
AcDbEntity
  8
0
100
AcDbLine
 10
0.3906200794011134
 20
0.454545454545455
 30
0.0
 11
0.2922081016983391
 21
0.5113636363636385
 31
0.0
  0
LINE
  5
4F
330
2
100
AcDbEntity
  8
0
100
AcDbLine
 10
0.3906200794011134
 20
0.3409090909090917
 30
0.0
 11
0.2922081016983391
 21
0.3977272727272716
 31
0.0
  0
LINE
  5
50
330
2
100
AcDbEntity
  8
0
100
AcDbLine
 10
0.2922081016983391
 20
0.2840909090909083
 30
0.0
 11
0.3906200794011152
 21
0.3409090909090882
 31
0.0
  0
LINE
  5
51
330
2
100
AcDbEntity
  8
0
100
AcDbLine
 10
0.3906200794011134
 20
0.2272727272727266
 30
0.0
 11
0.2922081016983391
 21
0.2840909090909083
 31
0.0
  0
LINE
  5
52
330
2
100
AcDbEntity
  8
0
100
AcDbLine
 10
0.2922081016983391
 20
0.3977272727272716
 30
0.0
 11
0.3906200794011152
 21
0.454545454545455
 31
0.0
  0
LINE
  5
53
330
2
100
AcDbEntity
  8
0
100
AcDbLine
 10
-0.2922179428961034
 20
1.363642045454547
 30
0.0
 11
0.2922081016983444
 21
1.420454545454545
 31
0.0
  0
LINE
  5
54
330
2
100
AcDbEntity
  8
0
100
AcDbLine
 10
-0.2922179428961034
 20
1.250005681818182
 30
0.0
 11
0.2922081016983444
 21
1.306818181818182
 31
0.0
  0
LINE
  5
55
330
2
100
AcDbEntity
  8
0
100
AcDbLine
 10
-0.2922179428961034
 20
1.590914772727274
 30
0.0
 11
0.2922081016983444
 21
1.647727272727272
 31
0.0
  0
LINE
  5
56
330
2
100
AcDbEntity
  8
0
100
AcDbLine
 10
-0.2922179428961034
 20
1.477278409090911
 30
0.0
 11
0.2922081016983444
 21
1.534090909090908
 31
0.0
  0
LINE
  5
57
330
2
100
AcDbEntity
  8
0
100
AcDbLine
 10
-0.2922179428961087
 20
0.6818238636363656
 30
0.0
 11
0.2922081016983391
 21
0.7386363636363633
 31
0.0
  0
LINE
  5
58
330
2
100
AcDbEntity
  8
0
100
AcDbLine
 10
-0.2922179428961087
 20
0.5681875000000005
 30
0.0
 11
0.2922081016983391
 21
0.6250000000000018
 31
0.0
  0
LINE
  5
59
330
2
100
AcDbEntity
  8
0
100
AcDbLine
 10
-0.2922179428961034
 20
0.9090965909090922
 30
0.0
 11
0.2922081016983444
 21
0.9659090909090917
 31
0.0
  0
LINE
  5
5A
330
2
100
AcDbEntity
  8
0
100
AcDbLine
 10
-0.2922179428961034
 20
0.7954602272727289
 30
0.0
 11
0.2922081016983444
 21
0.8522727272727284
 31
0.0
  0
LINE
  5
5B
330
2
100
AcDbEntity
  8
0
100
AcDbLine
 10
-0.2922179428961034
 20
1.022732954545456
 30
0.0
 11
0.2922081016983444
 21
1.079545454545455
 31
0.0
  0
LINE
  5
5C
330
2
100
AcDbEntity
  8
0
100
AcDbLine
 10
-0.2922179428961034
 20
1.136369318181819
 30
0.0
 11
0.2922081016983444
 21
1.193181818181818
 31
0.0
  0
LINE
  5
5D
330
2
100
AcDbEntity
  8
0
100
AcDbLine
 10
0.3906200794011152
 20
0.7954545454545468
 30
0.0
 11
-0.3906299205988848
 21
0.7386420454545455
 31
0.0
  0
LINE
  5
5E
330
2
100
AcDbEntity
  8
0
100
AcDbLine
 10
0.3906200794011152
 20
0.6818181818181817
 30
0.0
 11
-0.3906299205988848
 21
0.6250056818181822
 31
0.0
  0
LINE
  5
5F
330
2
100
AcDbEntity
  8
0
100
AcDbLine
 10
0.3906200794011205
 20
1.704545454545455
 30
0.0
 11
-0.3906299205988795
 21
1.647732954545456
 31
0.0
  0
LINE
  5
60
330
2
100
AcDbEntity
  8
0
100
AcDbLine
 10
0.3906200794011205
 20
1.590909090909092
 30
0.0
 11
-0.3906299205988795
 21
1.534096590909091
 31
0.0
  0
LINE
  5
61
330
2
100
AcDbEntity
  8
0
100
AcDbLine
 10
0.3906200794011205
 20
1.477272727272728
 30
0.0
 11
-0.3906299205988795
 21
1.420460227272727
 31
0.0
  0
LINE
  5
62
330
2
100
AcDbEntity
  8
0
100
AcDbLine
 10
0.3906200794011205
 20
1.363636363636365
 30
0.0
 11
-0.3906299205988795
 21
1.306823863636364
 31
0.0
  0
LINE
  5
63
330
2
100
AcDbEntity
  8
0
100
AcDbLine
 10
0.3906200794011205
 20
1.25
 30
0.0
 11
-0.3906299205988795
 21
1.193187499999999
 31
0.0
  0
LINE
  5
64
330
2
100
AcDbEntity
  8
0
100
AcDbLine
 10
0.3906200794011205
 20
1.136363636363639
 30
0.0
 11
-0.3906299205988795
 21
1.079551136363635
 31
0.0
  0
LINE
  5
65
330
2
100
AcDbEntity
  8
0
100
AcDbLine
 10
0.3906200794011205
 20
1.022727272727275
 30
0.0
 11
-0.3906299205988795
 21
0.9659147727272721
 31
0.0
  0
LINE
  5
66
330
2
100
AcDbEntity
  8
0
100
AcDbLine
 10
0.3906200794011205
 20
0.9090909090909101
 30
0.0
 11
-0.3906299205988795
 21
0.8522784090909088
 31
0.0
  0
LINE
  5
67
330
2
100
AcDbEntity
  8
0
100
AcDbLine
 10
-0.2922179428961034
 20
1.136369318181819
 30
0.0
 11
-0.3906299205988795
 21
1.193187500000002
 31
0.0
  0
LINE
  5
68
330
2
100
AcDbEntity
  8
0
100
AcDbLine
 10
-0.2922179428961034
 20
0.7954602272727289
 30
0.0
 11
-0.3906299205988795
 21
0.8522784090909106
 31
0.0
  0
LINE
  5
69
330
2
100
AcDbEntity
  8
0
100
AcDbLine
 10
-0.3906299205988848
 20
0.7386420454545455
 30
0.0
 11
-0.2922179428961087
 21
0.7954602272727271
 31
0.0
  0
LINE
  5
6A
330
2
100
AcDbEntity
  8
0
100
AcDbLine
 10
-0.3906299205988848
 20
0.6250056818181839
 30
0.0
 11
-0.2922179428961087
 21
0.6818238636363656
 31
0.0
  0
LINE
  5
6B
330
2
100
AcDbEntity
  8
0
100
AcDbLine
 10
-0.2922179428961087
 20
0.5681875000000005
 30
0.0
 11
-0.3906299205988848
 21
0.6250056818181822
 31
0.0
  0
LINE
  5
6C
330
2
100
AcDbEntity
  8
0
100
AcDbLine
 10
-0.2922179428961087
 20
0.6818238636363656
 30
0.0
 11
-0.3906299205988848
 21
0.7386420454545455
 31
0.0
  0
LINE
  5
6D
330
2
100
AcDbEntity
  8
0
100
AcDbLine
 10
-0.2922179428961034
 20
1.022732954545456
 30
0.0
 11
-0.3906299205988795
 21
1.079551136363639
 31
0.0
  0
LINE
  5
6E
330
2
100
AcDbEntity
  8
0
100
AcDbLine
 10
-0.3906299205988795
 20
1.079551136363639
 30
0.0
 11
-0.2922179428961034
 21
1.136369318181819
 31
0.0
  0
LINE
  5
6F
330
2
100
AcDbEntity
  8
0
100
AcDbLine
 10
-0.2922179428961034
 20
0.9090965909090922
 30
0.0
 11
-0.3906299205988795
 21
0.9659147727272739
 31
0.0
  0
LINE
  5
70
330
2
100
AcDbEntity
  8
0
100
AcDbLine
 10
-0.3906299205988795
 20
0.8522784090909124
 30
0.0
 11
-0.2922179428961034
 21
0.9090965909090922
 31
0.0
  0
LINE
  5
71
330
2
100
AcDbEntity
  8
0
100
AcDbLine
 10
-0.3906299205988795
 20
0.9659147727272757
 30
0.0
 11
-0.2922179428961034
 21
1.022732954545456
 31
0.0
  0
LINE
  5
72
330
2
100
AcDbEntity
  8
0
100
AcDbLine
 10
-0.3906299205988795
 20
1.420460227272729
 30
0.0
 11
-0.2922179428961034
 21
1.477278409090911
 31
0.0
  0
LINE
  5
73
330
2
100
AcDbEntity
  8
0
100
AcDbLine
 10
-0.2922179428961034
 20
1.363642045454547
 30
0.0
 11
-0.3906299205988795
 21
1.420460227272729
 31
0.0
  0
LINE
  5
74
330
2
100
AcDbEntity
  8
0
100
AcDbLine
 10
-0.3906299205988795
 20
1.193187500000002
 30
0.0
 11
-0.2922179428961034
 21
1.250005681818182
 31
0.0
  0
LINE
  5
75
330
2
100
AcDbEntity
  8
0
100
AcDbLine
 10
-0.2922179428961034
 20
1.250005681818182
 30
0.0
 11
-0.3906299205988795
 21
1.306823863636364
 31
0.0
  0
LINE
  5
76
330
2
100
AcDbEntity
  8
0
100
AcDbLine
 10
-0.3906299205988795
 20
1.306823863636366
 30
0.0
 11
-0.2922179428961034
 21
1.363642045454547
 31
0.0
  0
LINE
  5
77
330
2
100
AcDbEntity
  8
0
100
AcDbLine
 10
-0.3906299205988795
 20
1.647732954545456
 30
0.0
 11
-0.2922179428961034
 21
1.704551136363639
 31
0.0
  0
LINE
  5
78
330
2
100
AcDbEntity
  8
0
100
AcDbLine
 10
-0.3906299205988795
 20
1.534096590909092
 30
0.0
 11
-0.2922179428961034
 21
1.590914772727274
 31
0.0
  0
LINE
  5
79
330
2
100
AcDbEntity
  8
0
100
AcDbLine
 10
-0.2922179428961034
 20
1.477278409090911
 30
0.0
 11
-0.3906299205988795
 21
1.534096590909092
 31
0.0
  0
LINE
  5
7A
330
2
100
AcDbEntity
  8
0
100
AcDbLine
 10
-0.2922179428961034
 20
1.590914772727274
 30
0.0
 11
-0.3906299205988795
 21
1.647732954545456
 31
0.0
  0
LINE
  5
7B
330
2
100
AcDbEntity
  8
0
100
AcDbLine
 10
0.3906200794011188
 20
1.136363636363639
 30
0.0
 11
0.2922081016983444
 21
1.193181818181818
 31
0.0
  0
LINE
  5
7C
330
2
100
AcDbEntity
  8
0
100
AcDbLine
 10
0.3906200794011188
 20
0.7954545454545468
 30
0.0
 11
0.2922081016983444
 21
0.8522727272727284
 31
0.0
  0
LINE
  5
7D
330
2
100
AcDbEntity
  8
0
100
AcDbLine
 10
0.2922081016983391
 20
0.7386363636363633
 30
0.0
 11
0.3906200794011152
 21
0.795454545454545
 31
0.0
  0
LINE
  5
7E
330
2
100
AcDbEntity
  8
0
100
AcDbLine
 10
0.2922081016983391
 20
0.6250000000000018
 30
0.0
 11
0.3906200794011152
 21
0.6818181818181817
 31
0.0
  0
LINE
  5
7F
330
2
100
AcDbEntity
  8
0
100
AcDbLine
 10
0.3906200794011134
 20
0.5681818181818201
 30
0.0
 11
0.2922081016983391
 21
0.6250000000000018
 31
0.0
  0
LINE
  5
80
330
2
100
AcDbEntity
  8
0
100
AcDbLine
 10
0.3906200794011134
 20
0.6818181818181817
 30
0.0
 11
0.2922081016983391
 21
0.7386363636363633
 31
0.0
  0
LINE
  5
81
330
2
100
AcDbEntity
  8
0
100
AcDbLine
 10
0.3906200794011188
 20
1.022727272727275
 30
0.0
 11
0.2922081016983444
 21
1.079545454545455
 31
0.0
  0
LINE
  5
82
330
2
100
AcDbEntity
  8
0
100
AcDbLine
 10
0.2922081016983444
 20
1.079545454545455
 30
0.0
 11
0.3906200794011205
 21
1.136363636363635
 31
0.0
  0
LINE
  5
83
330
2
100
AcDbEntity
  8
0
100
AcDbLine
 10
0.3906200794011188
 20
0.9090909090909101
 30
0.0
 11
0.2922081016983444
 21
0.9659090909090917
 31
0.0
  0
LINE
  5
84
330
2
100
AcDbEntity
  8
0
100
AcDbLine
 10
0.2922081016983444
 20
0.8522727272727284
 30
0.0
 11
0.3906200794011205
 21
0.9090909090909083
 31
0.0
  0
LINE
  5
85
330
2
100
AcDbEntity
  8
0
100
AcDbLine
 10
0.2922081016983444
 20
0.9659090909090917
 30
0.0
 11
0.3906200794011205
 21
1.022727272727272
 31
0.0
  0
LINE
  5
86
330
2
100
AcDbEntity
  8
0
100
AcDbLine
 10
0.2922081016983444
 20
1.420454545454545
 30
0.0
 11
0.3906200794011205
 21
1.477272727272727
 31
0.0
  0
LINE
  5
87
330
2
100
AcDbEntity
  8
0
100
AcDbLine
 10
0.3906200794011188
 20
1.363636363636365
 30
0.0
 11
0.2922081016983444
 21
1.420454545454545
 31
0.0
  0
LINE
  5
88
330
2
100
AcDbEntity
  8
0
100
AcDbLine
 10
0.3906200794011188
 20
1.25
 30
0.0
 11
0.2922081016983444
 21
1.306818181818182
 31
0.0
  0
LINE
  5
89
330
2
100
AcDbEntity
  8
0
100
AcDbLine
 10
0.2922081016983444
 20
1.193181818181818
 30
0.0
 11
0.3906200794011205
 21
1.25
 31
0.0
  0
LINE
  5
8A
330
2
100
AcDbEntity
  8
0
100
AcDbLine
 10
0.2922081016983444
 20
1.306818181818182
 30
0.0
 11
0.3906200794011205
 21
1.363636363636362
 31
0.0
  0
LINE
  5
8B
330
2
100
AcDbEntity
  8
0
100
AcDbLine
 10
0.2922081016983444
 20
1.647727272727272
 30
0.0
 11
0.3906200794011205
 21
1.704545454545455
 31
0.0
  0
LINE
  5
8C
330
2
100
AcDbEntity
  8
0
100
AcDbLine
 10
0.2922081016983444
 20
1.534090909090908
 30
0.0
 11
0.3906200794011205
 21
1.590909090909092
 31
0.0
  0
LINE
  5
8D
330
2
100
AcDbEntity
  8
0
100
AcDbLine
 10
0.3906200794011188
 20
1.477272727272728
 30
0.0
 11
0.2922081016983444
 21
1.534090909090908
 31
0.0
  0
LINE
  5
8E
330
2
100
AcDbEntity
  8
0
100
AcDbLine
 10
0.3906200794011188
 20
1.590909090909092
 30
0.0
 11
0.2922081016983444
 21
1.647727272727272
 31
0.0
  0
LINE
  5
8F
330
2
100
AcDbEntity
  8
0
100
AcDbLine
 10
-0.2922179428961034
 20
2.954551136363635
 30
0.0
 11
0.2922081016983444
 21
3.011363636363635
 31
0.0
  0
LINE
  5
90
330
2
100
AcDbEntity
  8
0
100
AcDbLine
 10
-0.2922179428961034
 20
2.954551136363635
 30
0.0
 11
-0.3906299205988795
 21
3.011369318181819
 31
0.0
  0
LINE
  5
91
330
2
100
AcDbEntity
  8
0
100
AcDbLine
 10
0.3906200794011188
 20
2.954545454545455
 30
0.0
 11
0.2922081016983444
 21
3.011363636363635
 31
0.0
  0
LINE
  5
92
330
2
100
AcDbEntity
  8
0
100
AcDbLine
 10
-0.2922179428961034
 20
2.386369318181819
 30
0.0
 11
0.2922081016983444
 21
2.443181818181818
 31
0.0
  0
LINE
  5
93
330
2
100
AcDbEntity
  8
0
100
AcDbLine
 10
-0.2922179428961034
 20
2.840914772727272
 30
0.0
 11
0.2922081016983444
 21
2.897727272727272
 31
0.0
  0
LINE
  5
94
330
2
100
AcDbEntity
  8
0
100
AcDbLine
 10
-0.2922179428961034
 20
2.727278409090909
 30
0.0
 11
0.2922081016983444
 21
2.784090909090908
 31
0.0
  0
LINE
  5
95
330
2
100
AcDbEntity
  8
0
100
AcDbLine
 10
-0.2922179428961034
 20
2.613642045454546
 30
0.0
 11
0.2922081016983444
 21
2.670454545454545
 31
0.0
  0
LINE
  5
96
330
2
100
AcDbEntity
  8
0
100
AcDbLine
 10
-0.2922179428961034
 20
2.500005681818182
 30
0.0
 11
0.2922081016983444
 21
2.556818181818178
 31
0.0
  0
LINE
  5
97
330
2
100
AcDbEntity
  8
0
100
AcDbLine
 10
-0.2922179428961034
 20
1.931823863636366
 30
0.0
 11
0.2922081016983444
 21
1.988636363636362
 31
0.0
  0
LINE
  5
98
330
2
100
AcDbEntity
  8
0
100
AcDbLine
 10
-0.2922179428961034
 20
1.818187500000002
 30
0.0
 11
0.2922081016983444
 21
1.874999999999998
 31
0.0
  0
LINE
  5
99
330
2
100
AcDbEntity
  8
0
100
AcDbLine
 10
-0.2922179428961034
 20
2.272732954545456
 30
0.0
 11
0.2922081016983444
 21
2.329545454545455
 31
0.0
  0
LINE
  5
9A
330
2
100
AcDbEntity
  8
0
100
AcDbLine
 10
-0.2922179428961034
 20
2.159096590909092
 30
0.0
 11
0.2922081016983444
 21
2.215909090909092
 31
0.0
  0
LINE
  5
9B
330
2
100
AcDbEntity
  8
0
100
AcDbLine
 10
-0.2922179428961034
 20
2.045460227272729
 30
0.0
 11
0.2922081016983444
 21
2.102272727272725
 31
0.0
  0
LINE
  5
9C
330
2
100
AcDbEntity
  8
0
100
AcDbLine
 10
0.3906200794011205
 20
2.954545454545455
 30
0.0
 11
-0.3906299205988795
 21
2.897732954545452
 31
0.0
  0
LINE
  5
9D
330
2
100
AcDbEntity
  8
0
100
AcDbLine
 10
0.3906200794011205
 20
2.840909090909092
 30
0.0
 11
-0.3906299205988795
 21
2.784096590909089
 31
0.0
  0
LINE
  5
9E
330
2
100
AcDbEntity
  8
0
100
AcDbLine
 10
0.3906200794011205
 20
2.727272727272725
 30
0.0
 11
-0.3906299205988795
 21
2.670460227272725
 31
0.0
  0
LINE
  5
9F
330
2
100
AcDbEntity
  8
0
100
AcDbLine
 10
0.3906200794011205
 20
2.613636363636362
 30
0.0
 11
-0.3906299205988795
 21
2.556823863636362
 31
0.0
  0
LINE
  5
A0
330
2
100
AcDbEntity
  8
0
100
AcDbLine
 10
0.3906200794011205
 20
2.500000000000002
 30
0.0
 11
-0.3906299205988795
 21
2.443187499999999
 31
0.0
  0
LINE
  5
A1
330
2
100
AcDbEntity
  8
0
100
AcDbLine
 10
0.3906200794011205
 20
2.386363636363635
 30
0.0
 11
-0.3906299205988795
 21
2.329551136363635
 31
0.0
  0
LINE
  5
A2
330
2
100
AcDbEntity
  8
0
100
AcDbLine
 10
0.3906200794011205
 20
2.272727272727272
 30
0.0
 11
-0.3906299205988795
 21
2.215914772727272
 31
0.0
  0
LINE
  5
A3
330
2
100
AcDbEntity
  8
0
100
AcDbLine
 10
0.3906200794011205
 20
2.159090909090908
 30
0.0
 11
-0.3906299205988795
 21
2.102278409090909
 31
0.0
  0
LINE
  5
A4
330
2
100
AcDbEntity
  8
0
100
AcDbLine
 10
0.3906200794011205
 20
2.045454545454545
 30
0.0
 11
-0.3906299205988795
 21
1.988642045454546
 31
0.0
  0
LINE
  5
A5
330
2
100
AcDbEntity
  8
0
100
AcDbLine
 10
0.3906200794011205
 20
1.818181818181818
 30
0.0
 11
-0.3906299205988795
 21
1.761369318181819
 31
0.0
  0
LINE
  5
A6
330
2
100
AcDbEntity
  8
0
100
AcDbLine
 10
0.3906200794011205
 20
1.931818181818182
 30
0.0
 11
-0.3906299205988795
 21
1.875005681818182
 31
0.0
  0
LINE
  5
A7
330
2
100
AcDbEntity
  8
0
100
AcDbLine
 10
-0.3906299205988795
 20
2.329551136363639
 30
0.0
 11
-0.2922179428961034
 21
2.386369318181819
 31
0.0
  0
LINE
  5
A8
330
2
100
AcDbEntity
  8
0
100
AcDbLine
 10
-0.2922179428961034
 20
2.045460227272729
 30
0.0
 11
-0.3906299205988795
 21
2.102278409090909
 31
0.0
  0
LINE
  5
A9
330
2
100
AcDbEntity
  8
0
100
AcDbLine
 10
-0.3906299205988795
 20
1.988642045454546
 30
0.0
 11
-0.2922179428961034
 21
2.045460227272729
 31
0.0
  0
LINE
  5
AA
330
2
100
AcDbEntity
  8
0
100
AcDbLine
 10
-0.3906299205988795
 20
1.761369318181819
 30
0.0
 11
-0.2922179428961034
 21
1.818187500000002
 31
0.0
  0
LINE
  5
AB
330
2
100
AcDbEntity
  8
0
100
AcDbLine
 10
-0.2922179428961034
 20
1.818187500000002
 30
0.0
 11
-0.3906299205988795
 21
1.875005681818182
 31
0.0
  0
LINE
  5
AC
330
2
100
AcDbEntity
  8
0
100
AcDbLine
 10
-0.3906299205988795
 20
1.875005681818182
 30
0.0
 11
-0.2922179428961034
 21
1.931823863636366
 31
0.0
  0
LINE
  5
AD
330
2
100
AcDbEntity
  8
0
100
AcDbLine
 10
-0.2922179428961034
 20
1.931823863636366
 30
0.0
 11
-0.3906299205988795
 21
1.988642045454546
 31
0.0
  0
LINE
  5
AE
330
2
100
AcDbEntity
  8
0
100
AcDbLine
 10
-0.2922179428961034
 20
2.272732954545456
 30
0.0
 11
-0.3906299205988795
 21
2.329551136363635
 31
0.0
  0
LINE
  5
AF
330
2
100
AcDbEntity
  8
0
100
AcDbLine
 10
-0.2922179428961034
 20
2.159096590909092
 30
0.0
 11
-0.3906299205988795
 21
2.215914772727272
 31
0.0
  0
LINE
  5
B0
330
2
100
AcDbEntity
  8
0
100
AcDbLine
 10
-0.3906299205988795
 20
2.102278409090909
 30
0.0
 11
-0.2922179428961034
 21
2.159096590909092
 31
0.0
  0
LINE
  5
B1
330
2
100
AcDbEntity
  8
0
100
AcDbLine
 10
-0.3906299205988795
 20
2.215914772727272
 30
0.0
 11
-0.2922179428961034
 21
2.272732954545456
 31
0.0
  0
LINE
  5
B2
330
2
100
AcDbEntity
  8
0
100
AcDbLine
 10
-0.2922179428961034
 20
2.613642045454546
 30
0.0
 11
-0.3906299205988795
 21
2.670460227272725
 31
0.0
  0
LINE
  5
B3
330
2
100
AcDbEntity
  8
0
100
AcDbLine
 10
-0.3906299205988795
 20
2.556823863636366
 30
0.0
 11
-0.2922179428961034
 21
2.613642045454546
 31
0.0
  0
LINE
  5
B4
330
2
100
AcDbEntity
  8
0
100
AcDbLine
 10
-0.2922179428961034
 20
2.386369318181819
 30
0.0
 11
-0.3906299205988795
 21
2.443187499999999
 31
0.0
  0
LINE
  5
B5
330
2
100
AcDbEntity
  8
0
100
AcDbLine
 10
-0.3906299205988795
 20
2.443187500000002
 30
0.0
 11
-0.2922179428961034
 21
2.500005681818182
 31
0.0
  0
LINE
  5
B6
330
2
100
AcDbEntity
  8
0
100
AcDbLine
 10
-0.2922179428961034
 20
2.500005681818182
 30
0.0
 11
-0.3906299205988795
 21
2.556823863636366
 31
0.0
  0
LINE
  5
B7
330
2
100
AcDbEntity
  8
0
100
AcDbLine
 10
-0.3906299205988795
 20
2.897732954545456
 30
0.0
 11
-0.2922179428961034
 21
2.954551136363635
 31
0.0
  0
LINE
  5
B8
330
2
100
AcDbEntity
  8
0
100
AcDbLine
 10
-0.3906299205988795
 20
2.784096590909092
 30
0.0
 11
-0.2922179428961034
 21
2.840914772727272
 31
0.0
  0
LINE
  5
B9
330
2
100
AcDbEntity
  8
0
100
AcDbLine
 10
-0.3906299205988795
 20
2.670460227272725
 30
0.0
 11
-0.2922179428961034
 21
2.727278409090909
 31
0.0
  0
LINE
  5
BA
330
2
100
AcDbEntity
  8
0
100
AcDbLine
 10
-0.2922179428961034
 20
2.727278409090909
 30
0.0
 11
-0.3906299205988795
 21
2.784096590909089
 31
0.0
  0
LINE
  5
BB
330
2
100
AcDbEntity
  8
0
100
AcDbLine
 10
-0.2922179428961034
 20
2.840914772727272
 30
0.0
 11
-0.3906299205988795
 21
2.897732954545456
 31
0.0
  0
LINE
  5
BC
330
2
100
AcDbEntity
  8
0
100
AcDbLine
 10
0.2922081016983444
 20
2.329545454545455
 30
0.0
 11
0.3906200794011205
 21
2.386363636363635
 31
0.0
  0
LINE
  5
BD
330
2
100
AcDbEntity
  8
0
100
AcDbLine
 10
0.3906200794011188
 20
2.045454545454545
 30
0.0
 11
0.2922081016983444
 21
2.102272727272725
 31
0.0
  0
LINE
  5
BE
330
2
100
AcDbEntity
  8
0
100
AcDbLine
 10
0.2922081016983444
 20
1.988636363636362
 30
0.0
 11
0.3906200794011205
 21
2.045454545454545
 31
0.0
  0
LINE
  5
BF
330
2
100
AcDbEntity
  8
0
100
AcDbLine
 10
0.3906200794011188
 20
1.818181818181818
 30
0.0
 11
0.2922081016983444
 21
1.874999999999998
 31
0.0
  0
LINE
  5
C0
330
2
100
AcDbEntity
  8
0
100
AcDbLine
 10
0.2922081016983444
 20
1.761363636363635
 30
0.0
 11
0.3906200794011205
 21
1.818181818181818
 31
0.0
  0
LINE
  5
C1
330
2
100
AcDbEntity
  8
0
100
AcDbLine
 10
0.2922081016983444
 20
1.874999999999998
 30
0.0
 11
0.3906200794011205
 21
1.931818181818182
 31
0.0
  0
LINE
  5
C2
330
2
100
AcDbEntity
  8
0
100
AcDbLine
 10
0.3906200794011188
 20
1.931818181818182
 30
0.0
 11
0.2922081016983444
 21
1.988636363636362
 31
0.0
  0
LINE
  5
C3
330
2
100
AcDbEntity
  8
0
100
AcDbLine
 10
0.3906200794011188
 20
2.272727272727272
 30
0.0
 11
0.2922081016983444
 21
2.329545454545455
 31
0.0
  0
LINE
  5
C4
330
2
100
AcDbEntity
  8
0
100
AcDbLine
 10
0.3906200794011188
 20
2.159090909090908
 30
0.0
 11
0.2922081016983444
 21
2.215909090909092
 31
0.0
  0
LINE
  5
C5
330
2
100
AcDbEntity
  8
0
100
AcDbLine
 10
0.2922081016983444
 20
2.102272727272725
 30
0.0
 11
0.3906200794011205
 21
2.159090909090908
 31
0.0
  0
LINE
  5
C6
330
2
100
AcDbEntity
  8
0
100
AcDbLine
 10
0.2922081016983444
 20
2.215909090909092
 30
0.0
 11
0.3906200794011205
 21
2.272727272727272
 31
0.0
  0
LINE
  5
C7
330
2
100
AcDbEntity
  8
0
100
AcDbLine
 10
0.3906200794011188
 20
2.613636363636362
 30
0.0
 11
0.2922081016983444
 21
2.670454545454545
 31
0.0
  0
LINE
  5
C8
330
2
100
AcDbEntity
  8
0
100
AcDbLine
 10
0.2922081016983444
 20
2.556818181818178
 30
0.0
 11
0.3906200794011205
 21
2.613636363636362
 31
0.0
  0
LINE
  5
C9
330
2
100
AcDbEntity
  8
0
100
AcDbLine
 10
0.2922081016983444
 20
2.443181818181818
 30
0.0
 11
0.3906200794011205
 21
2.499999999999998
 31
0.0
  0
LINE
  5
CA
330
2
100
AcDbEntity
  8
0
100
AcDbLine
 10
0.3906200794011188
 20
2.386363636363635
 30
0.0
 11
0.2922081016983444
 21
2.443181818181818
 31
0.0
  0
LINE
  5
CB
330
2
100
AcDbEntity
  8
0
100
AcDbLine
 10
0.3906200794011188
 20
2.500000000000002
 30
0.0
 11
0.2922081016983444
 21
2.556818181818178
 31
0.0
  0
LINE
  5
CC
330
2
100
AcDbEntity
  8
0
100
AcDbLine
 10
0.2922081016983444
 20
2.897727272727272
 30
0.0
 11
0.3906200794011205
 21
2.954545454545452
 31
0.0
  0
LINE
  5
CD
330
2
100
AcDbEntity
  8
0
100
AcDbLine
 10
0.2922081016983444
 20
2.784090909090908
 30
0.0
 11
0.3906200794011205
 21
2.840909090909088
 31
0.0
  0
LINE
  5
CE
330
2
100
AcDbEntity
  8
0
100
AcDbLine
 10
0.3906200794011188
 20
2.727272727272725
 30
0.0
 11
0.2922081016983444
 21
2.784090909090908
 31
0.0
  0
LINE
  5
CF
330
2
100
AcDbEntity
  8
0
100
AcDbLine
 10
0.2922081016983444
 20
2.670454545454545
 30
0.0
 11
0.3906200794011205
 21
2.727272727272725
 31
0.0
  0
LINE
  5
D0
330
2
100
AcDbEntity
  8
0
100
AcDbLine
 10
0.3906200794011188
 20
2.840909090909092
 30
0.0
 11
0.2922081016983444
 21
2.897727272727272
 31
0.0
  0
LINE
  5
D1
330
2
100
AcDbEntity
  8
0
100
AcDbLine
 10
0.0438982682838258
 20
3.838422753531916
 30
0.0
 11
-0.3906299205988653
 21
3.806823863636371
 31
0.0
  0
LINE
  5
D2
330
2
100
AcDbEntity
  8
0
100
AcDbLine
 10
-0.2922179428960892
 20
3.750005681818188
 30
0.0
 11
0.2922081016983587
 21
3.806818181818187
 31
0.0
  0
LINE
  5
D3
330
2
100
AcDbEntity
  8
0
100
AcDbLine
 10
0.3906200794011205
 20
3.295454545454541
 30
0.0
 11
-0.3906299205988795
 21
3.238642045454546
 31
0.0
  0
LINE
  5
D4
330
2
100
AcDbEntity
  8
0
100
AcDbLine
 10
-0.2922179428960963
 20
3.29546022727273
 30
0.0
 11
0.2922081016983515
 21
3.352272727272729
 31
0.0
  0
LINE
  5
D5
330
2
100
AcDbEntity
  8
0
100
AcDbLine
 10
-0.2922179428960963
 20
3.409096590909093
 30
0.0
 11
0.2922081016983515
 21
3.465909090909093
 31
0.0
  0
LINE
  5
D6
330
2
100
AcDbEntity
  8
0
100
AcDbLine
 10
0.3906200794011276
 20
3.522727272727273
 30
0.0
 11
-0.3906299205988724
 21
3.465914772727277
 31
0.0
  0
LINE
  5
D7
330
2
100
AcDbEntity
  8
0
100
AcDbLine
 10
0.3906200794011276
 20
3.409090909090913
 30
0.0
 11
-0.3906299205988724
 21
3.35227840909091
 31
0.0
  0
SPLINE
  5
D8
330
2
100
AcDbEntity
  8
0
100
AcDbSpline
210
0.0
220
0.0
230
1.0
 70
     8
 71
     3
 72
    11
 73
     7
 74
     5
 42
0.0000000001
 43
0.0000000001
 44
0.0000000001
 40
0.0
 40
0.0
 40
0.0
 40
0.0
 40
0.0480845167207115
 40
0.1291811622031154
 40
0.2092806130713139
 40
0.2761745749011508
 40
0.2761745749011508
 40
0.2761745749011508
 40
0.2761745749011508
 10
0.1236552329866001
 20
3.53126227414417
 30
0.0
 10
0.1131728357880271
 20
3.516474513385052
 30
0.0
 10
0.0850114161640867
 20
3.476746545807878
 30
0.0
 10
0.0097427439509357
 20
3.533336147148914
 30
0.0
 10
-0.0667236453422352
 20
3.486817149339536
 30
0.0
 10
-0.1084658635204531
 20
3.520114281549703
 30
0.0
 10
-0.1274619688445728
 20
3.535267186370215
 30
0.0
 11
0.1236552329866001
 21
3.53126227414417
 31
0.0
 11
0.0896726627161613
 21
3.497243078591084
 31
0.0
 11
0.0103799171969214
 21
3.514252676367627
 31
0.0
 11
-0.0689127875448818
 21
3.502912967195159
 31
0.0
 11
-0.1274619688445728
 21
3.535267186370215
 31
0.0
  0
SPLINE
  5
D9
330
2
100
AcDbEntity
  8
0
100
AcDbSpline
210
0.0
220
0.0
230
1.0
 70
     8
 71
     3
 72
    11
 73
     7
 74
     5
 42
0.0000000001
 43
0.0000000001
 44
0.0000000001
 40
0.0
 40
0.0
 40
0.0
 40
0.0
 40
0.0480845167207115
 40
0.1291811622031154
 40
0.2092806130713139
 40
0.2761745749011508
 40
0.2761745749011508
 40
0.2761745749011508
 40
0.2761745749011508
 10
0.1236552329866001
 20
3.739387636370602
 30
0.0
 10
0.1131728357880271
 20
3.754175397134916
 30
0.0
 10
0.0850114161640867
 20
3.793903364726047
 30
0.0
 10
0.0097427439509357
 20
3.737313763225377
 30
0.0
 10
-0.0667236453422352
 20
3.783832761650395
 30
0.0
 10
-0.1084658635204531
 20
3.750535628116737
 30
0.0
 10
-0.1274619688445728
 20
3.735382724144556
 30
0.0
 11
0.1236552329866001
 21
3.739387636370602
 31
0.0
 11
0.0896726627161613
 21
3.773406831923688
 31
0.0
 11
0.0103799171969214
 21
3.756397234147145
 31
0.0
 11
-0.0689127875448818
 21
3.767736943319613
 31
0.0
 11
-0.1274619688445728
 21
3.735382724144556
 31
0.0
  0
ARC
  5
DA
330
2
100
AcDbEntity
  8
0
100
AcDbCircle
 10
-0.0000049205988795
 20
5.411048662464697
 30
0.0
 40
1.362499999999996
100
AcDbArc
 50
259.0072669106907
 51
280.9927330893092
  0
LINE
  5
DB
330
2
100
AcDbEntity
  8
0
100
AcDbLine
 10
-0.2922179428961034
 20
4.000005681818182
 30
0.0
 11
0.2071401591425754
 21
4.048548662464702
 31
0.0
  0
LINE
  5
DC
330
2
100
AcDbEntity
  8
0
100
AcDbLine
 10
-0.2922179428961034
 20
3.181823863636366
 30
0.0
 11
0.2922081016983444
 21
3.238636363636362
 31
0.0
  0
LINE
  5
DD
330
2
100
AcDbEntity
  8
0
100
AcDbLine
 10
-0.2922179428961034
 20
3.068187499999999
 30
0.0
 11
0.2922081016983444
 21
3.124999999999998
 31
0.0
  0
LINE
  5
DE
330
2
100
AcDbEntity
  8
0
100
AcDbLine
 10
0.3906200794011205
 20
4.000000000000002
 30
0.0
 11
-0.2031264341863448
 21
3.956822753531919
 31
0.0
  0
LINE
  5
DF
330
2
100
AcDbEntity
  8
0
100
AcDbLine
 10
0.3897065111041211
 20
4.048548662464702
 30
0.0
 11
-0.3897163523018765
 21
4.048548662464702
 31
0.0
  0
LINE
  5
E0
330
2
100
AcDbEntity
  8
0
100
AcDbLine
 10
-0.8000049205988802
 20
3.956822753531919
 30
0.0
 11
0.7999950794011213
 21
3.956822753531919
 31
0.0
  0
LINE
  5
E1
330
2
100
AcDbEntity
  8
0
100
AcDbLine
 10
-0.8000049205988802
 20
3.838422753531917
 30
0.0
 11
0.7999950794011213
 21
3.838422753531917
 31
0.0
  0
LINE
  5
E2
330
2
100
AcDbEntity
  8
0
100
AcDbLine
 10
0.3906200794011205
 20
3.068181818181818
 30
0.0
 11
-0.3906299205988795
 21
3.011369318181815
 31
0.0
  0
LINE
  5
E3
330
2
100
AcDbEntity
  8
0
100
AcDbLine
 10
0.3906200794011205
 20
3.181818181818178
 30
0.0
 11
-0.3906299205988795
 21
3.125005681818182
 31
0.0
  0
LINE
  5
E4
330
2
100
AcDbEntity
  8
0
100
AcDbLine
 10
-0.126248641627015
 20
3.598776942970472
 30
0.0
 11
-0.3906299205988724
 21
3.57955113636364
 31
0.0
  0
LINE
  5
E5
330
2
100
AcDbEntity
  8
0
100
AcDbLine
 10
-0.3906299205988653
 20
3.579551136363644
 30
0.0
 11
-0.2922179428960892
 21
3.636369318181824
 31
0.0
  0
SPLINE
  5
E6
330
2
100
AcDbEntity
  8
0
100
AcDbSpline
210
0.0
220
0.0
230
1.0
 70
     8
 71
     3
 72
    11
 73
     7
 74
     5
 42
0.0000000001
 43
0.0000000001
 44
0.0000000001
 40
0.0
 40
0.0
 40
0.0
 40
0.0
 40
0.0480845167207115
 40
0.1291811622031154
 40
0.2092806130713139
 40
0.2466687584764357
 40
0.2466687584764357
 40
0.2466687584764357
 40
0.2466687584764357
 10
-0.1040676017121029
 20
3.751117201831173
 30
0.0
 10
-0.1189028314559247
 20
3.740631415297182
 30
0.0
 10
-0.1587583265415527
 20
3.712460890075052
 30
0.0
 10
-0.1007101940137567
 20
3.637296358522171
 30
0.0
 10
-0.1461087441873915
 20
3.570372020293235
 30
0.0
 10
-0.1225037865290089
 20
3.536309533693736
 30
0.0
 10
-0.1149919672927195
 20
3.5254698095532
 30
0.0
 11
-0.1040676017121029
 21
3.751117201831173
 31
0.0
 11
-0.1380867972651885
 21
3.717134631560734
 31
0.0
 11
-0.1210771994886457
 21
3.637841886041494
 31
0.0
 11
-0.1324169086611136
 21
3.558549181299691
 31
0.0
 11
-0.1149919672927195
 21
3.5254698095532
 31
0.0
  0
LINE
  5
E7
330
2
100
AcDbEntity
  8
0
100
AcDbLine
 10
-0.3906299205988724
 20
3.23864204545455
 30
0.0
 11
-0.2922179428960963
 21
3.29546022727273
 31
0.0
  0
LINE
  5
E8
330
2
100
AcDbEntity
  8
0
100
AcDbLine
 10
-0.2922179428961034
 20
3.181823863636362
 30
0.0
 11
-0.3906299205988795
 21
3.238642045454546
 31
0.0
  0
LINE
  5
E9
330
2
100
AcDbEntity
  8
0
100
AcDbLine
 10
-0.2922179428961034
 20
3.181823863636366
 30
0.0
 11
-0.3906299205988795
 21
3.238642045454542
 31
0.0
  0
LINE
  5
EA
330
2
100
AcDbEntity
  8
0
100
AcDbLine
 10
-0.3906299205988795
 20
3.011369318181819
 30
0.0
 11
-0.2922179428961034
 21
3.068187499999999
 31
0.0
  0
LINE
  5
EB
330
2
100
AcDbEntity
  8
0
100
AcDbLine
 10
-0.2922179428961034
 20
3.068187499999999
 30
0.0
 11
-0.3906299205988795
 21
3.125005681818182
 31
0.0
  0
LINE
  5
EC
330
2
100
AcDbEntity
  8
0
100
AcDbLine
 10
-0.3906299205988795
 20
3.125005681818182
 30
0.0
 11
-0.2922179428961034
 21
3.181823863636366
 31
0.0
  0
LINE
  5
ED
330
2
100
AcDbEntity
  8
0
100
AcDbLine
 10
-0.2922179428960963
 20
3.52273295454546
 30
0.0
 11
-0.1266609199150395
 21
3.53882687858445
 31
0.0
  0
LINE
  5
EE
330
2
100
AcDbEntity
  8
0
100
AcDbLine
 10
-0.2922179428960963
 20
3.522732954545456
 30
0.0
 11
-0.3906299205988724
 21
3.57955113636364
 31
0.0
  0
LINE
  5
EF
330
2
100
AcDbEntity
  8
0
100
AcDbLine
 10
-0.2922179428960963
 20
3.29546022727273
 30
0.0
 11
-0.3906299205988724
 21
3.352278409090913
 31
0.0
  0
LINE
  5
F0
330
2
100
AcDbEntity
  8
0
100
AcDbLine
 10
-0.3906299205988724
 20
3.352278409090913
 30
0.0
 11
-0.2922179428960963
 21
3.409096590909093
 31
0.0
  0
LINE
  5
F1
330
2
100
AcDbEntity
  8
0
100
AcDbLine
 10
-0.2922179428960963
 20
3.409096590909093
 30
0.0
 11
-0.3906299205988724
 21
3.465914772727277
 31
0.0
  0
LINE
  5
F2
330
2
100
AcDbEntity
  8
0
100
AcDbLine
 10
-0.3906299205988724
 20
3.465914772727277
 30
0.0
 11
-0.2922179428960963
 21
3.52273295454546
 31
0.0
  0
LINE
  5
F3
330
2
100
AcDbEntity
  8
0
100
AcDbLine
 10
-0.8000049205988802
 20
3.956822753531919
 30
0.0
 11
-0.8000049205988802
 21
3.838422753531917
 31
0.0
  0
LINE
  5
F4
330
2
100
AcDbEntity
  8
0
100
AcDbLine
 10
-0.1393809607103993
 20
3.711458324363094
 30
0.0
 11
-0.3906299205988653
 21
3.693187500000004
 31
0.0
  0
LINE
  5
F5
330
2
100
AcDbEntity
  8
0
100
AcDbLine
 10
-0.2922179428960892
 20
3.636369318181824
 30
0.0
 11
-0.1239589836182127
 21
3.652725899501891
 31
0.0
  0
LINE
  5
F6
330
2
100
AcDbEntity
  8
0
100
AcDbLine
 10
-0.3906299205988653
 20
3.806823863636371
 30
0.0
 11
-0.335899037837005
 21
3.838422753531917
 31
0.0
  0
LINE
  5
F7
330
2
100
AcDbEntity
  8
0
100
AcDbLine
 10
-0.2922179428960892
 20
3.750005681818188
 30
0.0
 11
-0.3906299205988653
 21
3.806823863636371
 31
0.0
  0
LINE
  5
F8
330
2
100
AcDbEntity
  8
0
100
AcDbLine
 10
-0.3906299205988653
 20
3.693187500000008
 30
0.0
 11
-0.2922179428960892
 21
3.750005681818188
 31
0.0
  0
LINE
  5
F9
330
2
100
AcDbEntity
  8
0
100
AcDbLine
 10
-0.2922179428960892
 20
3.636369318181824
 30
0.0
 11
-0.3906299205988653
 21
3.693187500000008
 31
0.0
  0
ARC
  5
FA
330
2
100
AcDbEntity
  8
0
100
AcDbCircle
 10
-0.3897163523018765
 20
4.398548662464695
 30
0.0
 40
0.3499999999999915
100
AcDbArc
 50
248.2132107017378
 51
291.7867892982621
  0
LINE
  5
FB
330
2
100
AcDbEntity
  8
0
100
AcDbLine
 10
-0.367012968707515
 20
3.956822753531919
 30
0.0
 11
-0.2922179428961034
 21
4.000005681818182
 31
0.0
  0
LINE
  5
FC
330
2
100
AcDbEntity
  8
0
100
AcDbLine
 10
-0.2922179428961034
 20
4.000005681818182
 30
0.0
 11
-0.3762968517267051
 21
4.048548662464702
 31
0.0
  0
LINE
  5
FD
330
2
100
AcDbEntity
  8
0
100
AcDbLine
 10
0.2922081016983515
 20
3.579545454545456
 30
0.0
 11
0.3906200794011276
 21
3.636363636363636
 31
0.0
  0
SPLINE
  5
FE
330
2
100
AcDbEntity
  8
0
100
AcDbSpline
210
0.0
220
0.0
230
1.0
 70
     8
 71
     3
 72
    11
 73
     7
 74
     5
 42
0.0000000001
 43
0.0000000001
 44
0.0000000001
 40
0.0
 40
0.0
 40
0.0
 40
0.0
 40
0.0265175851028659
 40
0.1076142305852697
 40
0.1877136814534682
 40
0.2546076432833052
 40
0.2546076432833052
 40
0.2546076432833052
 40
0.2546076432833052
 10
0.1236552329866001
 20
3.739387636370602
 30
0.0
 10
0.1295466898338366
 20
3.73212376307436
 30
0.0
 10
0.1534555259206173
 20
3.702645357223613
 30
0.0
 10
0.1017197938359349
 20
3.637971146066795
 30
0.0
 10
0.1485560919767574
 20
3.560583911917605
 30
0.0
 10
0.1152223931630489
 20
3.518947812108803
 30
0.0
 10
0.1000528482882839
 20
3.5
 30
0.0
 11
0.1236552329866001
 21
3.739387636370602
 31
0.0
 11
0.1380769560674153
 21
3.717134631560734
 31
0.0
 11
0.1210673582908726
 21
3.637841886041494
 31
0.0
 11
0.1324070674633404
 21
3.558549181299691
 31
0.0
 11
0.1000528482882839
 21
3.5
 31
0.0
  0
LINE
  5
FF
330
2
100
AcDbEntity
  8
0
100
AcDbLine
 10
0.2922081016983444
 20
3.238636363636362
 30
0.0
 11
0.3906200794011205
 21
3.295454545454541
 31
0.0
  0
LINE
  5
100
330
2
100
AcDbEntity
  8
0
100
AcDbLine
 10
0.3906200794011188
 20
3.181818181818178
 30
0.0
 11
0.2922081016983444
 21
3.238636363636362
 31
0.0
  0
LINE
  5
101
330
2
100
AcDbEntity
  8
0
100
AcDbLine
 10
0.3906200794011188
 20
3.068181818181818
 30
0.0
 11
0.2922081016983444
 21
3.124999999999998
 31
0.0
  0
LINE
  5
102
330
2
100
AcDbEntity
  8
0
100
AcDbLine
 10
0.2922081016983444
 20
3.011363636363635
 30
0.0
 11
0.3906200794011205
 21
3.068181818181818
 31
0.0
  0
LINE
  5
103
330
2
100
AcDbEntity
  8
0
100
AcDbLine
 10
0.2922081016983444
 20
3.124999999999998
 30
0.0
 11
0.3906200794011205
 21
3.181818181818178
 31
0.0
  0
LINE
  5
104
330
2
100
AcDbEntity
  8
0
100
AcDbLine
 10
0.3906200794011188
 20
3.295454545454541
 30
0.0
 11
0.2922081016983444
 21
3.352272727272725
 31
0.0
  0
LINE
  5
105
330
2
100
AcDbEntity
  8
0
100
AcDbLine
 10
0.2922081016983515
 20
3.465909090909093
 30
0.0
 11
0.3906200794011276
 21
3.522727272727273
 31
0.0
  0
LINE
  5
106
330
2
100
AcDbEntity
  8
0
100
AcDbLine
 10
0.2922081016983515
 20
3.352272727272729
 30
0.0
 11
0.3906200794011276
 21
3.409090909090913
 31
0.0
  0
LINE
  5
107
330
2
100
AcDbEntity
  8
0
100
AcDbLine
 10
0.3906200794011259
 20
3.409090909090913
 30
0.0
 11
0.2922081016983515
 21
3.465909090909093
 31
0.0
  0
LINE
  5
108
330
2
100
AcDbEntity
  8
0
100
AcDbLine
 10
0.3906200794011259
 20
3.522727272727273
 30
0.0
 11
0.2922081016983515
 21
3.579545454545456
 31
0.0
  0
LINE
  5
109
330
2
100
AcDbEntity
  8
0
100
AcDbLine
 10
0.1326582522558804
 20
3.564035492412026
 30
0.0
 11
0.2922081016983515
 21
3.579545454545456
 31
0.0
  0
LINE
  5
10A
330
2
100
AcDbEntity
  8
0
100
AcDbLine
 10
0.390620079401133
 20
3.750000000000007
 30
0.0
 11
0.2922081016983587
 21
3.806818181818187
 31
0.0
  0
LINE
  5
10B
330
2
100
AcDbEntity
  8
0
100
AcDbLine
 10
0.2922081016983587
 20
3.693181818181824
 30
0.0
 11
0.3906200794011348
 21
3.750000000000007
 31
0.0
  0
LINE
  5
10C
330
2
100
AcDbEntity
  8
0
100
AcDbLine
 10
0.2922081016983587
 20
3.806818181818187
 30
0.0
 11
0.3469488256579947
 21
3.838422753531917
 31
0.0
  0
LINE
  5
10D
330
2
100
AcDbEntity
  8
0
100
AcDbLine
 10
0.3906200794011259
 20
3.636363636363636
 30
0.0
 11
0.2922081016983515
 21
3.693181818181819
 31
0.0
  0
LINE
  5
10E
330
2
100
AcDbEntity
  8
0
100
AcDbLine
 10
0.3906200794011348
 20
3.750000000000007
 30
0.0
 11
0.1291273605512835
 21
3.730984249485245
 31
0.0
  0
LINE
  5
10F
330
2
100
AcDbEntity
  8
0
100
AcDbLine
 10
0.3906200794011276
 20
3.636363636363636
 30
0.0
 11
0.1221670255915619
 21
3.616841730290606
 31
0.0
  0
LINE
  5
110
330
2
100
AcDbEntity
  8
0
100
AcDbLine
 10
0.1325668951032739
 20
3.67766297515015
 30
0.0
 11
0.2922081016983587
 21
3.693181818181824
 31
0.0
  0
ARC
  5
111
330
2
100
AcDbEntity
  8
0
100
AcDbCircle
 10
0.3897065111041211
 20
4.398548662464714
 30
0.0
 40
0.3500000000000102
100
AcDbArc
 50
248.2132107017385
 51
291.7867892982612
  0
LINE
  5
112
330
2
100
AcDbEntity
  8
0
100
AcDbLine
 10
0.3158348947874821
 20
3.956822753531919
 30
0.0
 11
0.3906200794011205
 21
3.999999999999998
 31
0.0
  0
LINE
  5
113
330
2
100
AcDbEntity
  8
0
100
AcDbLine
 10
0.3906200794011188
 20
4.000000000000002
 30
0.0
 11
0.3065313293727403
 21
4.048548662464702
 31
0.0
  0
LINE
  5
114
330
2
100
AcDbEntity
  8
0
100
AcDbLine
 10
0.7999950794011213
 20
3.956822753531919
 30
0.0
 11
0.7999950794011213
 21
3.838422753531917
 31
0.0
  0
LINE
  5
1FC
330
2
100
AcDbEntity
  8
0
100
AcDbLine
 10
-1.625
 20
8.250000000000004
 30
0.0
 11
1.625
 21
8.250000000000004
 31
0.0
  0
LINE
  5
1FD
330
2
100
AcDbEntity
  8
0
100
AcDbLine
 10
1.625
 20
6.0
 30
0.0
 11
-1.625
 21
6.0
 31
0.0
  0
LINE
  5
1FE
330
2
100
AcDbEntity
  8
0
100
AcDbLine
 10
-1.625
 20
6.282959810794495
 30
0.0
 11
-1.625
 21
8.250000000000004
 31
0.0
  0
LINE
  5
1FF
330
2
100
AcDbEntity
  8
0
100
AcDbLine
 10
-1.5625
 20
6.0
 30
0.0
 11
-1.5625
 21
6.232959810794494
 31
0.0
  0
LINE
  5
200
330
2
100
AcDbEntity
  8
0
100
AcDbLine
 10
-1.625
 20
6.0
 30
0.0
 11
-1.625
 21
6.121033659523183
 31
0.0
  0
ARC
  5
201
330
2
100
AcDbEntity
  8
0
100
AcDbCircle
 10
-1.612500000000001
 20
6.232959810794494
 30
0.0
 40
0.05
100
AcDbArc
 50
359.9999999999999
 51
90.0
  0
LINE
  5
202
330
2
100
AcDbEntity
  8
0
100
AcDbLine
 10
-1.612500000000001
 20
6.282959810794495
 30
0.0
 11
-1.625
 21
6.282959810794495
 31
0.0
  0
LINE
  5
203
330
2
100
AcDbEntity
  8
0
100
AcDbLine
 10
1.625
 20
8.250000000000004
 30
0.0
 11
1.625
 21
6.282959810794496
 31
0.0
  0
LINE
  5
204
330
2
100
AcDbEntity
  8
0
100
AcDbLine
 10
0.3906200794011205
 20
5.454545454545459
 30
0.0
 11
-0.3906299205988795
 21
5.397732954545456
 31
0.0
  0
LINE
  5
205
330
2
100
AcDbEntity
  8
0
100
AcDbLine
 10
-0.3906299205988795
 20
5.397732954545456
 30
0.0
 11
-0.2922179428961034
 21
5.454551136363639
 31
0.0
  0
LINE
  5
206
330
2
100
AcDbEntity
  8
0
100
AcDbLine
 10
0.2922081016983444
 20
5.397727272727275
 30
0.0
 11
0.3906200794011205
 21
5.454545454545455
 31
0.0
  0
LINE
  5
207
330
2
100
AcDbEntity
  8
0
100
AcDbLine
 10
-0.2922179428961034
 20
5.000005681818182
 30
0.0
 11
0.2922081016983444
 21
5.056818181818182
 31
0.0
  0
LINE
  5
208
330
2
100
AcDbEntity
  8
0
100
AcDbLine
 10
-0.2922179428961034
 20
4.886369318181819
 30
0.0
 11
0.2922081016983444
 21
4.943181818181818
 31
0.0
  0
LINE
  5
209
330
2
100
AcDbEntity
  8
0
100
AcDbLine
 10
-0.2922179428961034
 20
5.113642045454546
 30
0.0
 11
0.2922081016983444
 21
5.170454545454549
 31
0.0
  0
LINE
  5
20A
330
2
100
AcDbEntity
  8
0
100
AcDbLine
 10
-0.2922179428961034
 20
5.340914772727276
 30
0.0
 11
0.2922081016983444
 21
5.397727272727275
 31
0.0
  0
LINE
  5
20B
330
2
100
AcDbEntity
  8
0
100
AcDbLine
 10
-0.2922179428961034
 20
5.227278409090912
 30
0.0
 11
0.2922081016983444
 21
5.284090909090912
 31
0.0
  0
ARC
  5
20C
330
2
100
AcDbEntity
  8
0
100
AcDbCircle
 10
-0.0000049205988812
 20
3.211110380950065
 30
0.0
 40
1.362499999999996
100
AcDbArc
 50
79.00726691069063
 51
100.9927330893092
  0
LINE
  5
20D
330
2
100
AcDbEntity
  8
0
100
AcDbLine
 10
-0.2922179428961034
 20
4.659096590909089
 30
0.0
 11
0.2922081016983444
 21
4.715909090909092
 31
0.0
  0
LINE
  5
20E
330
2
100
AcDbEntity
  8
0
100
AcDbLine
 10
-0.2922179428961034
 20
4.772732954545456
 30
0.0
 11
0.2922081016983444
 21
4.829545454545452
 31
0.0
  0
LINE
  5
20F
330
2
100
AcDbEntity
  8
0
100
AcDbLine
 10
0.3906200794011205
 20
5.113636363636362
 30
0.0
 11
-0.3906299205988795
 21
5.056823863636362
 31
0.0
  0
LINE
  5
210
330
2
100
AcDbEntity
  8
0
100
AcDbLine
 10
0.3906200794011205
 20
5.000000000000002
 30
0.0
 11
-0.3906299205988795
 21
4.943187499999999
 31
0.0
  0
LINE
  5
211
330
2
100
AcDbEntity
  8
0
100
AcDbLine
 10
0.3906200794011205
 20
4.886363636363635
 30
0.0
 11
-0.3906299205988795
 21
4.829551136363635
 31
0.0
  0
LINE
  5
212
330
2
100
AcDbEntity
  8
0
100
AcDbLine
 10
0.3906200794011205
 20
4.772727272727272
 30
0.0
 11
-0.3906299205988795
 21
4.715914772727272
 31
0.0
  0
LINE
  5
213
330
2
100
AcDbEntity
  8
0
100
AcDbLine
 10
0.3906200794011205
 20
4.659090909090908
 30
0.0
 11
-0.3906299205988795
 21
4.602278409090909
 31
0.0
  0
LINE
  5
214
330
2
100
AcDbEntity
  8
0
100
AcDbLine
 10
0.3906200794011205
 20
5.227272727272728
 30
0.0
 11
-0.3906299205988795
 21
5.170460227272729
 31
0.0
  0
LINE
  5
215
330
2
100
AcDbEntity
  8
0
100
AcDbLine
 10
0.3906200794011205
 20
5.340909090909092
 30
0.0
 11
-0.3906299205988795
 21
5.284096590909092
 31
0.0
  0
LINE
  5
216
330
2
100
AcDbEntity
  8
0
100
AcDbLine
 10
0.3897065111041211
 20
4.580548662464702
 30
0.0
 11
-0.3897163523018747
 21
4.580548662464702
 31
0.0
  0
LINE
  5
217
330
2
100
AcDbEntity
  8
0
100
AcDbLine
 10
-0.2922179428961034
 20
4.772732954545456
 30
0.0
 11
-0.3906299205988795
 21
4.829551136363635
 31
0.0
  0
ARC
  5
218
330
2
100
AcDbEntity
  8
0
100
AcDbCircle
 10
-0.3897163523018765
 20
4.230548662464711
 30
0.0
 40
0.3499999999999915
100
AcDbArc
 50
68.21321070173785
 51
111.786789298262
  0
LINE
  5
219
330
2
100
AcDbEntity
  8
0
100
AcDbLine
 10
-0.3906299205988795
 20
4.715914772727272
 30
0.0
 11
-0.2922179428961034
 21
4.772732954545456
 31
0.0
  0
LINE
  5
21A
330
2
100
AcDbEntity
  8
0
100
AcDbLine
 10
-0.3906299205988795
 20
4.602278409090909
 30
0.0
 11
-0.2922179428961034
 21
4.659096590909089
 31
0.0
  0
LINE
  5
21B
330
2
100
AcDbEntity
  8
0
100
AcDbLine
 10
-0.3529928954066932
 20
4.580548662464702
 30
0.0
 11
-0.3906299205988795
 21
4.602278409090909
 31
0.0
  0
LINE
  5
21C
330
2
100
AcDbEntity
  8
0
100
AcDbLine
 10
-0.2922179428961034
 20
4.659096590909089
 30
0.0
 11
-0.3906299205988795
 21
4.715914772727272
 31
0.0
  0
LINE
  5
21D
330
2
100
AcDbEntity
  8
0
100
AcDbLine
 10
-0.3906299205988795
 20
5.056823863636366
 30
0.0
 11
-0.2922179428961034
 21
5.113642045454546
 31
0.0
  0
LINE
  5
21E
330
2
100
AcDbEntity
  8
0
100
AcDbLine
 10
-0.2922179428961034
 20
5.000005681818182
 30
0.0
 11
-0.3906299205988795
 21
5.056823863636362
 31
0.0
  0
LINE
  5
21F
330
2
100
AcDbEntity
  8
0
100
AcDbLine
 10
-0.3906299205988795
 20
4.829551136363639
 30
0.0
 11
-0.2922179428961034
 21
4.886369318181819
 31
0.0
  0
LINE
  5
220
330
2
100
AcDbEntity
  8
0
100
AcDbLine
 10
-0.2922179428961034
 20
4.886369318181819
 30
0.0
 11
-0.3906299205988795
 21
4.943187499999999
 31
0.0
  0
LINE
  5
221
330
2
100
AcDbEntity
  8
0
100
AcDbLine
 10
-0.3906299205988795
 20
4.943187499999999
 30
0.0
 11
-0.2922179428961034
 21
5.000005681818182
 31
0.0
  0
LINE
  5
222
330
2
100
AcDbEntity
  8
0
100
AcDbLine
 10
-0.2922179428961034
 20
5.340914772727276
 30
0.0
 11
-0.3906299205988795
 21
5.397732954545456
 31
0.0
  0
LINE
  5
223
330
2
100
AcDbEntity
  8
0
100
AcDbLine
 10
-0.2922179428961034
 20
5.113642045454546
 30
0.0
 11
-0.3906299205988795
 21
5.170460227272729
 31
0.0
  0
LINE
  5
224
330
2
100
AcDbEntity
  8
0
100
AcDbLine
 10
-0.3906299205988795
 20
5.170460227272729
 30
0.0
 11
-0.2922179428961034
 21
5.227278409090912
 31
0.0
  0
LINE
  5
225
330
2
100
AcDbEntity
  8
0
100
AcDbLine
 10
-0.2922179428961034
 20
5.227278409090912
 30
0.0
 11
-0.3906299205988795
 21
5.284096590909092
 31
0.0
  0
LINE
  5
226
330
2
100
AcDbEntity
  8
0
100
AcDbLine
 10
-0.3906299205988795
 20
5.284096590909096
 30
0.0
 11
-0.2922179428961034
 21
5.340914772727276
 31
0.0
  0
LINE
  5
227
330
2
100
AcDbEntity
  8
0
100
AcDbLine
 10
0.3906200794011188
 20
4.772727272727272
 30
0.0
 11
0.2922081016983444
 21
4.829545454545452
 31
0.0
  0
ARC
  5
228
330
2
100
AcDbEntity
  8
0
100
AcDbCircle
 10
0.3897065111041211
 20
4.23054866246469
 30
0.0
 40
0.3500000000000102
100
AcDbArc
 50
68.21321070173863
 51
111.7867892982614
  0
LINE
  5
229
330
2
100
AcDbEntity
  8
0
100
AcDbLine
 10
0.3298352856927602
 20
4.580548662464702
 30
0.0
 11
0.2922081016983444
 21
4.602272727272725
 31
0.0
  0
LINE
  5
22A
330
2
100
AcDbEntity
  8
0
100
AcDbLine
 10
0.2922081016983444
 20
4.715909090909092
 30
0.0
 11
0.3906200794011205
 21
4.772727272727272
 31
0.0
  0
LINE
  5
22B
330
2
100
AcDbEntity
  8
0
100
AcDbLine
 10
0.2922081016983444
 20
4.602272727272725
 30
0.0
 11
0.3906200794011205
 21
4.659090909090908
 31
0.0
  0
LINE
  5
22C
330
2
100
AcDbEntity
  8
0
100
AcDbLine
 10
0.3906200794011188
 20
4.659090909090908
 30
0.0
 11
0.2922081016983444
 21
4.715909090909092
 31
0.0
  0
LINE
  5
22D
330
2
100
AcDbEntity
  8
0
100
AcDbLine
 10
0.0687342311898087
 20
4.580548662464702
 30
0.0
 11
0.2922081016983444
 21
4.602272727272725
 31
0.0
  0
LINE
  5
22E
330
2
100
AcDbEntity
  8
0
100
AcDbLine
 10
0.2922081016983444
 20
5.056818181818182
 30
0.0
 11
0.3906200794011205
 21
5.113636363636362
 31
0.0
  0
LINE
  5
22F
330
2
100
AcDbEntity
  8
0
100
AcDbLine
 10
0.3906200794011188
 20
5.000000000000002
 30
0.0
 11
0.2922081016983444
 21
5.056818181818182
 31
0.0
  0
LINE
  5
230
330
2
100
AcDbEntity
  8
0
100
AcDbLine
 10
0.3906200794011188
 20
4.886363636363635
 30
0.0
 11
0.2922081016983444
 21
4.943181818181818
 31
0.0
  0
LINE
  5
231
330
2
100
AcDbEntity
  8
0
100
AcDbLine
 10
0.2922081016983444
 20
4.829545454545452
 30
0.0
 11
0.3906200794011205
 21
4.886363636363635
 31
0.0
  0
LINE
  5
232
330
2
100
AcDbEntity
  8
0
100
AcDbLine
 10
0.2922081016983444
 20
4.943181818181818
 30
0.0
 11
0.3906200794011205
 21
4.999999999999998
 31
0.0
  0
LINE
  5
233
330
2
100
AcDbEntity
  8
0
100
AcDbLine
 10
0.3906200794011188
 20
5.340909090909092
 30
0.0
 11
0.2922081016983444
 21
5.397727272727275
 31
0.0
  0
LINE
  5
234
330
2
100
AcDbEntity
  8
0
100
AcDbLine
 10
0.3906200794011188
 20
5.113636363636362
 30
0.0
 11
0.2922081016983444
 21
5.170454545454549
 31
0.0
  0
LINE
  5
235
330
2
100
AcDbEntity
  8
0
100
AcDbLine
 10
0.2922081016983444
 20
5.170454545454549
 30
0.0
 11
0.3906200794011205
 21
5.227272727272728
 31
0.0
  0
LINE
  5
236
330
2
100
AcDbEntity
  8
0
100
AcDbLine
 10
0.3906200794011188
 20
5.227272727272728
 30
0.0
 11
0.2922081016983444
 21
5.284090909090912
 31
0.0
  0
LINE
  5
237
330
2
100
AcDbEntity
  8
0
100
AcDbLine
 10
0.2922081016983444
 20
5.284090909090912
 30
0.0
 11
0.3906200794011205
 21
5.340909090909092
 31
0.0
  0
LINE
  5
238
330
2
100
AcDbEntity
  8
0
100
AcDbLine
 10
0.3906200794011205
 20
5.909090909090912
 30
0.0
 11
-0.3906299205988795
 21
5.852278409090912
 31
0.0
  0
LINE
  5
239
330
2
100
AcDbEntity
  8
0
100
AcDbLine
 10
-0.2922179428961034
 20
5.909096590909096
 30
0.0
 11
0.2922081016983444
 21
5.965909090909095
 31
0.0
  0
LINE
  5
23A
330
2
100
AcDbEntity
  8
0
100
AcDbLine
 10
-0.2922179428961034
 20
5.795460227272729
 30
0.0
 11
0.2922081016983444
 21
5.852272727272732
 31
0.0
  0
LINE
  5
23B
330
2
100
AcDbEntity
  8
0
100
AcDbLine
 10
-0.2922179428961034
 20
5.681823863636369
 30
0.0
 11
0.2922081016983444
 21
5.738636363636365
 31
0.0
  0
LINE
  5
23C
330
2
100
AcDbEntity
  8
0
100
AcDbLine
 10
-0.2922179428961034
 20
5.454551136363639
 30
0.0
 11
0.2922081016983444
 21
5.511363636363639
 31
0.0
  0
LINE
  5
23D
330
2
100
AcDbEntity
  8
0
100
AcDbLine
 10
-0.2922179428961034
 20
5.568187500000002
 30
0.0
 11
0.2922081016983444
 21
5.625000000000002
 31
0.0
  0
LINE
  5
23E
330
2
100
AcDbEntity
  8
0
100
AcDbLine
 10
0.0780888262757742
 20
6.0
 30
0.0
 11
-0.3906299205988795
 21
5.965914772727276
 31
0.0
  0
LINE
  5
23F
330
2
100
AcDbEntity
  8
0
100
AcDbLine
 10
0.3906200794011205
 20
5.795454545454549
 30
0.0
 11
-0.3906299205988795
 21
5.738642045454549
 31
0.0
  0
LINE
  5
240
330
2
100
AcDbEntity
  8
0
100
AcDbLine
 10
0.3906200794011205
 20
5.681818181818185
 30
0.0
 11
-0.3906299205988795
 21
5.625005681818186
 31
0.0
  0
LINE
  5
241
330
2
100
AcDbEntity
  8
0
100
AcDbLine
 10
0.3906200794011205
 20
5.568181818181822
 30
0.0
 11
-0.3906299205988795
 21
5.511369318181819
 31
0.0
  0
LINE
  5
242
330
2
100
AcDbEntity
  8
0
100
AcDbLine
 10
-0.2922179428961034
 20
5.681823863636369
 30
0.0
 11
-0.3906299205988795
 21
5.738642045454549
 31
0.0
  0
LINE
  5
243
330
2
100
AcDbEntity
  8
0
100
AcDbLine
 10
-0.3906299205988795
 20
5.625005681818186
 30
0.0
 11
-0.2922179428961034
 21
5.681823863636369
 31
0.0
  0
LINE
  5
244
330
2
100
AcDbEntity
  8
0
100
AcDbLine
 10
-0.3906299205988795
 20
5.511369318181822
 30
0.0
 11
-0.2922179428961034
 21
5.568187500000002
 31
0.0
  0
LINE
  5
245
330
2
100
AcDbEntity
  8
0
100
AcDbLine
 10
-0.2922179428961034
 20
5.454551136363639
 30
0.0
 11
-0.3906299205988795
 21
5.511369318181819
 31
0.0
  0
LINE
  5
246
330
2
100
AcDbEntity
  8
0
100
AcDbLine
 10
-0.2922179428961034
 20
5.568187500000002
 30
0.0
 11
-0.3906299205988795
 21
5.625005681818186
 31
0.0
  0
LINE
  5
247
330
2
100
AcDbEntity
  8
0
100
AcDbLine
 10
-0.3906299205988795
 20
5.965914772727279
 30
0.0
 11
-0.3315925751749944
 21
5.999999999999998
 31
0.0
  0
LINE
  5
248
330
2
100
AcDbEntity
  8
0
100
AcDbLine
 10
-0.2922179428961034
 20
5.909096590909096
 30
0.0
 11
-0.3906299205988795
 21
5.965914772727276
 31
0.0
  0
LINE
  5
249
330
2
100
AcDbEntity
  8
0
100
AcDbLine
 10
-0.2922179428961034
 20
5.795460227272729
 30
0.0
 11
-0.3906299205988795
 21
5.852278409090912
 31
0.0
  0
LINE
  5
24A
330
2
100
AcDbEntity
  8
0
100
AcDbLine
 10
-0.3906299205988795
 20
5.738642045454549
 30
0.0
 11
-0.2922179428961034
 21
5.795460227272729
 31
0.0
  0
LINE
  5
24B
330
2
100
AcDbEntity
  8
0
100
AcDbLine
 10
-0.3906299205988795
 20
5.852278409090912
 30
0.0
 11
-0.2922179428961034
 21
5.909096590909096
 31
0.0
  0
LINE
  5
24C
330
2
100
AcDbEntity
  8
0
100
AcDbLine
 10
0.3906200794011188
 20
5.681818181818185
 30
0.0
 11
0.2922081016983444
 21
5.738636363636365
 31
0.0
  0
LINE
  5
24D
330
2
100
AcDbEntity
  8
0
100
AcDbLine
 10
0.2922081016983444
 20
5.625000000000002
 30
0.0
 11
0.3906200794011205
 21
5.681818181818182
 31
0.0
  0
LINE
  5
24E
330
2
100
AcDbEntity
  8
0
100
AcDbLine
 10
0.2922081016983444
 20
5.511363636363639
 30
0.0
 11
0.3906200794011205
 21
5.568181818181822
 31
0.0
  0
LINE
  5
24F
330
2
100
AcDbEntity
  8
0
100
AcDbLine
 10
0.3906200794011188
 20
5.454545454545459
 30
0.0
 11
0.2922081016983444
 21
5.511363636363639
 31
0.0
  0
LINE
  5
250
330
2
100
AcDbEntity
  8
0
100
AcDbLine
 10
0.3906200794011188
 20
5.568181818181822
 30
0.0
 11
0.2922081016983444
 21
5.625000000000002
 31
0.0
  0
LINE
  5
251
330
2
100
AcDbEntity
  8
0
100
AcDbLine
 10
0.3906200794011188
 20
5.909090909090912
 30
0.0
 11
0.2922081016983444
 21
5.965909090909095
 31
0.0
  0
LINE
  5
252
330
2
100
AcDbEntity
  8
0
100
AcDbLine
 10
0.2922081016983444
 20
5.965909090909095
 30
0.0
 11
0.3512552883200026
 21
5.999999999999998
 31
0.0
  0
LINE
  5
253
330
2
100
AcDbEntity
  8
0
100
AcDbLine
 10
0.3906200794011188
 20
5.795454545454549
 30
0.0
 11
0.2922081016983444
 21
5.852272727272732
 31
0.0
  0
LINE
  5
254
330
2
100
AcDbEntity
  8
0
100
AcDbLine
 10
0.2922081016983444
 20
5.738636363636365
 30
0.0
 11
0.3906200794011205
 21
5.795454545454549
 31
0.0
  0
LINE
  5
255
330
2
100
AcDbEntity
  8
0
100
AcDbLine
 10
0.2922081016983444
 20
5.852272727272732
 30
0.0
 11
0.3906200794011205
 21
5.909090909090912
 31
0.0
  0
LINE
  5
256
330
2
100
AcDbEntity
  8
0
100
AcDbLine
 10
1.5625
 20
6.232959810794496
 30
0.0
 11
1.5625
 21
6.0
 31
0.0
  0
LINE
  5
257
330
2
100
AcDbEntity
  8
0
100
AcDbLine
 10
1.625
 20
6.121033659523183
 30
0.0
 11
1.625
 21
6.0
 31
0.0
  0
ARC
  5
258
330
2
100
AcDbEntity
  8
0
100
AcDbCircle
 10
1.612500000000001
 20
6.232959810794496
 30
0.0
 40
0.05
100
AcDbArc
 50
90.00000000000162
 51
180.0
  0
LINE
  5
259
330
2
100
AcDbEntity
  8
0
100
AcDbLine
 10
1.625
 20
6.282959810794496
 30
0.0
 11
1.612499999999997
 21
6.282959810794496
 31
0.0
  0
CIRCLE
  5
25A
330
2
100
AcDbEntity
  8
0
100
AcDbCircle
 10
0.0
 20
7.500000000000004
 30
0.0
 40
0.281
  0
CIRCLE
  5
25B
330
2
100
AcDbEntity
  8
0
100
AcDbCircle
 10
-0.875
 20
6.812500000000004
 30
0.0
 40
0.0855
  0
CIRCLE
  5
25C
330
2
100
AcDbEntity
  8
0
100
AcDbCircle
 10
0.875
 20
6.812500000000004
 30
0.0
 40
0.0855
  0
CIRCLE
  5
25D
330
2
100
AcDbEntity
  8
0
100
AcDbCircle
 10
-0.875
 20
8.000000000000004
 30
0.0
 40
0.0855000000000025
  0
CIRCLE
  5
25E
330
2
100
AcDbEntity
  8
0
100
AcDbCircle
 10
0.875
 20
8.000000000000004
 30
0.0
 40
0.0855
  0
LINE
  5
2D2
330
2
100
AcDbEntity
  8
0
100
AcDbLine
 10
1.625
 20
6.121033659523182
 30
0.0
 11
1.5625
 21
6.121033659523182
 31
0.0
  0
LINE
  5
2D3
330
2
100
AcDbEntity
  8
0
100
AcDbLine
 10
-1.5625
 20
6.121033659523183
 30
0.0
 11
-1.625
 21
6.121033659523182
 31
0.0
  0
LINE
  5
2D9
330
2
100
AcDbEntity
  8
0
  6
HIDDEN
100
AcDbLine
 10
-1.5625
 20
6.121033659523183
 30
0.0
 11
1.5625
 21
6.116479905397248
 31
0.0
  0
ENDSEC
  0
SECTION
  2
OBJECTS
  0
DICTIONARY
  5
7
330
0
100
AcDbDictionary
281
     1
  3
ACAD_COLOR
350
2CD
  3
ACAD_GROUP
350
20
  3
ACAD_LAYOUT
350
B
  3
ACAD_MATERIAL
350
2CC
  3
ACAD_MLINESTYLE
350
21
  3
ACAD_PLOTSETTINGS
350
22
  3
ACAD_PLOTSTYLENAME
350
6
  3
ACAD_TABLESTYLE
350
2CE
  3
ACDBHEADERROUNDTRIPXREC
350
2F3
  3
AcDbVariableDictionary
350
2C0
  0
DICTIONARY
  5
2D4
330
2
100
AcDbDictionary
280
     1
281
     1
  3
ACAD_SORTENTS
360
2D5
  0
DICTIONARY
  5
2CD
102
{ACAD_REACTORS
330
7
102
}
330
7
100
AcDbDictionary
281
     1
  0
DICTIONARY
  5
20
102
{ACAD_REACTORS
330
7
102
}
330
7
100
AcDbDictionary
281
     1
  0
DICTIONARY
  5
B
102
{ACAD_REACTORS
330
7
102
}
330
7
100
AcDbDictionary
281
     1
  3
Layout1
350
F
  3
Model
350
A
  0
DICTIONARY
  5
2CC
102
{ACAD_REACTORS
330
7
102
}
330
7
100
AcDbDictionary
281
     1
  0
DICTIONARY
  5
21
102
{ACAD_REACTORS
330
7
102
}
330
7
100
AcDbDictionary
281
     1
  3
STANDARD
350
24
  0
DICTIONARY
  5
22
102
{ACAD_REACTORS
330
7
102
}
330
7
100
AcDbDictionary
281
     1
  0
ACDBDICTIONARYWDFLT
  5
6
102
{ACAD_REACTORS
330
7
102
}
330
7
100
AcDbDictionary
281
     1
  3
Normal
350
5
100
AcDbDictionaryWithDefault
340
5
  0
DICTIONARY
  5
2CE
102
{ACAD_REACTORS
330
7
102
}
330
7
100
AcDbDictionary
281
     1
  3
Standard
350
2CF
  0
DICTIONARY
  5
2F3
102
{ACAD_REACTORS
330
7
102
}
330
7
100
AcDbDictionary
281
     1
  3
COLORDICT
350
2F4
  3
MATERIALDICT
350
2F5
  0
DICTIONARY
  5
2C0
102
{ACAD_REACTORS
330
7
102
}
330
7
100
AcDbDictionary
281
     1
  3
CTABLESTYLE
350
2F0
  3
HIDETEXT
350
2F2
  0
SORTENTSTABLE
  5
2D5
102
{ACAD_REACTORS
330
2D4
102
}
330
2D4
100
AcDbSortentsTable
330
2
331
0
  5
278
331
220
  5
220
331
227
  5
227
331
91
  5
91
331
259
  5
259
331
109
  5
109
331
59
  5
59
331
226
  5
226
331
55
  5
55
331
58
  5
58
331
212
  5
212
331
48
  5
48
331
DD
  5
DD
331
40
  5
40
331
FE
  5
FE
331
2B
  5
2B
331
D9
  5
D9
331
46
  5
46
331
EE
  5
EE
331
D3
  5
D3
331
F2
  5
F2
331
D6
  5
D6
331
C0
  5
C0
331
9F
  5
9F
331
22F
  5
22F
331
236
  5
236
331
22D
  5
22D
331
B4
  5
B4
331
79
  5
79
331
39
  5
39
331
A1
  5
A1
331
21F
  5
21F
331
10F
  5
10F
331
9C
  5
9C
331
243
  5
243
331
241
  5
241
331
24E
  5
24E
331
DF
  5
DF
331
84
  5
84
331
105
  5
105
331
D7
  5
D7
331
229
  5
229
331
70
  5
70
331
B0
  5
B0
331
216
  5
216
331
208
  5
208
331
51
  5
51
331
B6
  5
B6
331
FF
  5
FF
331
EC
  5
EC
331
34
  5
34
331
250
  5
250
331
10E
  5
10E
331
A4
  5
A4
331
251
  5
251
331
63
  5
63
331
82
  5
82
331
21E
  5
21E
331
242
  5
242
331
224
  5
224
331
A2
  5
A2
331
89
  5
89
331
23D
  5
23D
331
201
  5
201
331
4A
  5
4A
331
3A
  5
3A
331
F5
  5
F5
331
44
  5
44
331
21C
  5
21C
331
C4
  5
C4
331
225
  5
225
331
4B
  5
4B
331
7C
  5
7C
331
6C
  5
6C
331
8F
  5
8F
331
1FD
  5
1FD
331
6B
  5
6B
331
64
  5
64
331
253
  5
253
331
25A
  5
25A
331
102
  5
102
331
FD
  5
FD
331
21A
  5
21A
331
1FF
  5
1FF
331
74
  5
74
331
205
  5
205
331
231
  5
231
331
23C
  5
23C
331
83
  5
83
331
25E
  5
25E
331
EA
  5
EA
331
C6
  5
C6
331
2A
  5
2A
331
B9
  5
B9
331
25B
  5
25B
331
20E
  5
20E
331
F4
  5
F4
331
8B
  5
8B
331
7D
  5
7D
331
92
  5
92
331
BA
  5
BA
331
24F
  5
24F
331
214
  5
214
331
71
  5
71
331
A3
  5
A3
331
29
  5
29
331
98
  5
98
331
9D
  5
9D
331
23F
  5
23F
331
DE
  5
DE
331
E3
  5
E3
331
10A
  5
10A
331
60
  5
60
331
36
  5
36
331
C7
  5
C7
331
78
  5
78
331
35
  5
35
331
10C
  5
10C
331
203
  5
203
331
43
  5
43
331
106
  5
106
331
3F
  5
3F
331
21D
  5
21D
331
2D3
  5
2D3
331
D2
  5
D2
331
5B
  5
5B
331
AE
  5
AE
331
E6
  5
E6
331
246
  5
246
331
107
  5
107
331
C1
  5
C1
331
90
  5
90
331
87
  5
87
331
C5
  5
C5
331
F8
  5
F8
331
1FC
  5
1FC
331
223
  5
223
331
7A
  5
7A
331
47
  5
47
331
7F
  5
7F
331
7B
  5
7B
331
E1
  5
E1
331
45
  5
45
331
20C
  5
20C
331
FC
  5
FC
331
54
  5
54
331
221
  5
221
331
4C
  5
4C
331
247
  5
247
331
5C
  5
5C
331
B2
  5
B2
331
6D
  5
6D
331
200
  5
200
331
52
  5
52
331
D8
  5
D8
331
BC
  5
BC
331
97
  5
97
331
32
  5
32
331
6E
  5
6E
331
222
  5
222
331
24D
  5
24D
331
4E
  5
4E
331
202
  5
202
331
20D
  5
20D
331
93
  5
93
331
AB
  5
AB
331
94
  5
94
331
AA
  5
AA
331
235
  5
235
331
244
  5
244
331
DA
  5
DA
331
67
  5
67
331
F0
  5
F0
331
25D
  5
25D
331
31
  5
31
331
D0
  5
D0
331
210
  5
210
331
206
  5
206
331
F3
  5
F3
331
110
  5
110
331
20B
  5
20B
331
8C
  5
8C
331
101
  5
101
331
41
  5
41
331
217
  5
217
331
3B
  5
3B
331
239
  5
239
331
DC
  5
DC
331
209
  5
209
331
207
  5
207
331
100
  5
100
331
249
  5
249
331
68
  5
68
331
219
  5
219
331
22A
  5
22A
331
7E
  5
7E
331
2D2
  5
2D2
331
22B
  5
22B
331
88
  5
88
331
69
  5
69
331
99
  5
99
331
215
  5
215
331
75
  5
75
331
65
  5
65
331
62
  5
62
331
5D
  5
5D
331
3E
  5
3E
331
33
  5
33
331
81
  5
81
331
211
  5
211
331
D5
  5
D5
331
9A
  5
9A
331
50
  5
50
331
95
  5
95
331
6A
  5
6A
331
24B
  5
24B
331
AF
  5
AF
331
EF
  5
EF
331
114
  5
114
331
21B
  5
21B
331
AC
  5
AC
331
22E
  5
22E
331
232
  5
232
331
F7
  5
F7
331
57
  5
57
331
9B
  5
9B
331
C9
  5
C9
331
257
  5
257
331
73
  5
73
331
10B
  5
10B
331
256
  5
256
331
255
  5
255
331
B7
  5
B7
331
B1
  5
B1
331
113
  5
113
331
C2
  5
C2
331
24A
  5
24A
331
D4
  5
D4
331
BD
  5
BD
331
3D
  5
3D
331
56
  5
56
331
A8
  5
A8
331
A9
  5
A9
331
252
  5
252
331
8A
  5
8A
331
3C
  5
3C
331
245
  5
245
331
30
  5
30
331
C8
  5
C8
331
5E
  5
5E
331
240
  5
240
331
A6
  5
A6
331
258
  5
258
331
F1
  5
F1
331
4D
  5
4D
331
38
  5
38
331
218
  5
218
331
CC
  5
CC
331
E0
  5
E0
331
10D
  5
10D
331
238
  5
238
331
F9
  5
F9
331
ED
  5
ED
331
B8
  5
B8
331
103
  5
103
331
CE
  5
CE
331
23E
  5
23E
331
24C
  5
24C
331
20A
  5
20A
331
23B
  5
23B
331
86
  5
86
331
111
  5
111
331
42
  5
42
331
254
  5
254
331
234
  5
234
331
5A
  5
5A
331
233
  5
233
331
FA
  5
FA
331
25C
  5
25C
331
A0
  5
A0
331
CF
  5
CF
331
A5
  5
A5
331
C3
  5
C3
331
8E
  5
8E
331
8D
  5
8D
331
49
  5
49
331
61
  5
61
331
E4
  5
E4
331
248
  5
248
331
85
  5
85
331
FB
  5
FB
331
E2
  5
E2
331
72
  5
72
331
D1
  5
D1
331
76
  5
76
331
77
  5
77
331
E7
  5
E7
331
A7
  5
A7
331
BE
  5
BE
331
BF
  5
BF
331
E9
  5
E9
331
AD
  5
AD
331
230
  5
230
331
80
  5
80
331
BB
  5
BB
331
EB
  5
EB
331
B5
  5
B5
331
B3
  5
B3
331
204
  5
204
331
6F
  5
6F
331
228
  5
228
331
27
  5
27
331
4F
  5
4F
331
1FE
  5
1FE
331
96
  5
96
331
CD
  5
CD
331
237
  5
237
331
20F
  5
20F
331
22C
  5
22C
331
112
  5
112
331
5F
  5
5F
331
DB
  5
DB
331
53
  5
53
331
37
  5
37
331
104
  5
104
331
108
  5
108
331
E5
  5
E5
331
CB
  5
CB
331
213
  5
213
331
23A
  5
23A
331
CA
  5
CA
331
E8
  5
E8
331
9E
  5
9E
331
66
  5
66
331
F6
  5
F6
  0
LAYOUT
  5
F
102
{ACAD_REACTORS
330
B
102
}
102
{ACAD_XDICTIONARY
360
2F6
102
}
330
B
100
AcDbPlotSettings
  1

  2
HP LaserJet 2100 Series PS
  4

  6

 40
0.0
 41
0.0
 42
0.0
 43
0.0
 44
0.0
 45
0.0
 46
0.0
 47
0.0
 48
0.0
 49
0.0
140
0.0
141
0.0
142
1.0
143
1.0
 70
   688
 72
     0
 73
     0
 74
     5
  7
monochrome.ctb
 75
    16
147
1.0
148
0.0
149
0.0
100
AcDbLayout
  1
Layout1
 70
     0
 71
     1
 10
0.0
 20
0.0
 11
12.0
 21
9.0
 12
0.0
 22
0.0
 32
0.0
 14
1.000000000000000E+20
 24
1.000000000000000E+20
 34
1.000000000000000E+20
 15
-1.000000000000000E+20
 25
-1.000000000000000E+20
 35
-1.000000000000000E+20
146
0.0
 13
0.0
 23
0.0
 33
0.0
 16
1.0
 26
0.0
 36
0.0
 17
0.0
 27
1.0
 37
0.0
 76
     0
330
C
  0
LAYOUT
  5
A
102
{ACAD_REACTORS
330
B
102
}
102
{ACAD_XDICTIONARY
360
2F8
102
}
330
B
100
AcDbPlotSettings
  1

  2
HP LaserJet 2100 Series PS
  4
Letter
  6

 40
5.365749835968018
 41
5.408073902130127
 42
5.132904052734375
 43
5.090576171875
 44
215.8999938964844
 45
279.3999938964844
 46
0.0
 47
0.0
 48
0.0
 49
0.0
140
0.0
141
0.0
142
1.0
143
1.0
 70
 11952
 72
     0
 73
     1
 74
     0
  7
monochrome.ctb
 75
     0
147
1.0
148
-92.33070797844178
149
24.17269656488928
100
AcDbLayout
  1
Model
 70
     1
 71
     0
 10
0.0
 20
0.0
 11
12.0
 21
9.0
 12
0.0
 22
0.0
 32
0.0
 14
0.0
 24
0.0
 34
0.0
 15
0.0
 25
0.0
 35
0.0
146
0.0
 13
0.0
 23
0.0
 33
0.0
 16
1.0
 26
0.0
 36
0.0
 17
0.0
 27
1.0
 37
0.0
 76
     0
330
2
  0
MLINESTYLE
  5
24
102
{ACAD_REACTORS
330
21
102
}
330
21
100
AcDbMlineStyle
  2
STANDARD
 70
     0
  3

 62
   256
 51
90.0
 52
90.0
 71
     2
 49
0.5
 62
   256
  6
BYLAYER
 49
-0.5
 62
   256
  6
BYLAYER
  0
ACDBPLACEHOLDER
  5
5
102
{ACAD_REACTORS
330
6
102
}
330
6
  0
ACAD_PROXY_OBJECT
  5
2CF
102
{ACAD_REACTORS
330
2CE
102
}
330
2CE
100
AcDbProxyObject
 90
      499
 91
      505
 95
   983063
 70
     0
 93
     1841
310
4214DD185B99185C9928B81E85EB51B8AE3F2E07A17AD46E2B8FC02B5E8DC0F42B1CFD028000000C1008070000C3001FDFF8000000C1003FBFF000000182007F7FE00000030400FEFFC00000060801FDFF8000000C1003FBFF00000018200000000000000681FA0B0000001820100E000186003FBFF000000182007F7FE000
310
00030400FEFFC00000060801FDFF8000000C1003FBFF000000182007F7FE000000304000AD7A3703D0AC73F4160000003040201C00030C007F7FE00000030400FEFFC00000060801FDFF8000000C1003FBFF000000182007F7FE00000030400FEFFC000000608000
340
12
340
12
340
12
 94
        0
  0
XRECORD
  5
2F4
102
{ACAD_REACTORS
330
2F3
102
}
330
2F3
100
AcDbXrecord
340
2CD
  0
XRECORD
  5
2F5
102
{ACAD_REACTORS
330
2F3
102
}
330
2F3
100
AcDbXrecord
340
2CC
  0
DICTIONARYVAR
  5
2F0
102
{ACAD_REACTORS
330
2C0
102
}
330
2C0
100
DictionaryVariables
280
     0
  1
STANDARD
  0
DICTIONARYVAR
  5
2F2
102
{ACAD_REACTORS
330
2C0
102
}
330
2C0
100
DictionaryVariables
280
     0
  1
0
  0
DICTIONARY
  5
2F6
330
F
100
AcDbDictionary
280
     1
281
     1
  3
ACAD_XREC_ROUNDTRIP
360
2F7
  0
DICTIONARY
  5
2F8
330
A
100
AcDbDictionary
280
     1
281
     1
  3
ACAD_XREC_ROUNDTRIP
360
2F9
  0
XRECORD
  5
2F7
102
{ACAD_REACTORS
330
2F6
102
}
330
2F6
100
AcDbXrecord
102
SHADEPLOT
 70
     0
102
SHADEPLOTRESLEVEL
 70
     2
102
SHADEPLOTCUSTOMDPI
 70
   300
  0
XRECORD
  5
2F9
102
{ACAD_REACTORS
330
2F8
102
}
330
2F8
100
AcDbXrecord
102
SHADEPLOT
 70
     0
102
SHADEPLOTRESLEVEL
 70
     2
102
SHADEPLOTCUSTOMDPI
 70
   300
  0
ENDSEC
  0
EOF
