  0
SECTION
  2
HEADER
  9
$ACADVER
  1
AC1015
  9
$ACADMAINTVER
 70
     6
  9
$DWGCODEPAGE
  3
ANSI_1252
  9
$INSBASE
 10
0.0
 20
0.0
 30
0.0
  9
$EXTMIN
 10
-1.625
 20
-0.003966340476822
 30
0.0
  9
$EXTMAX
 10
8.747287818004315
 20
8.250000000000004
 30
0.0
  9
$LIMMIN
 10
0.0
 20
0.0
  9
$LIMMAX
 10
21.00000000000053
 20
15.61216552679092
  9
$ORTHOMODE
 70
     1
  9
$REGENMODE
 70
     1
  9
$FILLMODE
 70
     1
  9
$QTEXTMODE
 70
     0
  9
$MIRRTEXT
 70
     1
  9
$LTSCALE
 40
1.0
  9
$ATTMODE
 70
     1
  9
$TEXTSIZE
 40
0.18
  9
$TRACEWID
 40
0.05
  9
$TEXTSTYLE
  7
STANDARD
  9
$CLAYER
  8
0
  9
$CELTYPE
  6
BYLAYER
  9
$CECOLOR
 62
   256
  9
$CELTSCALE
 40
1.0
  9
$DISPSILH
 70
     0
  9
$DIMSCALE
 40
1.0
  9
$DIMASZ
 40
0.250000000000005
  9
$DIMEXO
 40
0.062
  9
$DIMDLI
 40
0.375
  9
$DIMRND
 40
0.0
  9
$DIMDLE
 40
0.0
  9
$DIMEXE
 40
0.160000000000004
  9
$DIMTP
 40
0.0
  9
$DIMTM
 40
0.0
  9
$DIMTXT
 40
0.180000000000004
  9
$DIMCEN
 40
-0.06
  9
$DIMTSZ
 40
0.0
  9
$DIMTOL
 70
     0
  9
$DIMLIM
 70
     0
  9
$DIMTIH
 70
     1
  9
$DIMTOH
 70
     1
  9
$DIMSE1
 70
     0
  9
$DIMSE2
 70
     0
  9
$DIMTAD
 70
     0
  9
$DIMZIN
 70
     0
  9
$DIMBLK
  1

  9
$DIMASO
 70
     0
  9
$DIMSHO
 70
     0
  9
$DIMPOST
  1

  9
$DIMAPOST
  1

  9
$DIMALT
 70
     0
  9
$DIMALTD
 70
     2
  9
$DIMALTF
 40
25.4
  9
$DIMLFAC
 40
1.0
  9
$DIMTOFL
 70
     0
  9
$DIMTVP
 40
0.0
  9
$DIMTIX
 70
     0
  9
$DIMSOXD
 70
     0
  9
$DIMSAH
 70
     0
  9
$DIMBLK1
  1

  9
$DIMBLK2
  1

  9
$DIMSTYLE
  2
STANDARD
  9
$DIMCLRD
 70
     0
  9
$DIMCLRE
 70
     0
  9
$DIMCLRT
 70
     0
  9
$DIMTFAC
 40
1.0
  9
$DIMGAP
 40
0.09
  9
$DIMJUST
 70
     0
  9
$DIMSD1
 70
     0
  9
$DIMSD2
 70
     0
  9
$DIMTOLJ
 70
     1
  9
$DIMTZIN
 70
     0
  9
$DIMALTZ
 70
     0
  9
$DIMALTTZ
 70
     0
  9
$DIMUPT
 70
     0
  9
$DIMDEC
 70
     5
  9
$DIMTDEC
 70
     5
  9
$DIMALTU
 70
     2
  9
$DIMALTTD
 70
     2
  9
$DIMTXSTY
  7
STANDARD
  9
$DIMAUNIT
 70
     0
  9
$DIMADEC
 70
     0
  9
$DIMALTRND
 40
0.0
  9
$DIMAZIN
 70
     0
  9
$DIMDSEP
 70
    46
  9
$DIMATFIT
 70
     3
  9
$DIMFRAC
 70
     2
  9
$DIMLDRBLK
  1

  9
$DIMLUNIT
 70
     5
  9
$DIMLWD
 70
    -2
  9
$DIMLWE
 70
    -2
  9
$DIMTMOVE
 70
     2
  9
$LUNITS
 70
     2
  9
$LUPREC
 70
     3
  9
$SKETCHINC
 40
0.1
  9
$FILLETRAD
 40
0.05
  9
$AUNITS
 70
     0
  9
$AUPREC
 70
     0
  9
$MENU
  1
ACAD
  9
$ELEVATION
 40
0.0
  9
$PELEVATION
 40
0.0
  9
$THICKNESS
 40
0.0
  9
$LIMCHECK
 70
     0
  9
$CHAMFERA
 40
0.0
  9
$CHAMFERB
 40
0.0
  9
$CHAMFERC
 40
0.0
  9
$CHAMFERD
 40
0.0
  9
$SKPOLY
 70
     0
  9
$TDCREATE
 40
2449021.767420139
  9
$TDUCREATE
 40
2449022.100753472
  9
$TDUPDATE
 40
2454162.83174853
  9
$TDUUPDATE
 40
2454163.165081863
  9
$TDINDWG
 40
0.1887759954
  9
$TDUSRTIMER
 40
0.1887759954
  9
$USRTIMER
 70
     1
  9
$ANGBASE
 50
0.0
  9
$ANGDIR
 70
     0
  9
$PDMODE
 70
     0
  9
$PDSIZE
 40
0.0
  9
$PLINEWID
 40
0.0
  9
$SPLFRAME
 70
     0
  9
$SPLINETYPE
 70
     6
  9
$SPLINESEGS
 70
     8
  9
$HANDSEED
  5
2FA
  9
$SURFTAB1
 70
     6
  9
$SURFTAB2
 70
     6
  9
$SURFTYPE
 70
     6
  9
$SURFU
 70
     6
  9
$SURFV
 70
     6
  9
$UCSBASE
  2

  9
$UCSNAME
  2

  9
$UCSORG
 10
0.0
 20
0.0
 30
0.0
  9
$UCSXDIR
 10
1.0
 20
0.0
 30
0.0
  9
$UCSYDIR
 10
0.0
 20
1.0
 30
0.0
  9
$UCSORTHOREF
  2

  9
$UCSORTHOVIEW
 70
     0
  9
$UCSORGTOP
 10
0.0
 20
0.0
 30
0.0
  9
$UCSORGBOTTOM
 10
0.0
 20
0.0
 30
0.0
  9
$UCSORGLEFT
 10
0.0
 20
0.0
 30
0.0
  9
$UCSORGRIGHT
 10
0.0
 20
0.0
 30
0.0
  9
$UCSORGFRONT
 10
0.0
 20
0.0
 30
0.0
  9
$UCSORGBACK
 10
0.0
 20
0.0
 30
0.0
  9
$PUCSBASE
  2

  9
$PUCSNAME
  2

  9
$PUCSORG
 10
0.0
 20
0.0
 30
0.0
  9
$PUCSXDIR
 10
1.0
 20
0.0
 30
0.0
  9
$PUCSYDIR
 10
0.0
 20
1.0
 30
0.0
  9
$PUCSORTHOREF
  2

  9
$PUCSORTHOVIEW
 70
     0
  9
$PUCSORGTOP
 10
0.0
 20
0.0
 30
0.0
  9
$PUCSORGBOTTOM
 10
0.0
 20
0.0
 30
0.0
  9
$PUCSORGLEFT
 10
0.0
 20
0.0
 30
0.0
  9
$PUCSORGRIGHT
 10
0.0
 20
0.0
 30
0.0
  9
$PUCSORGFRONT
 10
0.0
 20
0.0
 30
0.0
  9
$PUCSORGBACK
 10
0.0
 20
0.0
 30
0.0
  9
$USERI1
 70
     0
  9
$USERI2
 70
     0
  9
$USERI3
 70
     0
  9
$USERI4
 70
     0
  9
$USERI5
 70
     0
  9
$USERR1
 40
0.0
  9
$USERR2
 40
0.0
  9
$USERR3
 40
0.0
  9
$USERR4
 40
0.0
  9
$USERR5
 40
0.0
  9
$WORLDVIEW
 70
     1
  9
$SHADEDGE
 70
     3
  9
$SHADEDIF
 70
    70
  9
$TILEMODE
 70
     1
  9
$MAXACTVP
 70
    16
  9
$PINSBASE
 10
0.0
 20
0.0
 30
0.0
  9
$PLIMCHECK
 70
     0
  9
$PEXTMIN
 10
1.000000000000000E+20
 20
1.000000000000000E+20
 30
1.000000000000000E+20
  9
$PEXTMAX
 10
-1.000000000000000E+20
 20
-1.000000000000000E+20
 30
-1.000000000000000E+20
  9
$PLIMMIN
 10
0.0
 20
0.0
  9
$PLIMMAX
 10
12.0
 20
9.0
  9
$UNITMODE
 70
     0
  9
$VISRETAIN
 70
     0
  9
$PLINEGEN
 70
     1
  9
$PSLTSCALE
 70
     0
  9
$TREEDEPTH
 70
  3020
  9
$CMLSTYLE
  2
STANDARD
  9
$CMLJUST
 70
     0
  9
$CMLSCALE
 40
1.0
  9
$PROXYGRAPHICS
 70
     1
  9
$MEASUREMENT
 70
     0
  9
$CELWEIGHT
370
    -1
  9
$ENDCAPS
280
     0
  9
$JOINSTYLE
280
     0
  9
$LWDISPLAY
290
     0
  9
$INSUNITS
 70
     0
  9
$HYPERLINKBASE
  1

  9
$STYLESHEET
  1

  9
$XEDIT
290
     1
  9
$CEPSNTYPE
380
     0
  9
$PSTYLEMODE
290
     1
  9
$FINGERPRINTGUID
  2
{7F5DA417-9279-4C18-924D-BD44579AE668}
  9
$VERSIONGUID
  2
{D256985A-3B8B-4755-BEB9-37040E69448D}
  9
$EXTNAMES
290
     1
  9
$PSVPSCALE
 40
0.0
  9
$OLESTARTUP
290
     0
  0
ENDSEC
  0
SECTION
  2
CLASSES
  0
CLASS
  1
DICTIONARYVAR
  2
AcDbDictionaryVar
  3
AutoCAD 2000
 90
        0
280
     0
281
     0
  0
CLASS
  1
LWPOLYLINE
  2
AcDbPolyline
  3
AutoCAD 2000
 90
        0
280
     0
281
     1
  0
CLASS
  1
ACDBDICTIONARYWDFLT
  2
AcDbDictionaryWithDefault
  3
AutoCAD 2000
 90
        0
280
     0
281
     0
  0
CLASS
  1
ACDBPLACEHOLDER
  2
AcDbPlaceHolder
  3
ObjectDBX Classes
 90
        0
280
     0
281
     0
  0
CLASS
  1
LAYOUT
  2
AcDbLayout
  3
ObjectDBX Classes
 90
        0
280
     0
281
     0
  0
CLASS
  1
TABLESTYLE
  2
AcDbTableStyle
  3
ObjectDBX Classes
 90
     2047
280
     1
281
     0
  0
CLASS
  1
SORTENTSTABLE
  2
AcDbSortentsTable
  3
AutoCAD 2000
 90
        0
280
     0
281
     0
  0
ENDSEC
  0
SECTION
  2
TABLES
  0
TABLE
  2
VPORT
  5
19
330
0
100
AcDbSymbolTable
 70
     3
  0
VPORT
  5
2EC
330
19
100
AcDbSymbolTableRecord
100
AcDbViewportTableRecord
  2
*Active
 70
     0
 10
0.0
 20
0.0
 11
1.0
 21
1.0
 12
8.698438980399097
 22
5.563551256618764
 13
0.0
 23
0.0
 14
0.0625
 24
0.0625
 15
0.25
 25
0.25
 16
0.0
 26
0.0
 36
1.0
 17
0.0
 27
0.0
 37
0.0
 40
15.81197710253003
 41
1.814583333333333
 42
50.0
 43
0.0
 44
0.0
 50
0.0
 51
0.0
 71
     0
 72
   100
 73
     1
 74
     1
 75
     0
 76
     0
 77
     0
 78
     0
281
     0
 65
     1
110
0.0
120
0.0
130
0.0
111
1.0
121
0.0
131
0.0
112
0.0
122
1.0
132
0.0
 79
     0
146
0.0
  0
ENDTAB
  0
TABLE
  2
LTYPE
  5
14
330
0
100
AcDbSymbolTable
 70
     2
  0
LTYPE
  5
15
330
14
100
AcDbSymbolTableRecord
100
AcDbLinetypeTableRecord
  2
BYBLOCK
 70
     0
  3

 72
    65
 73
     0
 40
0.0
  0
LTYPE
  5
16
330
14
100
AcDbSymbolTableRecord
100
AcDbLinetypeTableRecord
  2
BYLAYER
 70
     0
  3

 72
    65
 73
     0
 40
0.0
  0
LTYPE
  5
8
330
14
100
AcDbSymbolTableRecord
100
AcDbLinetypeTableRecord
  2
CONTINUOUS
 70
     0
  3
Solid line
 72
    65
 73
     0
 40
0.0
  0
LTYPE
  5
2D8
330
14
100
AcDbSymbolTableRecord
100
AcDbLinetypeTableRecord
  2
HIDDEN
 70
     0
  3
Hidden __ __ __ __ __ __ __ __ __ __ __ __ __ _
 72
    65
 73
     2
 40
0.375
 49
0.25
 74
     0
 49
-0.125
 74
     0
  0
ENDTAB
  0
TABLE
  2
LAYER
  5
10
330
0
100
AcDbSymbolTable
 70
     1
  0
LAYER
  5
4
330
10
100
AcDbSymbolTableRecord
100
AcDbLayerTableRecord
  2
0
 70
     0
 62
     7
  6
CONTINUOUS
370
    -3
390
5
  0
ENDTAB
  0
TABLE
  2
STYLE
  5
11
330
0
100
AcDbSymbolTable
 70
     2
  0
STYLE
  5
12
330
11
100
AcDbSymbolTableRecord
100
AcDbTextStyleTableRecord
  2
STANDARD
 70
     0
 40
0.0
 41
1.0
 50
0.0
 71
     0
 42
0.18
  3
TXT
  4

  0
STYLE
  5
2D7
330
11
100
AcDbSymbolTableRecord
100
AcDbTextStyleTableRecord
  2

 70
     1
 40
0.0
 41
1.0
 50
0.0
 71
     0
 42
0.18
  3
ltypeshp.shx
  4

  0
ENDTAB
  0
TABLE
  2
VIEW
  5
17
330
0
100
AcDbSymbolTable
 70
     0
  0
ENDTAB
  0
TABLE
  2
UCS
  5
18
330
0
100
AcDbSymbolTable
 70
     0
  0
ENDTAB
  0
TABLE
  2
APPID
  5
1B
330
0
100
AcDbSymbolTable
 70
     1
  0
APPID
  5
1C
330
1B
100
AcDbSymbolTableRecord
100
AcDbRegAppTableRecord
  2
ACAD
 70
     0
  0
ENDTAB
  0
TABLE
  2
DIMSTYLE
  5
1D
330
0
100
AcDbSymbolTable
 70
     1
100
AcDbDimStyleTable
  0
DIMSTYLE
105
1E
330
1D
100
AcDbSymbolTableRecord
100
AcDbDimStyleTableRecord
  2
STANDARD
 70
     0
  3

  4

340
12
  0
ENDTAB
  0
TABLE
  2
BLOCK_RECORD
  5
1
330
0
100
AcDbSymbolTable
 70
     0
  0
BLOCK_RECORD
  5
2
102
{ACAD_XDICTIONARY
360
2D4
102
}
330
1
100
AcDbSymbolTableRecord
100
AcDbBlockTableRecord
  2
*MODEL_SPACE
340
A
  0
BLOCK_RECORD
  5
C
330
1
100
AcDbSymbolTableRecord
100
AcDbBlockTableRecord
  2
*PAPER_SPACE
340
F
  0
ENDTAB
  0
ENDSEC
  0
SECTION
  2
BLOCKS
  0
BLOCK
  5
3
330
2
100
AcDbEntity
  8
0
100
AcDbBlockBegin
  2
*MODEL_SPACE
 70
     0
 10
0.0
 20
0.0
 30
0.0
  3
*MODEL_SPACE
  1

  4

  0
ENDBLK
  5
9
330
2
100
AcDbEntity
  8
0
100
AcDbBlockEnd
  0
BLOCK
  5
D
330
C
100
AcDbEntity
 67
     1
  8
0
100
AcDbBlockBegin
  2
*PAPER_SPACE
 70
     0
 10
0.0
 20
0.0
 30
0.0
  3
*PAPER_SPACE
  1

  4

  0
ENDBLK
  5
E
330
C
100
AcDbEntity
 67
     1
  8
0
100
AcDbBlockEnd
  0
ENDSEC
  0
SECTION
  2
ENTITIES
  0
LINE
  5
25
330
2
100
AcDbEntity
  8
0
100
AcDbLine
 10
2.407067507767881
 20
5.99603365952318
 30
0.0
 11
-0.9862324922321157
 21
5.99603365952318
 31
0.0
  0
LINE
  5
26
330
2
100
AcDbEntity
  8
0
100
AcDbLine
 10
2.387067507767885
 20
6.12103365952318
 30
0.0
 11
-0.9662324922321197
 21
6.12103365952318
 31
0.0
  0
LINE
  5
2C
330
2
100
AcDbEntity
  8
0
100
AcDbLine
 10
1.219692383235444
 20
4.551582321987883
 30
0.0
 11
1.219692383235444
 21
4.069582321987884
 31
0.0
  0
LINE
  5
2D
330
2
100
AcDbEntity
  8
0
100
AcDbLine
 10
0.9598847621001099
 20
4.551582321987883
 30
0.0
 11
0.9598847621001099
 21
4.069582321987884
 31
0.0
  0
LINE
  5
2E
330
2
100
AcDbEntity
  8
0
100
AcDbLine
 10
0.440269519829446
 20
4.551582321987883
 30
0.0
 11
0.440269519829446
 21
4.069582321987884
 31
0.0
  0
LINE
  5
2F
330
2
100
AcDbEntity
  8
0
100
AcDbLine
 10
0.1804618986941176
 20
4.551582321987883
 30
0.0
 11
0.1804618986941176
 21
4.069582321987884
 31
0.0
  0
LINE
  5
115
330
2
100
AcDbEntity
  8
0
100
AcDbLine
 10
0.407864118667554
 20
1.700584795886819
 30
0.0
 11
0.3094521409647779
 21
1.757402977704999
 31
0.0
  0
LINE
  5
116
330
2
100
AcDbEntity
  8
0
100
AcDbLine
 10
0.407864118667554
 20
1.700584795886819
 30
0.0
 11
0.9922901632620018
 21
1.757397295886815
 31
0.0
  0
LINE
  5
117
330
2
100
AcDbEntity
  8
0
100
AcDbLine
 10
1.090702140964776
 20
1.700579114068635
 30
0.0
 11
0.9922901632620018
 21
1.757397295886815
 31
0.0
  0
LINE
  5
118
330
2
100
AcDbEntity
  8
0
100
AcDbLine
 10
0.3094521409647726
 20
0.5074029777049987
 30
0.0
 11
0.4078641186675487
 21
0.5642211595231803
 31
0.0
  0
LINE
  5
119
330
2
100
AcDbEntity
  8
0
100
AcDbLine
 10
1.090702140964773
 20
0.5642154777049999
 30
0.0
 11
0.3094521409647726
 21
0.5074029777049987
 31
0.0
  0
LINE
  5
11A
330
2
100
AcDbEntity
  8
0
100
AcDbLine
 10
0.9922901632619965
 20
0.5073972958868183
 30
0.0
 11
1.090702140964773
 21
0.5642154777049981
 31
0.0
  0
LINE
  5
11B
330
2
100
AcDbEntity
  8
0
100
AcDbLine
 10
0.4078641186675487
 20
0.3369484322504555
 30
0.0
 11
0.9922901632619965
 21
0.3937609322504514
 31
0.0
  0
LINE
  5
11C
330
2
100
AcDbEntity
  8
0
100
AcDbLine
 10
0.4078641186675487
 20
0.4505847958868152
 30
0.0
 11
0.9922901632619965
 21
0.5073972958868183
 31
0.0
  0
LINE
  5
11D
330
2
100
AcDbEntity
  8
0
100
AcDbLine
 10
0.4078641186675487
 20
0.1096757049777253
 30
0.0
 11
0.9922901632619965
 21
0.166488204977723
 31
0.0
  0
LINE
  5
11E
330
2
100
AcDbEntity
  8
0
100
AcDbLine
 10
0.4078641186675487
 20
0.2233120686140868
 30
0.0
 11
0.9922901632619965
 21
0.2801245686140881
 31
0.0
  0
LINE
  5
11F
330
2
100
AcDbEntity
  8
0
100
AcDbLine
 10
0.4078739598653183
 20
-0.0039663404768202
 30
0.0
 11
0.9922901632619965
 21
-0.0039663404768202
 31
0.0
  0
LINE
  5
120
330
2
100
AcDbEntity
  8
0
100
AcDbLine
 10
0.4078641186675487
 20
-0.0039606586586398
 30
0.0
 11
0.9922901632619965
 21
0.0528518413413615
 31
0.0
  0
LINE
  5
121
330
2
100
AcDbEntity
  8
0
100
AcDbLine
 10
1.090702140964773
 20
0.1096700231595413
 30
0.0
 11
0.335824187856776
 21
0.068083431531722
 31
0.0
  0
LINE
  5
122
330
2
100
AcDbEntity
  8
0
100
AcDbLine
 10
1.090702140964773
 20
0.2233063867959064
 30
0.0
 11
0.3094521409647726
 21
0.1664938867959052
 31
0.0
  0
LINE
  5
123
330
2
100
AcDbEntity
  8
0
100
AcDbLine
 10
1.090702140964773
 20
0.3369427504322715
 30
0.0
 11
0.3094521409647726
 21
0.280130250432272
 31
0.0
  0
LINE
  5
124
330
2
100
AcDbEntity
  8
0
100
AcDbLine
 10
1.090702140964773
 20
0.4505791140686348
 30
0.0
 11
0.3094521409647726
 21
0.3937666140686353
 31
0.0
  0
LINE
  5
125
330
2
100
AcDbEntity
  8
0
100
AcDbLine
 10
0.4078641186675487
 20
0.2233120686140886
 30
0.0
 11
0.3094521409647726
 21
0.280130250432272
 31
0.0
  0
LINE
  5
126
330
2
100
AcDbEntity
  8
0
100
AcDbLine
 10
0.4078641186675487
 20
0.1096757049777253
 30
0.0
 11
0.3094521409647726
 21
0.1664938867959052
 31
0.0
  0
LINE
  5
127
330
2
100
AcDbEntity
  8
0
100
AcDbLine
 10
0.3094521409647726
 20
0.1664938867959052
 30
0.0
 11
0.4078641186675487
 21
0.2233120686140868
 31
0.0
  0
LINE
  5
128
330
2
100
AcDbEntity
  8
0
100
AcDbLine
 10
0.335824187856776
 20
0.068083431531722
 30
0.0
 11
0.4078739598653183
 21
-0.0039663404768202
 31
0.0
  0
LINE
  5
129
330
2
100
AcDbEntity
  8
0
100
AcDbLine
 10
0.335824187856776
 20
0.068083431531722
 30
0.0
 11
0.4078641186675487
 21
0.1096757049777253
 31
0.0
  0
LINE
  5
12A
330
2
100
AcDbEntity
  8
0
100
AcDbLine
 10
0.3094521409647726
 20
0.280130250432272
 30
0.0
 11
0.4078641186675487
 21
0.3369484322504555
 31
0.0
  0
LINE
  5
12B
330
2
100
AcDbEntity
  8
0
100
AcDbLine
 10
0.4078641186675487
 20
0.3369484322504555
 30
0.0
 11
0.3094521409647726
 21
0.3937666140686353
 31
0.0
  0
LINE
  5
12C
330
2
100
AcDbEntity
  8
0
100
AcDbLine
 10
0.3094521409647726
 20
0.3937666140686353
 30
0.0
 11
0.4078641186675487
 21
0.4505847958868152
 31
0.0
  0
LINE
  5
12D
330
2
100
AcDbEntity
  8
0
100
AcDbLine
 10
0.4078641186675487
 20
0.4505847958868152
 30
0.0
 11
0.3094521409647726
 21
0.5074029777049987
 31
0.0
  0
LINE
  5
12E
330
2
100
AcDbEntity
  8
0
100
AcDbLine
 10
1.090702140964771
 20
0.2233063867959064
 30
0.0
 11
0.9922901632619965
 21
0.2801245686140881
 31
0.0
  0
LINE
  5
12F
330
2
100
AcDbEntity
  8
0
100
AcDbLine
 10
0.9922901632619965
 20
-0.003966340476822
 30
0.0
 11
1.028311447137881
 21
0.0320549433990607
 31
0.0
  0
LINE
  5
130
330
2
100
AcDbEntity
  8
0
100
AcDbLine
 10
1.028311447137881
 20
0.0320549433990607
 30
0.0
 11
0.9922901632619965
 21
0.0528518413413615
 31
0.0
  0
LINE
  5
131
330
2
100
AcDbEntity
  8
0
100
AcDbLine
 10
1.090702140964771
 20
0.1096700231595413
 30
0.0
 11
0.9922901632619965
 21
0.166488204977723
 31
0.0
  0
LINE
  5
132
330
2
100
AcDbEntity
  8
0
100
AcDbLine
 10
0.9922901632619965
 20
0.0528518413413615
 30
0.0
 11
1.090702140964773
 21
0.1096700231595413
 31
0.0
  0
LINE
  5
133
330
2
100
AcDbEntity
  8
0
100
AcDbLine
 10
0.9922901632619965
 20
0.166488204977723
 30
0.0
 11
1.090702140964773
 21
0.2233063867959046
 31
0.0
  0
LINE
  5
134
330
2
100
AcDbEntity
  8
0
100
AcDbLine
 10
0.9922901632619965
 20
0.2801245686140881
 30
0.0
 11
1.090702140964773
 21
0.336942750432268
 31
0.0
  0
LINE
  5
135
330
2
100
AcDbEntity
  8
0
100
AcDbLine
 10
1.090702140964771
 20
0.3369427504322715
 30
0.0
 11
0.9922901632619965
 21
0.3937609322504514
 31
0.0
  0
LINE
  5
136
330
2
100
AcDbEntity
  8
0
100
AcDbLine
 10
0.9922901632619965
 20
0.3937609322504514
 30
0.0
 11
1.090702140964773
 21
0.4505791140686348
 31
0.0
  0
LINE
  5
137
330
2
100
AcDbEntity
  8
0
100
AcDbLine
 10
1.090702140964771
 20
0.4505791140686348
 30
0.0
 11
0.9922901632619965
 21
0.5073972958868183
 31
0.0
  0
LINE
  5
138
330
2
100
AcDbEntity
  8
0
100
AcDbLine
 10
0.407864118667554
 20
1.47331206861409
 30
0.0
 11
0.9922901632620018
 21
1.530124568614088
 31
0.0
  0
LINE
  5
139
330
2
100
AcDbEntity
  8
0
100
AcDbLine
 10
0.407864118667554
 20
1.586948432250454
 30
0.0
 11
0.9922901632620018
 21
1.643760932250451
 31
0.0
  0
LINE
  5
13A
330
2
100
AcDbEntity
  8
0
100
AcDbLine
 10
0.407864118667554
 20
1.018766614068635
 30
0.0
 11
0.9922901632620018
 21
1.075579114068635
 31
0.0
  0
LINE
  5
13B
330
2
100
AcDbEntity
  8
0
100
AcDbLine
 10
0.407864118667554
 20
1.132402977704999
 30
0.0
 11
0.9922901632620018
 21
1.189215477704998
 31
0.0
  0
LINE
  5
13C
330
2
100
AcDbEntity
  8
0
100
AcDbLine
 10
0.407864118667554
 20
1.246039341341362
 30
0.0
 11
0.9922901632620018
 21
1.302851841341361
 31
0.0
  0
LINE
  5
13D
330
2
100
AcDbEntity
  8
0
100
AcDbLine
 10
0.407864118667554
 20
1.359675704977727
 30
0.0
 11
0.9922901632620018
 21
1.416488204977725
 31
0.0
  0
LINE
  5
13E
330
2
100
AcDbEntity
  8
0
100
AcDbLine
 10
0.407864118667554
 20
0.7914938867959087
 30
0.0
 11
0.9922901632620018
 21
0.8483063867959082
 31
0.0
  0
LINE
  5
13F
330
2
100
AcDbEntity
  8
0
100
AcDbLine
 10
0.407864118667554
 20
0.905130250432272
 30
0.0
 11
0.9922901632620018
 21
0.9619427504322715
 31
0.0
  0
LINE
  5
140
330
2
100
AcDbEntity
  8
0
100
AcDbLine
 10
0.4078641186675487
 20
0.5642211595231803
 30
0.0
 11
0.9922901632619965
 21
0.6210336595231816
 31
0.0
  0
LINE
  5
141
330
2
100
AcDbEntity
  8
0
100
AcDbLine
 10
0.4078641186675487
 20
0.6778575231595454
 30
0.0
 11
0.9922901632619965
 21
0.7346700231595431
 31
0.0
  0
LINE
  5
142
330
2
100
AcDbEntity
  8
0
100
AcDbLine
 10
1.090702140964778
 20
0.9051245686140899
 30
0.0
 11
0.3094521409647779
 21
0.8483120686140886
 31
0.0
  0
LINE
  5
143
330
2
100
AcDbEntity
  8
0
100
AcDbLine
 10
1.090702140964778
 20
1.018760932250455
 30
0.0
 11
0.3094521409647779
 21
0.9619484322504519
 31
0.0
  0
LINE
  5
144
330
2
100
AcDbEntity
  8
0
100
AcDbLine
 10
1.090702140964778
 20
1.132397295886818
 30
0.0
 11
0.3094521409647779
 21
1.075584795886815
 31
0.0
  0
LINE
  5
145
330
2
100
AcDbEntity
  8
0
100
AcDbLine
 10
1.090702140964778
 20
1.24603365952318
 30
0.0
 11
0.3094521409647779
 21
1.189221159523179
 31
0.0
  0
LINE
  5
146
330
2
100
AcDbEntity
  8
0
100
AcDbLine
 10
1.090702140964778
 20
1.359670023159545
 30
0.0
 11
0.3094521409647779
 21
1.302857523159544
 31
0.0
  0
LINE
  5
147
330
2
100
AcDbEntity
  8
0
100
AcDbLine
 10
1.090702140964778
 20
1.473306386795908
 30
0.0
 11
0.3094521409647779
 21
1.416493886795907
 31
0.0
  0
LINE
  5
148
330
2
100
AcDbEntity
  8
0
100
AcDbLine
 10
1.090702140964778
 20
1.586942750432272
 30
0.0
 11
0.3094521409647779
 21
1.53013025043227
 31
0.0
  0
LINE
  5
149
330
2
100
AcDbEntity
  8
0
100
AcDbLine
 10
1.090702140964778
 20
1.700579114068635
 30
0.0
 11
0.3094521409647779
 21
1.643766614068635
 31
0.0
  0
LINE
  5
14A
330
2
100
AcDbEntity
  8
0
100
AcDbLine
 10
1.090702140964773
 20
0.6778518413413615
 30
0.0
 11
0.3094521409647726
 21
0.621039341341362
 31
0.0
  0
LINE
  5
14B
330
2
100
AcDbEntity
  8
0
100
AcDbLine
 10
1.090702140964773
 20
0.7914882049777265
 30
0.0
 11
0.3094521409647726
 21
0.7346757049777253
 31
0.0
  0
LINE
  5
14C
330
2
100
AcDbEntity
  8
0
100
AcDbLine
 10
0.407864118667554
 20
1.132402977704999
 30
0.0
 11
0.3094521409647779
 21
1.189221159523182
 31
0.0
  0
LINE
  5
14D
330
2
100
AcDbEntity
  8
0
100
AcDbLine
 10
0.407864118667554
 20
0.7914938867959087
 30
0.0
 11
0.3094521409647779
 21
0.8483120686140904
 31
0.0
  0
LINE
  5
14E
330
2
100
AcDbEntity
  8
0
100
AcDbLine
 10
0.3094521409647726
 20
0.7346757049777253
 30
0.0
 11
0.4078641186675487
 21
0.7914938867959069
 31
0.0
  0
LINE
  5
14F
330
2
100
AcDbEntity
  8
0
100
AcDbLine
 10
0.4078641186675487
 20
0.5642211595231803
 30
0.0
 11
0.3094521409647726
 21
0.621039341341362
 31
0.0
  0
LINE
  5
150
330
2
100
AcDbEntity
  8
0
100
AcDbLine
 10
0.3094521409647726
 20
0.6210393413413637
 30
0.0
 11
0.4078641186675487
 21
0.6778575231595454
 31
0.0
  0
LINE
  5
151
330
2
100
AcDbEntity
  8
0
100
AcDbLine
 10
0.4078641186675487
 20
0.6778575231595454
 30
0.0
 11
0.3094521409647726
 21
0.7346757049777253
 31
0.0
  0
LINE
  5
152
330
2
100
AcDbEntity
  8
0
100
AcDbLine
 10
0.3094521409647779
 20
1.075584795886819
 30
0.0
 11
0.407864118667554
 21
1.132402977704999
 31
0.0
  0
LINE
  5
153
330
2
100
AcDbEntity
  8
0
100
AcDbLine
 10
0.407864118667554
 20
1.018766614068635
 30
0.0
 11
0.3094521409647779
 21
1.075584795886819
 31
0.0
  0
LINE
  5
154
330
2
100
AcDbEntity
  8
0
100
AcDbLine
 10
0.3094521409647779
 20
0.8483120686140921
 30
0.0
 11
0.407864118667554
 21
0.905130250432272
 31
0.0
  0
LINE
  5
155
330
2
100
AcDbEntity
  8
0
100
AcDbLine
 10
0.407864118667554
 20
0.905130250432272
 30
0.0
 11
0.3094521409647779
 21
0.9619484322504537
 31
0.0
  0
LINE
  5
156
330
2
100
AcDbEntity
  8
0
100
AcDbLine
 10
0.3094521409647779
 20
0.9619484322504555
 30
0.0
 11
0.407864118667554
 21
1.018766614068635
 31
0.0
  0
LINE
  5
157
330
2
100
AcDbEntity
  8
0
100
AcDbLine
 10
0.3094521409647779
 20
1.416493886795909
 30
0.0
 11
0.407864118667554
 21
1.47331206861409
 31
0.0
  0
LINE
  5
158
330
2
100
AcDbEntity
  8
0
100
AcDbLine
 10
0.407864118667554
 20
1.359675704977727
 30
0.0
 11
0.3094521409647779
 21
1.416493886795909
 31
0.0
  0
LINE
  5
159
330
2
100
AcDbEntity
  8
0
100
AcDbLine
 10
0.407864118667554
 20
1.246039341341362
 30
0.0
 11
0.3094521409647779
 21
1.302857523159544
 31
0.0
  0
LINE
  5
15A
330
2
100
AcDbEntity
  8
0
100
AcDbLine
 10
0.3094521409647779
 20
1.189221159523182
 30
0.0
 11
0.407864118667554
 21
1.246039341341362
 31
0.0
  0
LINE
  5
15B
330
2
100
AcDbEntity
  8
0
100
AcDbLine
 10
0.3094521409647779
 20
1.302857523159545
 30
0.0
 11
0.407864118667554
 21
1.359675704977727
 31
0.0
  0
LINE
  5
15C
330
2
100
AcDbEntity
  8
0
100
AcDbLine
 10
0.407864118667554
 20
1.586948432250454
 30
0.0
 11
0.3094521409647779
 21
1.643766614068635
 31
0.0
  0
LINE
  5
15D
330
2
100
AcDbEntity
  8
0
100
AcDbLine
 10
0.407864118667554
 20
1.47331206861409
 30
0.0
 11
0.3094521409647779
 21
1.530130250432272
 31
0.0
  0
LINE
  5
15E
330
2
100
AcDbEntity
  8
0
100
AcDbLine
 10
0.3094521409647779
 20
1.530130250432272
 30
0.0
 11
0.407864118667554
 21
1.586948432250454
 31
0.0
  0
LINE
  5
15F
330
2
100
AcDbEntity
  8
0
100
AcDbLine
 10
0.3094521409647779
 20
1.643766614068635
 30
0.0
 11
0.407864118667554
 21
1.700584795886819
 31
0.0
  0
LINE
  5
160
330
2
100
AcDbEntity
  8
0
100
AcDbLine
 10
1.090702140964776
 20
1.132397295886818
 30
0.0
 11
0.9922901632620018
 21
1.189215477704998
 31
0.0
  0
LINE
  5
161
330
2
100
AcDbEntity
  8
0
100
AcDbLine
 10
1.090702140964776
 20
0.7914882049777265
 30
0.0
 11
0.9922901632620018
 21
0.8483063867959082
 31
0.0
  0
LINE
  5
162
330
2
100
AcDbEntity
  8
0
100
AcDbLine
 10
1.090702140964771
 20
0.5642154777049999
 30
0.0
 11
0.9922901632619965
 21
0.6210336595231816
 31
0.0
  0
LINE
  5
163
330
2
100
AcDbEntity
  8
0
100
AcDbLine
 10
0.9922901632619965
 20
0.6210336595231816
 30
0.0
 11
1.090702140964773
 21
0.6778518413413615
 31
0.0
  0
LINE
  5
164
330
2
100
AcDbEntity
  8
0
100
AcDbLine
 10
1.090702140964771
 20
0.6778518413413615
 30
0.0
 11
0.9922901632619965
 21
0.7346700231595431
 31
0.0
  0
LINE
  5
165
330
2
100
AcDbEntity
  8
0
100
AcDbLine
 10
0.9922901632619965
 20
0.7346700231595431
 30
0.0
 11
1.090702140964773
 21
0.7914882049777248
 31
0.0
  0
LINE
  5
166
330
2
100
AcDbEntity
  8
0
100
AcDbLine
 10
0.9922901632620018
 20
0.8483063867959082
 30
0.0
 11
1.090702140964778
 21
0.9051245686140881
 31
0.0
  0
LINE
  5
167
330
2
100
AcDbEntity
  8
0
100
AcDbLine
 10
0.9922901632620018
 20
1.075579114068635
 30
0.0
 11
1.090702140964778
 21
1.132397295886815
 31
0.0
  0
LINE
  5
168
330
2
100
AcDbEntity
  8
0
100
AcDbLine
 10
1.090702140964776
 20
0.9051245686140899
 30
0.0
 11
0.9922901632620018
 21
0.9619427504322715
 31
0.0
  0
LINE
  5
169
330
2
100
AcDbEntity
  8
0
100
AcDbLine
 10
0.9922901632620018
 20
0.9619427504322715
 30
0.0
 11
1.090702140964778
 21
1.018760932250451
 31
0.0
  0
LINE
  5
16A
330
2
100
AcDbEntity
  8
0
100
AcDbLine
 10
1.090702140964776
 20
1.018760932250455
 30
0.0
 11
0.9922901632620018
 21
1.075579114068635
 31
0.0
  0
LINE
  5
16B
330
2
100
AcDbEntity
  8
0
100
AcDbLine
 10
0.9922901632620018
 20
1.416488204977725
 30
0.0
 11
1.090702140964778
 21
1.473306386795906
 31
0.0
  0
LINE
  5
16C
330
2
100
AcDbEntity
  8
0
100
AcDbLine
 10
1.090702140964776
 20
1.359670023159545
 30
0.0
 11
0.9922901632620018
 21
1.416488204977725
 31
0.0
  0
LINE
  5
16D
330
2
100
AcDbEntity
  8
0
100
AcDbLine
 10
0.9922901632620018
 20
1.189215477704998
 30
0.0
 11
1.090702140964778
 21
1.24603365952318
 31
0.0
  0
LINE
  5
16E
330
2
100
AcDbEntity
  8
0
100
AcDbLine
 10
1.090702140964776
 20
1.24603365952318
 30
0.0
 11
0.9922901632620018
 21
1.302851841341361
 31
0.0
  0
LINE
  5
16F
330
2
100
AcDbEntity
  8
0
100
AcDbLine
 10
0.9922901632620018
 20
1.302851841341361
 30
0.0
 11
1.090702140964778
 21
1.359670023159541
 31
0.0
  0
LINE
  5
170
330
2
100
AcDbEntity
  8
0
100
AcDbLine
 10
1.090702140964776
 20
1.586942750432272
 30
0.0
 11
0.9922901632620018
 21
1.643760932250451
 31
0.0
  0
LINE
  5
171
330
2
100
AcDbEntity
  8
0
100
AcDbLine
 10
1.090702140964776
 20
1.473306386795908
 30
0.0
 11
0.9922901632620018
 21
1.530124568614088
 31
0.0
  0
LINE
  5
172
330
2
100
AcDbEntity
  8
0
100
AcDbLine
 10
0.9922901632620018
 20
1.530124568614088
 30
0.0
 11
1.090702140964778
 21
1.586942750432272
 31
0.0
  0
LINE
  5
173
330
2
100
AcDbEntity
  8
0
100
AcDbLine
 10
0.9922901632620018
 20
1.643760932250451
 30
0.0
 11
1.090702140964778
 21
1.700579114068635
 31
0.0
  0
LINE
  5
174
330
2
100
AcDbEntity
  8
0
100
AcDbLine
 10
0.407864118667554
 20
2.950584795886815
 30
0.0
 11
0.3094521409647779
 21
3.007402977704999
 31
0.0
  0
LINE
  5
175
330
2
100
AcDbEntity
  8
0
100
AcDbLine
 10
0.407864118667554
 20
2.950584795886815
 30
0.0
 11
0.9922901632620018
 21
3.007397295886815
 31
0.0
  0
LINE
  5
176
330
2
100
AcDbEntity
  8
0
100
AcDbLine
 10
1.090702140964776
 20
2.950579114068635
 30
0.0
 11
0.9922901632620018
 21
3.007397295886815
 31
0.0
  0
LINE
  5
177
330
2
100
AcDbEntity
  8
0
100
AcDbLine
 10
0.407864118667554
 20
2.496039341341362
 30
0.0
 11
0.9922901632620018
 21
2.552851841341358
 31
0.0
  0
LINE
  5
178
330
2
100
AcDbEntity
  8
0
100
AcDbLine
 10
0.407864118667554
 20
2.609675704977725
 30
0.0
 11
0.9922901632620018
 21
2.666488204977725
 31
0.0
  0
LINE
  5
179
330
2
100
AcDbEntity
  8
0
100
AcDbLine
 10
0.407864118667554
 20
2.723312068614089
 30
0.0
 11
0.9922901632620018
 21
2.780124568614088
 31
0.0
  0
LINE
  5
17A
330
2
100
AcDbEntity
  8
0
100
AcDbLine
 10
0.407864118667554
 20
2.836948432250452
 30
0.0
 11
0.9922901632620018
 21
2.893760932250451
 31
0.0
  0
LINE
  5
17B
330
2
100
AcDbEntity
  8
0
100
AcDbLine
 10
0.407864118667554
 20
2.041493886795909
 30
0.0
 11
0.9922901632620018
 21
2.098306386795905
 31
0.0
  0
LINE
  5
17C
330
2
100
AcDbEntity
  8
0
100
AcDbLine
 10
0.407864118667554
 20
2.155130250432272
 30
0.0
 11
0.9922901632620018
 21
2.211942750432272
 31
0.0
  0
LINE
  5
17D
330
2
100
AcDbEntity
  8
0
100
AcDbLine
 10
0.407864118667554
 20
2.268766614068635
 30
0.0
 11
0.9922901632620018
 21
2.325579114068635
 31
0.0
  0
LINE
  5
17E
330
2
100
AcDbEntity
  8
0
100
AcDbLine
 10
0.407864118667554
 20
1.814221159523182
 30
0.0
 11
0.9922901632620018
 21
1.871033659523178
 31
0.0
  0
LINE
  5
17F
330
2
100
AcDbEntity
  8
0
100
AcDbLine
 10
0.407864118667554
 20
1.927857523159545
 30
0.0
 11
0.9922901632620018
 21
1.984670023159541
 31
0.0
  0
LINE
  5
180
330
2
100
AcDbEntity
  8
0
100
AcDbLine
 10
0.407864118667554
 20
2.382402977704999
 30
0.0
 11
0.9922901632620018
 21
2.439215477704998
 31
0.0
  0
LINE
  5
181
330
2
100
AcDbEntity
  8
0
100
AcDbLine
 10
1.090702140964778
 20
1.927851841341361
 30
0.0
 11
0.3094521409647779
 21
1.871039341341362
 31
0.0
  0
LINE
  5
182
330
2
100
AcDbEntity
  8
0
100
AcDbLine
 10
1.090702140964778
 20
1.814215477704998
 30
0.0
 11
0.3094521409647779
 21
1.757402977704999
 31
0.0
  0
LINE
  5
183
330
2
100
AcDbEntity
  8
0
100
AcDbLine
 10
1.090702140964778
 20
2.041488204977725
 30
0.0
 11
0.3094521409647779
 21
1.984675704977725
 31
0.0
  0
LINE
  5
184
330
2
100
AcDbEntity
  8
0
100
AcDbLine
 10
1.090702140964778
 20
2.155124568614088
 30
0.0
 11
0.3094521409647779
 21
2.098312068614089
 31
0.0
  0
LINE
  5
185
330
2
100
AcDbEntity
  8
0
100
AcDbLine
 10
1.090702140964778
 20
2.268760932250451
 30
0.0
 11
0.3094521409647779
 21
2.211948432250452
 31
0.0
  0
LINE
  5
186
330
2
100
AcDbEntity
  8
0
100
AcDbLine
 10
1.090702140964778
 20
2.382397295886815
 30
0.0
 11
0.3094521409647779
 21
2.325584795886815
 31
0.0
  0
LINE
  5
187
330
2
100
AcDbEntity
  8
0
100
AcDbLine
 10
1.090702140964778
 20
2.496033659523182
 30
0.0
 11
0.3094521409647779
 21
2.439221159523179
 31
0.0
  0
LINE
  5
188
330
2
100
AcDbEntity
  8
0
100
AcDbLine
 10
1.090702140964778
 20
2.609670023159541
 30
0.0
 11
0.3094521409647779
 21
2.552857523159542
 31
0.0
  0
LINE
  5
189
330
2
100
AcDbEntity
  8
0
100
AcDbLine
 10
1.090702140964778
 20
2.723306386795905
 30
0.0
 11
0.3094521409647779
 21
2.666493886795905
 31
0.0
  0
LINE
  5
18A
330
2
100
AcDbEntity
  8
0
100
AcDbLine
 10
1.090702140964778
 20
2.836942750432272
 30
0.0
 11
0.3094521409647779
 21
2.780130250432269
 31
0.0
  0
LINE
  5
18B
330
2
100
AcDbEntity
  8
0
100
AcDbLine
 10
1.090702140964778
 20
2.950579114068635
 30
0.0
 11
0.3094521409647779
 21
2.893766614068632
 31
0.0
  0
LINE
  5
18C
330
2
100
AcDbEntity
  8
0
100
AcDbLine
 10
0.3094521409647779
 20
2.325584795886819
 30
0.0
 11
0.407864118667554
 21
2.382402977704999
 31
0.0
  0
LINE
  5
18D
330
2
100
AcDbEntity
  8
0
100
AcDbLine
 10
0.407864118667554
 20
2.041493886795909
 30
0.0
 11
0.3094521409647779
 21
2.098312068614089
 31
0.0
  0
LINE
  5
18E
330
2
100
AcDbEntity
  8
0
100
AcDbLine
 10
0.3094521409647779
 20
1.984675704977725
 30
0.0
 11
0.407864118667554
 21
2.041493886795909
 31
0.0
  0
LINE
  5
18F
330
2
100
AcDbEntity
  8
0
100
AcDbLine
 10
0.3094521409647779
 20
1.871039341341362
 30
0.0
 11
0.407864118667554
 21
1.927857523159545
 31
0.0
  0
LINE
  5
190
330
2
100
AcDbEntity
  8
0
100
AcDbLine
 10
0.407864118667554
 20
1.814221159523182
 30
0.0
 11
0.3094521409647779
 21
1.871039341341362
 31
0.0
  0
LINE
  5
191
330
2
100
AcDbEntity
  8
0
100
AcDbLine
 10
0.3094521409647779
 20
1.757402977704999
 30
0.0
 11
0.407864118667554
 21
1.814221159523182
 31
0.0
  0
LINE
  5
192
330
2
100
AcDbEntity
  8
0
100
AcDbLine
 10
0.407864118667554
 20
1.927857523159545
 30
0.0
 11
0.3094521409647779
 21
1.984675704977725
 31
0.0
  0
LINE
  5
193
330
2
100
AcDbEntity
  8
0
100
AcDbLine
 10
0.3094521409647779
 20
2.098312068614089
 30
0.0
 11
0.407864118667554
 21
2.155130250432272
 31
0.0
  0
LINE
  5
194
330
2
100
AcDbEntity
  8
0
100
AcDbLine
 10
0.407864118667554
 20
2.155130250432272
 30
0.0
 11
0.3094521409647779
 21
2.211948432250452
 31
0.0
  0
LINE
  5
195
330
2
100
AcDbEntity
  8
0
100
AcDbLine
 10
0.407864118667554
 20
2.268766614068635
 30
0.0
 11
0.3094521409647779
 21
2.325584795886815
 31
0.0
  0
LINE
  5
196
330
2
100
AcDbEntity
  8
0
100
AcDbLine
 10
0.3094521409647779
 20
2.211948432250452
 30
0.0
 11
0.407864118667554
 21
2.268766614068635
 31
0.0
  0
LINE
  5
197
330
2
100
AcDbEntity
  8
0
100
AcDbLine
 10
0.407864118667554
 20
2.609675704977725
 30
0.0
 11
0.3094521409647779
 21
2.666493886795905
 31
0.0
  0
LINE
  5
198
330
2
100
AcDbEntity
  8
0
100
AcDbLine
 10
0.407864118667554
 20
2.496039341341362
 30
0.0
 11
0.3094521409647779
 21
2.552857523159545
 31
0.0
  0
LINE
  5
199
330
2
100
AcDbEntity
  8
0
100
AcDbLine
 10
0.3094521409647779
 20
2.439221159523182
 30
0.0
 11
0.407864118667554
 21
2.496039341341362
 31
0.0
  0
LINE
  5
19A
330
2
100
AcDbEntity
  8
0
100
AcDbLine
 10
0.3094521409647779
 20
2.552857523159545
 30
0.0
 11
0.407864118667554
 21
2.609675704977725
 31
0.0
  0
LINE
  5
19B
330
2
100
AcDbEntity
  8
0
100
AcDbLine
 10
0.407864118667554
 20
2.382402977704999
 30
0.0
 11
0.3094521409647779
 21
2.439221159523179
 31
0.0
  0
LINE
  5
19C
330
2
100
AcDbEntity
  8
0
100
AcDbLine
 10
0.407864118667554
 20
2.723312068614089
 30
0.0
 11
0.3094521409647779
 21
2.780130250432269
 31
0.0
  0
LINE
  5
19D
330
2
100
AcDbEntity
  8
0
100
AcDbLine
 10
0.3094521409647779
 20
2.666493886795905
 30
0.0
 11
0.407864118667554
 21
2.723312068614089
 31
0.0
  0
LINE
  5
19E
330
2
100
AcDbEntity
  8
0
100
AcDbLine
 10
0.407864118667554
 20
2.836948432250452
 30
0.0
 11
0.3094521409647779
 21
2.893766614068635
 31
0.0
  0
LINE
  5
19F
330
2
100
AcDbEntity
  8
0
100
AcDbLine
 10
0.3094521409647779
 20
2.780130250432272
 30
0.0
 11
0.407864118667554
 21
2.836948432250452
 31
0.0
  0
LINE
  5
1A0
330
2
100
AcDbEntity
  8
0
100
AcDbLine
 10
0.3094521409647779
 20
2.893766614068635
 30
0.0
 11
0.407864118667554
 21
2.950584795886815
 31
0.0
  0
LINE
  5
1A1
330
2
100
AcDbEntity
  8
0
100
AcDbLine
 10
0.9922901632620018
 20
2.325579114068635
 30
0.0
 11
1.090702140964778
 21
2.382397295886815
 31
0.0
  0
LINE
  5
1A2
330
2
100
AcDbEntity
  8
0
100
AcDbLine
 10
1.090702140964776
 20
2.041488204977725
 30
0.0
 11
0.9922901632620018
 21
2.098306386795905
 31
0.0
  0
LINE
  5
1A3
330
2
100
AcDbEntity
  8
0
100
AcDbLine
 10
0.9922901632620018
 20
1.871033659523178
 30
0.0
 11
1.090702140964778
 21
1.927851841341361
 31
0.0
  0
LINE
  5
1A4
330
2
100
AcDbEntity
  8
0
100
AcDbLine
 10
0.9922901632620018
 20
1.757397295886815
 30
0.0
 11
1.090702140964778
 21
1.814215477704998
 31
0.0
  0
LINE
  5
1A5
330
2
100
AcDbEntity
  8
0
100
AcDbLine
 10
1.090702140964776
 20
1.814215477704998
 30
0.0
 11
0.9922901632620018
 21
1.871033659523178
 31
0.0
  0
LINE
  5
1A6
330
2
100
AcDbEntity
  8
0
100
AcDbLine
 10
1.090702140964776
 20
1.927851841341361
 30
0.0
 11
0.9922901632620018
 21
1.984670023159541
 31
0.0
  0
LINE
  5
1A7
330
2
100
AcDbEntity
  8
0
100
AcDbLine
 10
0.9922901632620018
 20
1.984670023159541
 30
0.0
 11
1.090702140964778
 21
2.041488204977725
 31
0.0
  0
LINE
  5
1A8
330
2
100
AcDbEntity
  8
0
100
AcDbLine
 10
0.9922901632620018
 20
2.098306386795905
 30
0.0
 11
1.090702140964778
 21
2.155124568614088
 31
0.0
  0
LINE
  5
1A9
330
2
100
AcDbEntity
  8
0
100
AcDbLine
 10
1.090702140964776
 20
2.155124568614088
 30
0.0
 11
0.9922901632620018
 21
2.211942750432272
 31
0.0
  0
LINE
  5
1AA
330
2
100
AcDbEntity
  8
0
100
AcDbLine
 10
0.9922901632620018
 20
2.211942750432272
 30
0.0
 11
1.090702140964778
 21
2.268760932250451
 31
0.0
  0
LINE
  5
1AB
330
2
100
AcDbEntity
  8
0
100
AcDbLine
 10
1.090702140964776
 20
2.268760932250451
 30
0.0
 11
0.9922901632620018
 21
2.325579114068635
 31
0.0
  0
LINE
  5
1AC
330
2
100
AcDbEntity
  8
0
100
AcDbLine
 10
1.090702140964776
 20
2.609670023159541
 30
0.0
 11
0.9922901632620018
 21
2.666488204977725
 31
0.0
  0
LINE
  5
1AD
330
2
100
AcDbEntity
  8
0
100
AcDbLine
 10
1.090702140964776
 20
2.382397295886815
 30
0.0
 11
0.9922901632620018
 21
2.439215477704998
 31
0.0
  0
LINE
  5
1AE
330
2
100
AcDbEntity
  8
0
100
AcDbLine
 10
0.9922901632620018
 20
2.439215477704998
 30
0.0
 11
1.090702140964778
 21
2.496033659523178
 31
0.0
  0
LINE
  5
1AF
330
2
100
AcDbEntity
  8
0
100
AcDbLine
 10
1.090702140964776
 20
2.496033659523182
 30
0.0
 11
0.9922901632620018
 21
2.552851841341358
 31
0.0
  0
LINE
  5
1B0
330
2
100
AcDbEntity
  8
0
100
AcDbLine
 10
0.9922901632620018
 20
2.552851841341358
 30
0.0
 11
1.090702140964778
 21
2.609670023159541
 31
0.0
  0
LINE
  5
1B1
330
2
100
AcDbEntity
  8
0
100
AcDbLine
 10
0.9922901632620018
 20
2.893760932250451
 30
0.0
 11
1.090702140964778
 21
2.950579114068631
 31
0.0
  0
LINE
  5
1B2
330
2
100
AcDbEntity
  8
0
100
AcDbLine
 10
0.9922901632620018
 20
2.666488204977725
 30
0.0
 11
1.090702140964778
 21
2.723306386795905
 31
0.0
  0
LINE
  5
1B3
330
2
100
AcDbEntity
  8
0
100
AcDbLine
 10
1.090702140964776
 20
2.723306386795905
 30
0.0
 11
0.9922901632620018
 21
2.780124568614088
 31
0.0
  0
LINE
  5
1B4
330
2
100
AcDbEntity
  8
0
100
AcDbLine
 10
0.9922901632620018
 20
2.780124568614088
 30
0.0
 11
1.090702140964778
 21
2.836942750432268
 31
0.0
  0
LINE
  5
1B5
330
2
100
AcDbEntity
  8
0
100
AcDbLine
 10
1.090702140964776
 20
2.836942750432272
 30
0.0
 11
0.9922901632620018
 21
2.893760932250451
 31
0.0
  0
LINE
  5
1B6
330
2
100
AcDbEntity
  8
0
100
AcDbLine
 10
0.7439803298475738
 20
3.834456413055097
 30
0.0
 11
0.3094521409647744
 21
3.802857523159541
 31
0.0
  0
LINE
  5
1B7
330
2
100
AcDbEntity
  8
0
100
AcDbLine
 10
0.4651895613297814
 20
3.637975627557569
 30
0.0
 11
0.9922901632620036
 21
3.689215477704997
 31
0.0
  0
LINE
  5
1B8
330
2
100
AcDbEntity
  8
0
100
AcDbLine
 10
0.4078641186675558
 20
3.746039341341365
 30
0.0
 11
0.9922901632620036
 21
3.802851841341361
 31
0.0
  0
LINE
  5
1B9
330
2
100
AcDbEntity
  8
0
100
AcDbLine
 10
1.09070214096478
 20
3.632397295886817
 30
0.0
 11
0.4842432718673724
 21
3.588295606926051
 31
0.0
  0
LINE
  5
1BA
330
2
100
AcDbEntity
  8
0
100
AcDbLine
 10
1.09070214096478
 20
3.746033659523177
 30
0.0
 11
0.4706374967945912
 21
3.700942558599125
 31
0.0
  0
LINE
  5
1BB
330
2
100
AcDbEntity
  8
0
100
AcDbLine
 10
1.090702140964778
 20
3.518760932250455
 30
0.0
 11
0.3094521409647779
 21
3.461948432250452
 31
0.0
  0
LINE
  5
1BC
330
2
100
AcDbEntity
  8
0
100
AcDbLine
 10
0.4836263152965152
 20
3.526131514787545
 30
0.0
 11
0.9922901632620018
 21
3.575579114068635
 31
0.0
  0
LINE
  5
1BD
330
2
100
AcDbEntity
  8
0
100
AcDbLine
 10
1.090702140964778
 20
3.405124568614092
 30
0.0
 11
0.3094521409647779
 21
3.348312068614089
 31
0.0
  0
LINE
  5
1BE
330
2
100
AcDbEntity
  8
0
100
AcDbLine
 10
1.090702140964778
 20
3.291488204977728
 30
0.0
 11
0.3094521409647779
 21
3.234675704977725
 31
0.0
  0
LINE
  5
1BF
330
2
100
AcDbEntity
  8
0
100
AcDbLine
 10
0.407864118667554
 20
3.291493886795909
 30
0.0
 11
0.9922901632620018
 21
3.348306386795908
 31
0.0
  0
LINE
  5
1C0
330
2
100
AcDbEntity
  8
0
100
AcDbLine
 10
0.407864118667554
 20
3.405130250432272
 30
0.0
 11
0.9922901632620018
 21
3.461942750432272
 31
0.0
  0
ARC
  5
1C1
330
2
100
AcDbEntity
  8
0
100
AcDbCircle
 10
0.7000771409647779
 20
5.407082321987877
 30
0.0
 40
1.362499999999996
100
AcDbArc
 50
259.0072669106907
 51
280.9927330893092
  0
LINE
  5
1C2
330
2
100
AcDbEntity
  8
0
100
AcDbLine
 10
1.089788572667779
 20
4.044582321987882
 30
0.0
 11
0.3103657092617809
 21
4.044582321987882
 31
0.0
  0
LINE
  5
1C3
330
2
100
AcDbEntity
  8
0
100
AcDbLine
 10
-0.0999228590352228
 20
3.834456413055097
 30
0.0
 11
1.500077140964779
 21
3.834456413055097
 31
0.0
  0
LINE
  5
1C4
330
2
100
AcDbEntity
  8
0
100
AcDbLine
 10
-0.0999228590352228
 20
3.952856413055098
 30
0.0
 11
1.500077140964779
 21
3.952856413055098
 31
0.0
  0
LINE
  5
1C5
330
2
100
AcDbEntity
  8
0
100
AcDbLine
 10
0.407864118667554
 20
3.996039341341362
 30
0.0
 11
0.9072222207062328
 21
4.044582321987882
 31
0.0
  0
LINE
  5
1C6
330
2
100
AcDbEntity
  8
0
100
AcDbLine
 10
0.407864118667554
 20
3.064221159523179
 30
0.0
 11
0.9922901632620018
 21
3.121033659523178
 31
0.0
  0
LINE
  5
1C7
330
2
100
AcDbEntity
  8
0
100
AcDbLine
 10
0.407864118667554
 20
3.177857523159545
 30
0.0
 11
0.9922901632620018
 21
3.234670023159541
 31
0.0
  0
LINE
  5
1C8
330
2
100
AcDbEntity
  8
0
100
AcDbLine
 10
1.090702140964778
 20
3.064215477704998
 30
0.0
 11
0.3094521409647779
 21
3.007402977704995
 31
0.0
  0
LINE
  5
1C9
330
2
100
AcDbEntity
  8
0
100
AcDbLine
 10
1.090702140964778
 20
3.177851841341358
 30
0.0
 11
0.3094521409647779
 21
3.121039341341362
 31
0.0
  0
LINE
  5
1CA
330
2
100
AcDbEntity
  8
0
100
AcDbLine
 10
1.090702140964778
 20
3.996033659523182
 30
0.0
 11
0.4969556273773126
 21
3.952856413055098
 31
0.0
  0
LINE
  5
1CB
330
2
100
AcDbEntity
  8
0
100
AcDbLine
 10
0.3094521409647797
 20
3.575584795886818
 30
0.0
 11
0.3326830879842184
 21
3.58899718940202
 31
0.0
  0
LINE
  5
1CC
330
2
100
AcDbEntity
  8
0
100
AcDbLine
 10
0.3094521409647779
 20
3.575584795886819
 30
0.0
 11
0.3326830879842184
 21
3.588997189402023
 31
0.0
  0
SPLINE
  5
1CD
330
2
100
AcDbEntity
  8
0
100
AcDbSpline
210
0.0
220
0.0
230
1.0
 70
     8
 71
     3
 72
    11
 73
     7
 74
     5
 42
0.0000000001
 43
0.0000000001
 44
0.0000000001
 40
0.0
 40
0.0
 40
0.0
 40
0.0
 40
0.0480845167207121
 40
0.1291811622031157
 40
0.209280613071315
 40
0.2761745749011507
 40
0.2761745749011507
 40
0.2761745749011507
 40
0.2761745749011507
 10
0.4263892705793069
 20
3.747480160028697
 30
0.0
 10
0.4429257908644208
 20
3.740057086796915
 30
0.0
 10
0.4873518775740798
 20
3.720114675131011
 30
0.0
 10
0.4463951528960722
 20
3.635319022392173
 30
0.0
 10
0.506830314141003
 20
3.569298441313934
 30
0.0
 10
0.4822389703136477
 20
3.52190247408008
 30
0.0
 10
0.4710479082847154
 20
3.500333453686588
 30
0.0
 11
0.4263892705793069
 21
3.747480160028697
 31
0.0
 11
0.4663407805594382
 21
3.720722028581006
 31
0.0
 11
0.4649947163907839
 21
3.639636555037637
 31
0.0
 11
0.4914622308769641
 21
3.564036338726366
 31
0.0
 11
0.4710479082847154
 21
3.500333453686588
 31
0.0
  0
SPLINE
  5
1CE
330
2
100
AcDbEntity
  8
0
100
AcDbSpline
210
0.0
220
0.0
230
1.0
 70
     8
 71
     3
 72
    11
 73
     7
 74
     5
 42
0.0000000001
 43
0.0000000001
 44
0.0000000001
 40
0.0
 40
0.0
 40
0.0
 40
0.0
 40
0.0480845167207115
 40
0.1291811622031154
 40
0.2092806130713139
 40
0.2761745749011508
 40
0.2761745749011508
 40
0.2761745749011508
 40
0.2761745749011508
 10
0.3563774784119236
 20
3.747150861354353
 30
0.0
 10
0.3415897176505366
 20
3.736668464158369
 30
0.0
 10
0.3018617500672676
 20
3.708507044541385
 30
0.0
 10
0.3584513514780121
 20
3.633238372248677
 30
0.0
 10
0.3119323533998016
 20
3.556771983262324
 30
0.0
 10
0.3452294861878994
 20
3.515029764424514
 30
0.0
 10
0.3603823906379695
 20
3.49603365952318
 30
0.0
 11
0.3563774784119236
 21
3.747150861354353
 31
0.0
 11
0.3223582828588381
 21
3.713168291083914
 31
0.0
 11
0.3393678806353808
 21
3.633875545564674
 31
0.0
 11
0.328028171462913
 21
3.554582840822871
 31
0.0
 11
0.3603823906379695
 21
3.49603365952318
 31
0.0
  0
LINE
  5
1CF
330
2
100
AcDbEntity
  8
0
100
AcDbLine
 10
0.3094521409647779
 20
3.234675704977729
 30
0.0
 11
0.407864118667554
 21
3.291493886795909
 31
0.0
  0
LINE
  5
1D0
330
2
100
AcDbEntity
  8
0
100
AcDbLine
 10
0.407864118667554
 20
3.177857523159545
 30
0.0
 11
0.3094521409647779
 21
3.234675704977725
 31
0.0
  0
LINE
  5
1D1
330
2
100
AcDbEntity
  8
0
100
AcDbLine
 10
0.3094521409647779
 20
3.121039341341362
 30
0.0
 11
0.407864118667554
 21
3.177857523159545
 31
0.0
  0
LINE
  5
1D2
330
2
100
AcDbEntity
  8
0
100
AcDbLine
 10
0.407864118667554
 20
3.064221159523179
 30
0.0
 11
0.3094521409647779
 21
3.121039341341362
 31
0.0
  0
LINE
  5
1D3
330
2
100
AcDbEntity
  8
0
100
AcDbLine
 10
0.3094521409647779
 20
3.007402977704999
 30
0.0
 11
0.407864118667554
 21
3.064221159523179
 31
0.0
  0
SPLINE
  5
1D4
330
2
100
AcDbEntity
  8
0
100
AcDbSpline
210
0.0
220
0.0
230
1.0
 70
     8
 71
     3
 72
     9
 73
     5
 74
     3
 42
0.0000000001
 43
0.0000000001
 44
0.0000000001
 40
0.0
 40
0.0
 40
0.0
 40
0.0
 40
0.0523247462688227
 40
0.1154156910708552
 40
0.1154156910708552
 40
0.1154156910708552
 40
0.1154156910708552
 10
0.3603823906379695
 20
3.49603365952318
 30
0.0
 10
0.3771926677593336
 20
3.489057449356698
 30
0.0
 10
0.4142720592405081
 20
3.473669622853279
 30
0.0
 10
0.4509811922141337
 20
3.490909454068695
 30
0.0
 10
0.4710479082847137
 20
3.500333453686588
 30
0.0
 11
0.3603823906379695
 21
3.49603365952318
 31
0.0
 11
0.4107371211366271
 21
3.481811135538168
 31
0.0
 11
0.4710479082847137
 21
3.500333453686588
 31
0.0
  0
LINE
  5
1D5
330
2
100
AcDbEntity
  8
0
100
AcDbLine
 10
0.3298264074912307
 20
3.577066412548622
 30
0.0
 11
0.3094521409647779
 21
3.575584795886819
 31
0.0
  0
LINE
  5
1D6
330
2
100
AcDbEntity
  8
0
100
AcDbLine
 10
0.3298264074912307
 20
3.577066412548618
 30
0.0
 11
0.3094521409647797
 21
3.575584795886814
 31
0.0
  0
LINE
  5
1D7
330
2
100
AcDbEntity
  8
0
100
AcDbLine
 10
0.3279860763701681
 20
3.564884223291373
 30
0.0
 11
0.3094521409647797
 21
3.575584795886818
 31
0.0
  0
LINE
  5
1D8
330
2
100
AcDbEntity
  8
0
100
AcDbLine
 10
0.3094521409647779
 20
3.461948432250456
 30
0.0
 11
0.3651046440804535
 21
3.494079419905367
 31
0.0
  0
LINE
  5
1D9
330
2
100
AcDbEntity
  8
0
100
AcDbLine
 10
0.3279860763701681
 20
3.564884223291373
 30
0.0
 11
0.3094521409647779
 21
3.575584795886819
 31
0.0
  0
LINE
  5
1DA
330
2
100
AcDbEntity
  8
0
100
AcDbLine
 10
0.3094521409647779
 20
3.348312068614092
 30
0.0
 11
0.407864118667554
 21
3.405130250432272
 31
0.0
  0
LINE
  5
1DB
330
2
100
AcDbEntity
  8
0
100
AcDbLine
 10
0.407864118667554
 20
3.405130250432272
 30
0.0
 11
0.3094521409647779
 21
3.461948432250456
 31
0.0
  0
LINE
  5
1DC
330
2
100
AcDbEntity
  8
0
100
AcDbLine
 10
0.407864118667554
 20
3.291493886795909
 30
0.0
 11
0.3094521409647779
 21
3.348312068614092
 31
0.0
  0
LINE
  5
1DD
330
2
100
AcDbEntity
  8
0
100
AcDbLine
 10
-0.0999228590352228
 20
3.952856413055098
 30
0.0
 11
-0.0999228590352228
 21
3.834456413055097
 31
0.0
  0
LINE
  5
1DE
330
2
100
AcDbEntity
  8
0
100
AcDbLine
 10
0.3225961775875756
 20
3.690176993866391
 30
0.0
 11
0.3094521409647797
 21
3.689221159523181
 31
0.0
  0
SPLINE
  5
1DF
330
2
100
AcDbEntity
  8
0
100
AcDbSpline
210
0.0
220
0.0
230
1.0
 70
     8
 71
     3
 72
     9
 73
     5
 74
     3
 42
0.0000000001
 43
0.0000000001
 44
0.0000000001
 40
0.0
 40
0.0
 40
0.0
 40
0.0
 40
0.0335211547676817
 40
0.0700132779650708
 40
0.0700132779650708
 40
0.0700132779650708
 40
0.0700132779650708
 10
0.3563774784119236
 20
3.747150861354353
 30
0.0
 10
0.3675513055976408
 20
3.7471267237896
 30
0.0
 10
0.3908892924333904
 20
3.747076309356024
 30
0.0
 10
0.4142258536913049
 20
3.747341786165682
 30
0.0
 10
0.4263892705793069
 20
3.747480160028697
 30
0.0
 11
0.3563774784119236
 21
3.747150861354353
 31
0.0
 11
0.3898986331796053
 21
3.747150861354353
 31
0.0
 11
0.4263892705793069
 21
3.747480160028697
 31
0.0
  0
LINE
  5
1E0
330
2
100
AcDbEntity
  8
0
100
AcDbLine
 10
0.4078641186675505
 20
3.746039341341358
 30
0.0
 11
0.3094521409647744
 21
3.802857523159541
 31
0.0
  0
LINE
  5
1E1
330
2
100
AcDbEntity
  8
0
100
AcDbLine
 10
0.3094521409647744
 20
3.802857523159541
 30
0.0
 11
0.3641830237266532
 21
3.834456413055098
 31
0.0
  0
LINE
  5
1E2
330
2
100
AcDbEntity
  8
0
100
AcDbLine
 10
0.3094521409647797
 20
3.689221159523181
 30
0.0
 11
0.3213899428918996
 21
3.696113452679337
 31
0.0
  0
LINE
  5
1E3
330
2
100
AcDbEntity
  8
0
100
AcDbLine
 10
0.3256867605166605
 20
3.679848097554711
 30
0.0
 11
0.3094521409647797
 21
3.689221159523181
 31
0.0
  0
ARC
  5
1E4
330
2
100
AcDbEntity
  8
0
100
AcDbCircle
 10
0.3103657092617809
 20
4.394582321987874
 30
0.0
 40
0.3499999999999915
100
AcDbArc
 50
248.2132107017378
 51
291.7867892982621
  0
LINE
  5
1E5
330
2
100
AcDbEntity
  8
0
100
AcDbLine
 10
0.407864118667554
 20
3.996039341341362
 30
0.0
 11
0.3237852098369523
 21
4.044582321987882
 31
0.0
  0
LINE
  5
1E6
330
2
100
AcDbEntity
  8
0
100
AcDbLine
 10
0.3330690928561424
 20
3.952856413055098
 30
0.0
 11
0.407864118667554
 21
3.996039341341362
 31
0.0
  0
LINE
  5
1E7
330
2
100
AcDbEntity
  8
0
100
AcDbLine
 10
0.9922901632620036
 20
3.575579114068634
 30
0.0
 11
1.09070214096478
 21
3.632397295886817
 31
0.0
  0
LINE
  5
1E8
330
2
100
AcDbEntity
  8
0
100
AcDbLine
 10
0.9922901632620018
 20
3.575579114068635
 30
0.0
 11
1.090702140964778
 21
3.632397295886815
 31
0.0
  0
LINE
  5
1E9
330
2
100
AcDbEntity
  8
0
100
AcDbLine
 10
0.9922901632620018
 20
3.234670023159545
 30
0.0
 11
1.090702140964778
 21
3.291488204977725
 31
0.0
  0
LINE
  5
1EA
330
2
100
AcDbEntity
  8
0
100
AcDbLine
 10
0.9922901632620018
 20
3.121033659523178
 30
0.0
 11
1.090702140964778
 21
3.177851841341358
 31
0.0
  0
LINE
  5
1EB
330
2
100
AcDbEntity
  8
0
100
AcDbLine
 10
0.9922901632620018
 20
3.007397295886815
 30
0.0
 11
1.090702140964778
 21
3.064215477704998
 31
0.0
  0
LINE
  5
1EC
330
2
100
AcDbEntity
  8
0
100
AcDbLine
 10
1.090702140964776
 20
3.064215477704998
 30
0.0
 11
0.9922901632620018
 21
3.121033659523178
 31
0.0
  0
LINE
  5
1ED
330
2
100
AcDbEntity
  8
0
100
AcDbLine
 10
1.090702140964776
 20
3.177851841341358
 30
0.0
 11
0.9922901632620018
 21
3.234670023159541
 31
0.0
  0
LINE
  5
1EE
330
2
100
AcDbEntity
  8
0
100
AcDbLine
 10
1.090702140964776
 20
3.518760932250455
 30
0.0
 11
0.9922901632620018
 21
3.575579114068635
 31
0.0
  0
LINE
  5
1EF
330
2
100
AcDbEntity
  8
0
100
AcDbLine
 10
0.9922901632620018
 20
3.461942750432272
 30
0.0
 11
1.090702140964778
 21
3.518760932250455
 31
0.0
  0
LINE
  5
1F0
330
2
100
AcDbEntity
  8
0
100
AcDbLine
 10
1.090702140964776
 20
3.291488204977728
 30
0.0
 11
0.9922901632620018
 21
3.348306386795908
 31
0.0
  0
LINE
  5
1F1
330
2
100
AcDbEntity
  8
0
100
AcDbLine
 10
0.9922901632620018
 20
3.348306386795908
 30
0.0
 11
1.090702140964778
 21
3.405124568614088
 31
0.0
  0
LINE
  5
1F2
330
2
100
AcDbEntity
  8
0
100
AcDbLine
 10
1.090702140964776
 20
3.405124568614092
 30
0.0
 11
0.9922901632620018
 21
3.461942750432272
 31
0.0
  0
LINE
  5
1F3
330
2
100
AcDbEntity
  8
0
100
AcDbLine
 10
0.9922901632619983
 20
3.802851841341357
 30
0.0
 11
1.047030887221654
 21
3.834456413055097
 31
0.0
  0
LINE
  5
1F4
330
2
100
AcDbEntity
  8
0
100
AcDbLine
 10
1.090702140964778
 20
3.746033659523177
 30
0.0
 11
0.9922901632620036
 21
3.802851841341361
 31
0.0
  0
LINE
  5
1F5
330
2
100
AcDbEntity
  8
0
100
AcDbLine
 10
1.090702140964778
 20
3.632397295886817
 30
0.0
 11
0.9922901632620036
 21
3.689215477704997
 31
0.0
  0
LINE
  5
1F6
330
2
100
AcDbEntity
  8
0
100
AcDbLine
 10
0.9922901632620036
 20
3.689215477704997
 30
0.0
 11
1.09070214096478
 21
3.746033659523177
 31
0.0
  0
LINE
  5
1F7
330
2
100
AcDbEntity
  8
0
100
AcDbLine
 10
1.090702140964776
 20
3.632397295886815
 30
0.0
 11
0.9922901632620018
 21
3.689215477704998
 31
0.0
  0
ARC
  5
1F8
330
2
100
AcDbEntity
  8
0
100
AcDbCircle
 10
1.089788572667779
 20
4.394582321987894
 30
0.0
 40
0.3500000000000102
100
AcDbArc
 50
248.2132107017385
 51
291.7867892982612
  0
LINE
  5
1F9
330
2
100
AcDbEntity
  8
0
100
AcDbLine
 10
1.015916956351139
 20
3.952856413055098
 30
0.0
 11
1.090702140964778
 21
3.996033659523178
 31
0.0
  0
LINE
  5
1FA
330
2
100
AcDbEntity
  8
0
100
AcDbLine
 10
1.090702140964776
 20
3.996033659523182
 30
0.0
 11
1.006613390936398
 21
4.044582321987882
 31
0.0
  0
LINE
  5
1FB
330
2
100
AcDbEntity
  8
0
100
AcDbLine
 10
1.500077140964779
 20
3.952856413055098
 30
0.0
 11
1.500077140964779
 21
3.834456413055097
 31
0.0
  0
LINE
  5
25F
330
2
100
AcDbEntity
  8
0
100
AcDbLine
 10
-1.070832492232118
 20
6.225633659523181
 30
0.0
 11
-1.070832492232118
 21
8.24603365952318
 31
0.0
  0
LINE
  5
260
330
2
100
AcDbEntity
  8
0
100
AcDbLine
 10
-1.195832492232118
 20
8.24603365952318
 30
0.0
 11
-1.195832492232118
 21
6.205633659523182
 31
0.0
  0
ARC
  5
262
330
2
100
AcDbEntity
  8
0
100
AcDbCircle
 10
-0.9862324922321157
 20
6.205633659523182
 30
0.0
 40
0.2096
100
AcDbArc
 50
180.0
 51
269.9999999999999
  0
LINE
  5
263
330
2
100
AcDbEntity
  8
0
100
AcDbLine
 10
-0.9458324922321175
 20
5.99603365952318
 30
0.0
 11
-0.8833324922321175
 21
5.99603365952318
 31
0.0
  0
ARC
  5
264
330
2
100
AcDbEntity
  8
0
100
AcDbCircle
 10
-0.9662324922321197
 20
6.225633659523181
 30
0.0
 40
0.1046
100
AcDbArc
 50
180.0
 51
269.9999999999999
  0
LINE
  5
266
330
2
100
AcDbEntity
  8
0
100
AcDbLine
 10
0.9922901632620018
 20
5.393760932250455
 30
0.0
 11
1.090702140964778
 21
5.450579114068635
 31
0.0
  0
LINE
  5
267
330
2
100
AcDbEntity
  8
0
100
AcDbLine
 10
0.3094521409647779
 20
5.393766614068635
 30
0.0
 11
0.407864118667554
 21
5.450584795886819
 31
0.0
  0
LINE
  5
268
330
2
100
AcDbEntity
  8
0
100
AcDbLine
 10
1.090702140964778
 20
5.450579114068638
 30
0.0
 11
0.3094521409647779
 21
5.393766614068635
 31
0.0
  0
ARC
  5
269
330
2
100
AcDbEntity
  8
0
100
AcDbCircle
 10
0.7000771409647779
 20
3.214082321987887
 30
0.0
 40
1.362499999999996
100
AcDbArc
 50
79.00726691069063
 51
100.9927330893092
  0
LINE
  5
26A
330
2
100
AcDbEntity
  8
0
100
AcDbLine
 10
1.089788572667779
 20
4.576582321987882
 30
0.0
 11
0.3103657092617826
 21
4.576582321987882
 31
0.0
  0
LINE
  5
26B
330
2
100
AcDbEntity
  8
0
100
AcDbLine
 10
0.407864118667554
 20
5.223312068614092
 30
0.0
 11
0.9922901632620018
 21
5.280124568614092
 31
0.0
  0
LINE
  5
26C
330
2
100
AcDbEntity
  8
0
100
AcDbLine
 10
1.090702140964778
 20
5.336942750432272
 30
0.0
 11
0.3094521409647779
 21
5.280130250432272
 31
0.0
  0
LINE
  5
26D
330
2
100
AcDbEntity
  8
0
100
AcDbLine
 10
0.407864118667554
 20
5.336948432250456
 30
0.0
 11
0.9922901632620018
 21
5.393760932250455
 31
0.0
  0
LINE
  5
26E
330
2
100
AcDbEntity
  8
0
100
AcDbLine
 10
1.090702140964778
 20
5.223306386795908
 30
0.0
 11
0.3094521409647779
 21
5.166493886795909
 31
0.0
  0
LINE
  5
26F
330
2
100
AcDbEntity
  8
0
100
AcDbLine
 10
0.407864118667554
 20
5.109675704977725
 30
0.0
 11
0.9922901632620018
 21
5.166488204977728
 31
0.0
  0
LINE
  5
270
330
2
100
AcDbEntity
  8
0
100
AcDbLine
 10
0.407864118667554
 20
4.882402977704999
 30
0.0
 11
0.9922901632620018
 21
4.939215477704998
 31
0.0
  0
LINE
  5
271
330
2
100
AcDbEntity
  8
0
100
AcDbLine
 10
0.407864118667554
 20
4.996039341341362
 30
0.0
 11
0.9922901632620018
 21
5.052851841341361
 31
0.0
  0
LINE
  5
272
330
2
100
AcDbEntity
  8
0
100
AcDbLine
 10
0.407864118667554
 20
4.655130250432269
 30
0.0
 11
0.9922901632620018
 21
4.711942750432272
 31
0.0
  0
LINE
  5
273
330
2
100
AcDbEntity
  8
0
100
AcDbLine
 10
0.407864118667554
 20
4.768766614068635
 30
0.0
 11
0.9922901632620018
 21
4.825579114068631
 31
0.0
  0
LINE
  5
274
330
2
100
AcDbEntity
  8
0
100
AcDbLine
 10
1.090702140964778
 20
4.655124568614088
 30
0.0
 11
0.3094521409647779
 21
4.598312068614089
 31
0.0
  0
LINE
  5
275
330
2
100
AcDbEntity
  8
0
100
AcDbLine
 10
1.090702140964778
 20
4.768760932250451
 30
0.0
 11
0.3094521409647779
 21
4.711948432250452
 31
0.0
  0
LINE
  5
276
330
2
100
AcDbEntity
  8
0
100
AcDbLine
 10
1.090702140964778
 20
4.882397295886815
 30
0.0
 11
0.3094521409647779
 21
4.825584795886815
 31
0.0
  0
LINE
  5
277
330
2
100
AcDbEntity
  8
0
100
AcDbLine
 10
1.090702140964778
 20
4.996033659523182
 30
0.0
 11
0.3094521409647779
 21
4.939221159523179
 31
0.0
  0
LINE
  5
278
330
2
100
AcDbEntity
  8
0
100
AcDbLine
 10
1.090702140964778
 20
5.109670023159541
 30
0.0
 11
0.3094521409647779
 21
5.052857523159542
 31
0.0
  0
LINE
  5
279
330
2
100
AcDbEntity
  8
0
100
AcDbLine
 10
0.407864118667554
 20
4.768766614068635
 30
0.0
 11
0.3094521409647779
 21
4.825584795886815
 31
0.0
  0
ARC
  5
27A
330
2
100
AcDbEntity
  8
0
100
AcDbCircle
 10
0.3103657092617809
 20
4.226582321987891
 30
0.0
 40
0.3499999999999915
100
AcDbArc
 50
68.21321070173785
 51
111.786789298262
  0
LINE
  5
27B
330
2
100
AcDbEntity
  8
0
100
AcDbLine
 10
0.407864118667554
 20
4.655130250432269
 30
0.0
 11
0.3094521409647779
 21
4.711948432250452
 31
0.0
  0
LINE
  5
27C
330
2
100
AcDbEntity
  8
0
100
AcDbLine
 10
0.3470891661569642
 20
4.576582321987882
 30
0.0
 11
0.3094521409647779
 21
4.598312068614089
 31
0.0
  0
LINE
  5
27D
330
2
100
AcDbEntity
  8
0
100
AcDbLine
 10
0.3094521409647779
 20
4.598312068614089
 30
0.0
 11
0.407864118667554
 21
4.655130250432269
 31
0.0
  0
LINE
  5
27E
330
2
100
AcDbEntity
  8
0
100
AcDbLine
 10
0.3094521409647779
 20
4.711948432250452
 30
0.0
 11
0.407864118667554
 21
4.768766614068635
 31
0.0
  0
LINE
  5
27F
330
2
100
AcDbEntity
  8
0
100
AcDbLine
 10
0.3094521409647779
 20
5.052857523159545
 30
0.0
 11
0.407864118667554
 21
5.109675704977725
 31
0.0
  0
LINE
  5
280
330
2
100
AcDbEntity
  8
0
100
AcDbLine
 10
0.3094521409647779
 20
4.939221159523179
 30
0.0
 11
0.407864118667554
 21
4.996039341341362
 31
0.0
  0
LINE
  5
281
330
2
100
AcDbEntity
  8
0
100
AcDbLine
 10
0.407864118667554
 20
4.882402977704999
 30
0.0
 11
0.3094521409647779
 21
4.939221159523179
 31
0.0
  0
LINE
  5
282
330
2
100
AcDbEntity
  8
0
100
AcDbLine
 10
0.407864118667554
 20
4.996039341341362
 30
0.0
 11
0.3094521409647779
 21
5.052857523159542
 31
0.0
  0
LINE
  5
283
330
2
100
AcDbEntity
  8
0
100
AcDbLine
 10
0.3094521409647779
 20
4.825584795886819
 30
0.0
 11
0.407864118667554
 21
4.882402977704999
 31
0.0
  0
LINE
  5
284
330
2
100
AcDbEntity
  8
0
100
AcDbLine
 10
0.407864118667554
 20
5.223312068614092
 30
0.0
 11
0.3094521409647779
 21
5.280130250432272
 31
0.0
  0
LINE
  5
285
330
2
100
AcDbEntity
  8
0
100
AcDbLine
 10
0.3094521409647779
 20
5.280130250432276
 30
0.0
 11
0.407864118667554
 21
5.336948432250456
 31
0.0
  0
LINE
  5
286
330
2
100
AcDbEntity
  8
0
100
AcDbLine
 10
0.407864118667554
 20
5.336948432250456
 30
0.0
 11
0.3094521409647779
 21
5.393766614068635
 31
0.0
  0
LINE
  5
287
330
2
100
AcDbEntity
  8
0
100
AcDbLine
 10
0.3094521409647779
 20
5.166493886795909
 30
0.0
 11
0.407864118667554
 21
5.223312068614092
 31
0.0
  0
LINE
  5
288
330
2
100
AcDbEntity
  8
0
100
AcDbLine
 10
0.407864118667554
 20
5.109675704977725
 30
0.0
 11
0.3094521409647779
 21
5.166493886795909
 31
0.0
  0
LINE
  5
289
330
2
100
AcDbEntity
  8
0
100
AcDbLine
 10
1.090702140964776
 20
4.768760932250451
 30
0.0
 11
0.9922901632620018
 21
4.825579114068631
 31
0.0
  0
ARC
  5
28A
330
2
100
AcDbEntity
  8
0
100
AcDbCircle
 10
1.089788572667779
 20
4.22658232198787
 30
0.0
 40
0.3500000000000102
100
AcDbArc
 50
68.21321070173863
 51
111.7867892982614
  0
LINE
  5
28B
330
2
100
AcDbEntity
  8
0
100
AcDbLine
 10
1.090702140964776
 20
4.655124568614088
 30
0.0
 11
0.9922901632620018
 21
4.711942750432272
 31
0.0
  0
LINE
  5
28C
330
2
100
AcDbEntity
  8
0
100
AcDbLine
 10
1.029917347256419
 20
4.576582321987882
 30
0.0
 11
0.9922901632620018
 21
4.598306386795905
 31
0.0
  0
LINE
  5
28D
330
2
100
AcDbEntity
  8
0
100
AcDbLine
 10
0.9922901632620018
 20
4.598306386795905
 30
0.0
 11
1.090702140964778
 21
4.655124568614088
 31
0.0
  0
LINE
  5
28E
330
2
100
AcDbEntity
  8
0
100
AcDbLine
 10
0.9922901632620018
 20
4.711942750432272
 30
0.0
 11
1.090702140964778
 21
4.768760932250451
 31
0.0
  0
LINE
  5
28F
330
2
100
AcDbEntity
  8
0
100
AcDbLine
 10
0.7688162927534776
 20
4.576582321987882
 30
0.0
 11
0.9922901632620018
 21
4.598306386795905
 31
0.0
  0
LINE
  5
290
330
2
100
AcDbEntity
  8
0
100
AcDbLine
 10
0.9922901632620018
 20
5.052851841341361
 30
0.0
 11
1.090702140964778
 21
5.109670023159541
 31
0.0
  0
LINE
  5
291
330
2
100
AcDbEntity
  8
0
100
AcDbLine
 10
0.9922901632620018
 20
4.939215477704998
 30
0.0
 11
1.090702140964778
 21
4.996033659523178
 31
0.0
  0
LINE
  5
292
330
2
100
AcDbEntity
  8
0
100
AcDbLine
 10
0.9922901632620018
 20
4.825579114068631
 30
0.0
 11
1.090702140964778
 21
4.882397295886815
 31
0.0
  0
LINE
  5
293
330
2
100
AcDbEntity
  8
0
100
AcDbLine
 10
1.090702140964776
 20
4.882397295886815
 30
0.0
 11
0.9922901632620018
 21
4.939215477704998
 31
0.0
  0
LINE
  5
294
330
2
100
AcDbEntity
  8
0
100
AcDbLine
 10
1.090702140964776
 20
4.996033659523182
 30
0.0
 11
0.9922901632620018
 21
5.052851841341361
 31
0.0
  0
LINE
  5
295
330
2
100
AcDbEntity
  8
0
100
AcDbLine
 10
1.090702140964776
 20
5.336942750432272
 30
0.0
 11
0.9922901632620018
 21
5.393760932250455
 31
0.0
  0
LINE
  5
296
330
2
100
AcDbEntity
  8
0
100
AcDbLine
 10
0.9922901632620018
 20
5.280124568614092
 30
0.0
 11
1.090702140964778
 21
5.336942750432272
 31
0.0
  0
LINE
  5
297
330
2
100
AcDbEntity
  8
0
100
AcDbLine
 10
1.090702140964776
 20
5.223306386795908
 30
0.0
 11
0.9922901632620018
 21
5.280124568614092
 31
0.0
  0
LINE
  5
298
330
2
100
AcDbEntity
  8
0
100
AcDbLine
 10
0.9922901632620018
 20
5.166488204977728
 30
0.0
 11
1.090702140964778
 21
5.223306386795908
 31
0.0
  0
LINE
  5
299
330
2
100
AcDbEntity
  8
0
100
AcDbLine
 10
1.090702140964776
 20
5.109670023159541
 30
0.0
 11
0.9922901632620018
 21
5.166488204977728
 31
0.0
  0
LINE
  5
29A
330
2
100
AcDbEntity
  8
0
100
AcDbLine
 10
1.090702140964778
 20
5.564215477705002
 30
0.0
 11
0.3094521409647779
 21
5.507402977704999
 31
0.0
  0
LINE
  5
29B
330
2
100
AcDbEntity
  8
0
100
AcDbLine
 10
1.090702140964778
 20
5.677851841341365
 30
0.0
 11
0.3094521409647779
 21
5.621039341341366
 31
0.0
  0
LINE
  5
29C
330
2
100
AcDbEntity
  8
0
100
AcDbLine
 10
1.090702140964778
 20
5.791488204977728
 30
0.0
 11
0.3094521409647779
 21
5.734675704977729
 31
0.0
  0
LINE
  5
29D
330
2
100
AcDbEntity
  8
0
100
AcDbLine
 10
1.090702140964778
 20
5.905124568614092
 30
0.0
 11
0.3094521409647779
 21
5.848312068614092
 31
0.0
  0
LINE
  5
29E
330
2
100
AcDbEntity
  8
0
100
AcDbLine
 10
0.407864118667554
 20
5.564221159523182
 30
0.0
 11
0.9922901632620018
 21
5.621033659523182
 31
0.0
  0
LINE
  5
29F
330
2
100
AcDbEntity
  8
0
100
AcDbLine
 10
0.407864118667554
 20
5.450584795886819
 30
0.0
 11
0.9922901632620018
 21
5.507397295886818
 31
0.0
  0
LINE
  5
2A0
330
2
100
AcDbEntity
  8
0
100
AcDbLine
 10
0.407864118667554
 20
5.677857523159549
 30
0.0
 11
0.9922901632620018
 21
5.734670023159545
 31
0.0
  0
LINE
  5
2A1
330
2
100
AcDbEntity
  8
0
100
AcDbLine
 10
0.407864118667554
 20
5.791493886795909
 30
0.0
 11
0.9922901632620018
 21
5.848306386795912
 31
0.0
  0
LINE
  5
2A2
330
2
100
AcDbEntity
  8
0
100
AcDbLine
 10
0.407864118667554
 20
5.905130250432276
 30
0.0
 11
0.9922901632620018
 21
5.961942750432275
 31
0.0
  0
LINE
  5
2A3
330
2
100
AcDbEntity
  8
0
100
AcDbLine
 10
0.7781708878394316
 20
5.99603365952318
 30
0.0
 11
0.3094521409647779
 21
5.961948432250456
 31
0.0
  0
LINE
  5
2A4
330
2
100
AcDbEntity
  8
0
100
AcDbLine
 10
0.407864118667554
 20
5.677857523159549
 30
0.0
 11
0.3094521409647779
 21
5.734675704977729
 31
0.0
  0
LINE
  5
2A5
330
2
100
AcDbEntity
  8
0
100
AcDbLine
 10
0.3094521409647779
 20
5.621039341341366
 30
0.0
 11
0.407864118667554
 21
5.677857523159549
 31
0.0
  0
LINE
  5
2A6
330
2
100
AcDbEntity
  8
0
100
AcDbLine
 10
0.407864118667554
 20
5.450584795886819
 30
0.0
 11
0.3094521409647779
 21
5.507402977704999
 31
0.0
  0
LINE
  5
2A7
330
2
100
AcDbEntity
  8
0
100
AcDbLine
 10
0.3094521409647779
 20
5.507402977705002
 30
0.0
 11
0.407864118667554
 21
5.564221159523182
 31
0.0
  0
LINE
  5
2A8
330
2
100
AcDbEntity
  8
0
100
AcDbLine
 10
0.407864118667554
 20
5.564221159523182
 30
0.0
 11
0.3094521409647779
 21
5.621039341341366
 31
0.0
  0
LINE
  5
2A9
330
2
100
AcDbEntity
  8
0
100
AcDbLine
 10
0.3094521409647779
 20
5.734675704977729
 30
0.0
 11
0.407864118667554
 21
5.791493886795909
 31
0.0
  0
LINE
  5
2AA
330
2
100
AcDbEntity
  8
0
100
AcDbLine
 10
0.407864118667554
 20
5.791493886795909
 30
0.0
 11
0.3094521409647779
 21
5.848312068614092
 31
0.0
  0
LINE
  5
2AB
330
2
100
AcDbEntity
  8
0
100
AcDbLine
 10
0.3094521409647779
 20
5.848312068614092
 30
0.0
 11
0.407864118667554
 21
5.905130250432276
 31
0.0
  0
LINE
  5
2AC
330
2
100
AcDbEntity
  8
0
100
AcDbLine
 10
0.407864118667554
 20
5.905130250432276
 30
0.0
 11
0.3094521409647779
 21
5.961948432250456
 31
0.0
  0
LINE
  5
2AD
330
2
100
AcDbEntity
  8
0
100
AcDbLine
 10
0.3094521409647779
 20
5.961948432250459
 30
0.0
 11
0.368489486388663
 21
5.996033659523178
 31
0.0
  0
LINE
  5
2AE
330
2
100
AcDbEntity
  8
0
100
AcDbLine
 10
1.090702140964776
 20
5.677851841341365
 30
0.0
 11
0.9922901632620018
 21
5.734670023159545
 31
0.0
  0
LINE
  5
2AF
330
2
100
AcDbEntity
  8
0
100
AcDbLine
 10
0.9922901632620018
 20
5.621033659523182
 30
0.0
 11
1.090702140964778
 21
5.677851841341361
 31
0.0
  0
LINE
  5
2B0
330
2
100
AcDbEntity
  8
0
100
AcDbLine
 10
1.090702140964776
 20
5.450579114068638
 30
0.0
 11
0.9922901632620018
 21
5.507397295886818
 31
0.0
  0
LINE
  5
2B1
330
2
100
AcDbEntity
  8
0
100
AcDbLine
 10
0.9922901632620018
 20
5.507397295886818
 30
0.0
 11
1.090702140964778
 21
5.564215477705002
 31
0.0
  0
LINE
  5
2B2
330
2
100
AcDbEntity
  8
0
100
AcDbLine
 10
1.090702140964776
 20
5.564215477705002
 30
0.0
 11
0.9922901632620018
 21
5.621033659523182
 31
0.0
  0
LINE
  5
2B3
330
2
100
AcDbEntity
  8
0
100
AcDbLine
 10
0.9922901632620018
 20
5.961942750432275
 30
0.0
 11
1.05133734988366
 21
5.996033659523178
 31
0.0
  0
LINE
  5
2B4
330
2
100
AcDbEntity
  8
0
100
AcDbLine
 10
0.9922901632620018
 20
5.734670023159545
 30
0.0
 11
1.090702140964778
 21
5.791488204977728
 31
0.0
  0
LINE
  5
2B5
330
2
100
AcDbEntity
  8
0
100
AcDbLine
 10
1.090702140964776
 20
5.791488204977728
 30
0.0
 11
0.9922901632620018
 21
5.848306386795912
 31
0.0
  0
LINE
  5
2B6
330
2
100
AcDbEntity
  8
0
100
AcDbLine
 10
0.9922901632620018
 20
5.848306386795912
 30
0.0
 11
1.090702140964778
 21
5.905124568614092
 31
0.0
  0
LINE
  5
2B7
330
2
100
AcDbEntity
  8
0
100
AcDbLine
 10
1.090702140964776
 20
5.905124568614092
 30
0.0
 11
0.9922901632620018
 21
5.961942750432275
 31
0.0
  0
LINE
  5
2B8
330
2
100
AcDbEntity
  8
0
100
AcDbLine
 10
-1.070832492232118
 20
8.24603365952318
 30
0.0
 11
-1.195832492232118
 21
8.24603365952318
 31
0.0
  0
LINE
  5
2B9
330
2
100
AcDbEntity
  8
0
100
AcDbLine
 10
2.616667507767883
 20
8.24603365952318
 30
0.0
 11
2.616667507767883
 21
6.205633659523182
 31
0.0
  0
LINE
  5
2BA
330
2
100
AcDbEntity
  8
0
100
AcDbLine
 10
2.491667507767883
 20
8.24603365952318
 30
0.0
 11
2.491667507767883
 21
6.225633659523181
 31
0.0
  0
ARC
  5
2BC
330
2
100
AcDbEntity
  8
0
100
AcDbCircle
 10
2.407067507767881
 20
6.205633659523182
 30
0.0
 40
0.2096
100
AcDbArc
 50
270.0
 51
0.0
  0
ARC
  5
2BD
330
2
100
AcDbEntity
  8
0
100
AcDbCircle
 10
2.387067507767885
 20
6.225633659523181
 30
0.0
 40
0.1046
100
AcDbArc
 50
270.0
 51
0.0
  0
LINE
  5
2BF
330
2
100
AcDbEntity
  8
0
100
AcDbLine
 10
2.616667507767883
 20
8.24603365952318
 30
0.0
 11
2.491667507767883
 21
8.24603365952318
 31
0.0
  0
ENDSEC
  0
SECTION
  2
OBJECTS
  0
DICTIONARY
  5
7
330
0
100
AcDbDictionary
281
     1
  3
ACAD_COLOR
350
2CD
  3
ACAD_GROUP
350
20
  3
ACAD_LAYOUT
350
B
  3
ACAD_MATERIAL
350
2CC
  3
ACAD_MLINESTYLE
350
21
  3
ACAD_PLOTSETTINGS
350
22
  3
ACAD_PLOTSTYLENAME
350
6
  3
ACAD_TABLESTYLE
350
2CE
  3
ACDBHEADERROUNDTRIPXREC
350
2F3
  3
AcDbVariableDictionary
350
2C0
  0
DICTIONARY
  5
2D4
330
2
100
AcDbDictionary
280
     1
281
     1
  3
ACAD_SORTENTS
360
2D5
  0
DICTIONARY
  5
2CD
102
{ACAD_REACTORS
330
7
102
}
330
7
100
AcDbDictionary
281
     1
  0
DICTIONARY
  5
20
102
{ACAD_REACTORS
330
7
102
}
330
7
100
AcDbDictionary
281
     1
  0
DICTIONARY
  5
B
102
{ACAD_REACTORS
330
7
102
}
330
7
100
AcDbDictionary
281
     1
  3
Layout1
350
F
  3
Model
350
A
  0
DICTIONARY
  5
2CC
102
{ACAD_REACTORS
330
7
102
}
330
7
100
AcDbDictionary
281
     1
  0
DICTIONARY
  5
21
102
{ACAD_REACTORS
330
7
102
}
330
7
100
AcDbDictionary
281
     1
  3
STANDARD
350
24
  0
DICTIONARY
  5
22
102
{ACAD_REACTORS
330
7
102
}
330
7
100
AcDbDictionary
281
     1
  0
ACDBDICTIONARYWDFLT
  5
6
102
{ACAD_REACTORS
330
7
102
}
330
7
100
AcDbDictionary
281
     1
  3
Normal
350
5
100
AcDbDictionaryWithDefault
340
5
  0
DICTIONARY
  5
2CE
102
{ACAD_REACTORS
330
7
102
}
330
7
100
AcDbDictionary
281
     1
  3
Standard
350
2CF
  0
DICTIONARY
  5
2F3
102
{ACAD_REACTORS
330
7
102
}
330
7
100
AcDbDictionary
281
     1
  3
COLORDICT
350
2F4
  3
MATERIALDICT
350
2F5
  0
DICTIONARY
  5
2C0
102
{ACAD_REACTORS
330
7
102
}
330
7
100
AcDbDictionary
281
     1
  3
CTABLESTYLE
350
2E0
  3
HIDETEXT
350
2F2
  0
SORTENTSTABLE
  5
2D5
102
{ACAD_REACTORS
330
2D4
102
}
330
2D4
100
AcDbSortentsTable
330
2
331
0
  5
21E
331
2A4
  5
2A4
331
29D
  5
29D
331
152
  5
152
331
26B
  5
26B
331
18A
  5
18A
331
29E
  5
29E
331
18E
  5
18E
331
18B
  5
18B
331
2B2
  5
2B2
331
264
  5
264
331
19B
  5
19B
331
1A3
  5
1A3
331
1B4
  5
1B4
331
1F4
  5
1F4
331
1C8
  5
1C8
331
19D
  5
19D
331
26
  5
26
331
123
  5
123
331
144
  5
144
331
1C4
  5
1C4
331
295
  5
295
331
28E
  5
28E
331
1CB
  5
1CB
331
1C3
  5
1C3
331
297
  5
297
331
12F
  5
12F
331
16A
  5
16A
331
1AA
  5
1AA
331
142
  5
142
331
2A5
  5
2A5
331
147
  5
147
331
1D6
  5
1D6
331
262
  5
262
331
281
  5
281
331
260
  5
260
331
283
  5
283
331
276
  5
276
331
15F
  5
15F
331
29B
  5
29B
331
173
  5
173
331
133
  5
133
331
2AE
  5
2AE
331
1E5
  5
1E5
331
2BF
  5
2BF
331
192
  5
192
331
12D
  5
12D
331
1AF
  5
1AF
331
1C6
  5
1C6
331
1D9
  5
1D9
331
1DB
  5
1DB
331
1CA
  5
1CA
331
1C7
  5
1C7
331
1DC
  5
1DC
331
1F7
  5
1F7
331
1DD
  5
1DD
331
274
  5
274
331
13F
  5
13F
331
273
  5
273
331
1CE
  5
1CE
331
180
  5
180
331
161
  5
161
331
1BD
  5
1BD
331
2A6
  5
2A6
331
1DA
  5
1DA
331
282
  5
282
331
2A0
  5
2A0
331
1D4
  5
1D4
331
141
  5
141
331
15A
  5
15A
331
1BB
  5
1BB
331
287
  5
287
331
199
  5
199
331
1A9
  5
1A9
331
19F
  5
19F
331
2A8
  5
2A8
331
11F
  5
11F
331
1BE
  5
1BE
331
29F
  5
29F
331
198
  5
198
331
167
  5
167
331
177
  5
177
331
154
  5
154
331
178
  5
178
331
17F
  5
17F
331
271
  5
271
331
26A
  5
26A
331
1FB
  5
1FB
331
2AA
  5
2AA
331
16F
  5
16F
331
293
  5
293
331
288
  5
288
331
160
  5
160
331
266
  5
266
331
1F0
  5
1F0
331
11D
  5
11D
331
1B5
  5
1B5
331
12A
  5
12A
331
269
  5
269
331
2B7
  5
2B7
331
1C1
  5
1C1
331
158
  5
158
331
166
  5
166
331
151
  5
151
331
129
  5
129
331
263
  5
263
331
275
  5
275
331
2B0
  5
2B0
331
172
  5
172
331
140
  5
140
331
1FA
  5
1FA
331
1F9
  5
1F9
331
1F8
  5
1F8
331
1E8
  5
1E8
331
1B6
  5
1B6
331
14B
  5
14B
331
146
  5
146
331
285
  5
285
331
1BC
  5
1BC
331
183
  5
183
331
1AD
  5
1AD
331
11C
  5
11C
331
16B
  5
16B
331
1CF
  5
1CF
331
1D0
  5
1D0
331
1D1
  5
1D1
331
1D2
  5
1D2
331
1D8
  5
1D8
331
1AE
  5
1AE
331
1F5
  5
1F5
331
1A0
  5
1A0
331
1C0
  5
1C0
331
1A4
  5
1A4
331
2A7
  5
2A7
331
1D7
  5
1D7
331
1F2
  5
1F2
331
1F1
  5
1F1
331
1EE
  5
1EE
331
1ED
  5
1ED
331
2C
  5
2C
331
188
  5
188
331
135
  5
135
331
27E
  5
27E
331
122
  5
122
331
153
  5
153
331
15C
  5
15C
331
11E
  5
11E
331
1C2
  5
1C2
331
2A1
  5
2A1
331
169
  5
169
331
1EF
  5
1EF
331
19C
  5
19C
331
164
  5
164
331
168
  5
168
331
19E
  5
19E
331
2B9
  5
2B9
331
18F
  5
18F
331
2A3
  5
2A3
331
197
  5
197
331
27D
  5
27D
331
187
  5
187
331
131
  5
131
331
1DF
  5
1DF
331
176
  5
176
331
191
  5
191
331
127
  5
127
331
14C
  5
14C
331
1B1
  5
1B1
331
175
  5
175
331
2A2
  5
2A2
331
277
  5
277
331
195
  5
195
331
1EB
  5
1EB
331
2B8
  5
2B8
331
1B9
  5
1B9
331
150
  5
150
331
138
  5
138
331
14F
  5
14F
331
139
  5
139
331
28F
  5
28F
331
280
  5
280
331
1B8
  5
1B8
331
17C
  5
17C
331
1CC
  5
1CC
331
267
  5
267
331
1B2
  5
1B2
331
2E
  5
2E
331
2B5
  5
2B5
331
2BA
  5
2BA
331
157
  5
157
331
1A2
  5
1A2
331
2AD
  5
2AD
331
1A8
  5
1A8
331
28B
  5
28B
331
2BD
  5
2BD
331
27B
  5
27B
331
17B
  5
17B
331
2AB
  5
2AB
331
2B4
  5
2B4
331
29A
  5
29A
331
165
  5
165
331
1F3
  5
1F3
331
299
  5
299
331
15B
  5
15B
331
17A
  5
17A
331
14A
  5
14A
331
2AF
  5
2AF
331
16E
  5
16E
331
17E
  5
17E
331
181
  5
181
331
186
  5
186
331
1A5
  5
1A5
331
1B0
  5
1B0
331
162
  5
162
331
2B3
  5
2B3
331
149
  5
149
331
25F
  5
25F
331
193
  5
193
331
14E
  5
14E
331
179
  5
179
331
279
  5
279
331
1BF
  5
1BF
331
134
  5
134
331
1D3
  5
1D3
331
2A9
  5
2A9
331
1C9
  5
1C9
331
137
  5
137
331
296
  5
296
331
292
  5
292
331
18C
  5
18C
331
148
  5
148
331
11A
  5
11A
331
1E3
  5
1E3
331
26D
  5
26D
331
170
  5
170
331
1CD
  5
1CD
331
26E
  5
26E
331
26F
  5
26F
331
12C
  5
12C
331
132
  5
132
331
121
  5
121
331
27A
  5
27A
331
25
  5
25
331
126
  5
126
331
1E1
  5
1E1
331
1A6
  5
1A6
331
1EC
  5
1EC
331
18D
  5
18D
331
13B
  5
13B
331
13A
  5
13A
331
272
  5
272
331
159
  5
159
331
1A7
  5
1A7
331
27F
  5
27F
331
1B3
  5
1B3
331
11B
  5
11B
331
185
  5
185
331
284
  5
284
331
13D
  5
13D
331
26C
  5
26C
331
1E2
  5
1E2
331
196
  5
196
331
1AB
  5
1AB
331
2AC
  5
2AC
331
117
  5
117
331
28C
  5
28C
331
12B
  5
12B
331
115
  5
115
331
286
  5
286
331
278
  5
278
331
2BC
  5
2BC
331
1E0
  5
1E0
331
289
  5
289
331
15D
  5
15D
331
1A1
  5
1A1
331
270
  5
270
331
290
  5
290
331
189
  5
189
331
1EA
  5
1EA
331
291
  5
291
331
268
  5
268
331
1C5
  5
1C5
331
143
  5
143
331
2F
  5
2F
331
13E
  5
13E
331
120
  5
120
331
155
  5
155
331
156
  5
156
331
19A
  5
19A
331
182
  5
182
331
1BA
  5
1BA
331
27C
  5
27C
331
15E
  5
15E
331
1F6
  5
1F6
331
171
  5
171
331
2D
  5
2D
331
16D
  5
16D
331
16C
  5
16C
331
13C
  5
13C
331
1E9
  5
1E9
331
125
  5
125
331
124
  5
124
331
1E7
  5
1E7
331
136
  5
136
331
1E6
  5
1E6
331
294
  5
294
331
163
  5
163
331
128
  5
128
331
12E
  5
12E
331
130
  5
130
331
1D5
  5
1D5
331
174
  5
174
331
29C
  5
29C
331
1B7
  5
1B7
331
194
  5
194
331
14D
  5
14D
331
116
  5
116
331
28D
  5
28D
331
2B6
  5
2B6
331
298
  5
298
331
1E4
  5
1E4
331
184
  5
184
331
190
  5
190
331
1AC
  5
1AC
331
118
  5
118
331
2B1
  5
2B1
331
28A
  5
28A
331
119
  5
119
331
1DE
  5
1DE
331
145
  5
145
331
17D
  5
17D
  0
LAYOUT
  5
F
102
{ACAD_REACTORS
330
B
102
}
102
{ACAD_XDICTIONARY
360
2F6
102
}
330
B
100
AcDbPlotSettings
  1

  2
HP LaserJet 2100 Series PS
  4

  6

 40
0.0
 41
0.0
 42
0.0
 43
0.0
 44
0.0
 45
0.0
 46
0.0
 47
0.0
 48
0.0
 49
0.0
140
0.0
141
0.0
142
1.0
143
1.0
 70
   688
 72
     0
 73
     0
 74
     5
  7
monochrome.ctb
 75
    16
147
1.0
148
0.0
149
0.0
100
AcDbLayout
  1
Layout1
 70
     0
 71
     1
 10
0.0
 20
0.0
 11
12.0
 21
9.0
 12
0.0
 22
0.0
 32
0.0
 14
1.000000000000000E+20
 24
1.000000000000000E+20
 34
1.000000000000000E+20
 15
-1.000000000000000E+20
 25
-1.000000000000000E+20
 35
-1.000000000000000E+20
146
0.0
 13
0.0
 23
0.0
 33
0.0
 16
1.0
 26
0.0
 36
0.0
 17
0.0
 27
1.0
 37
0.0
 76
     0
330
C
  0
LAYOUT
  5
A
102
{ACAD_REACTORS
330
B
102
}
102
{ACAD_XDICTIONARY
360
2F8
102
}
330
B
100
AcDbPlotSettings
  1

  2
HP LaserJet 2100 Series PS
  4
Letter
  6

 40
5.365749835968018
 41
5.408073902130127
 42
5.132904052734375
 43
5.090576171875
 44
215.8999938964844
 45
279.3999938964844
 46
0.0
 47
0.0
 48
0.0
 49
0.0
140
0.0
141
0.0
142
1.0
143
1.0
 70
 11952
 72
     0
 73
     1
 74
     0
  7
monochrome.ctb
 75
     0
147
1.0
148
-92.33070797844178
149
24.17269656488928
100
AcDbLayout
  1
Model
 70
     1
 71
     0
 10
0.0
 20
0.0
 11
12.0
 21
9.0
 12
0.0
 22
0.0
 32
0.0
 14
0.0
 24
0.0
 34
0.0
 15
0.0
 25
0.0
 35
0.0
146
0.0
 13
0.0
 23
0.0
 33
0.0
 16
1.0
 26
0.0
 36
0.0
 17
0.0
 27
1.0
 37
0.0
 76
     0
330
2
  0
MLINESTYLE
  5
24
102
{ACAD_REACTORS
330
21
102
}
330
21
100
AcDbMlineStyle
  2
STANDARD
 70
     0
  3

 62
   256
 51
90.0
 52
90.0
 71
     2
 49
0.5
 62
   256
  6
BYLAYER
 49
-0.5
 62
   256
  6
BYLAYER
  0
ACDBPLACEHOLDER
  5
5
102
{ACAD_REACTORS
330
6
102
}
330
6
  0
ACAD_PROXY_OBJECT
  5
2CF
102
{ACAD_REACTORS
330
2CE
102
}
330
2CE
100
AcDbProxyObject
 90
      499
 91
      505
 95
   983063
 70
     0
 93
     1841
310
4214DD185B99185C9928B81E85EB51B8AE3F2E07A17AD46E2B8FC02B5E8DC0F42B1CFD028000000C1008070000C3001FDFF8000000C1003FBFF000000182007F7FE00000030400FEFFC00000060801FDFF8000000C1003FBFF00000018200000000000000681FA0B0000001820100E000186003FBFF000000182007F7FE000
310
00030400FEFFC00000060801FDFF8000000C1003FBFF000000182007F7FE000000304000AD7A3703D0AC73F4160000003040201C00030C007F7FE00000030400FEFFC00000060801FDFF8000000C1003FBFF000000182007F7FE00000030400FEFFC000000608000
340
12
340
12
340
12
 94
        0
  0
XRECORD
  5
2F4
102
{ACAD_REACTORS
330
2F3
102
}
330
2F3
100
AcDbXrecord
340
2CD
  0
XRECORD
  5
2F5
102
{ACAD_REACTORS
330
2F3
102
}
330
2F3
100
AcDbXrecord
340
2CC
  0
DICTIONARYVAR
  5
2E0
102
{ACAD_REACTORS
330
2C0
102
}
330
2C0
100
DictionaryVariables
280
     0
  1
STANDARD
  0
DICTIONARYVAR
  5
2F2
102
{ACAD_REACTORS
330
2C0
102
}
330
2C0
100
DictionaryVariables
280
     0
  1
0
  0
DICTIONARY
  5
2F6
330
F
100
AcDbDictionary
280
     1
281
     1
  3
ACAD_XREC_ROUNDTRIP
360
2F7
  0
DICTIONARY
  5
2F8
330
A
100
AcDbDictionary
280
     1
281
     1
  3
ACAD_XREC_ROUNDTRIP
360
2F9
  0
XRECORD
  5
2F7
102
{ACAD_REACTORS
330
2F6
102
}
330
2F6
100
AcDbXrecord
102
SHADEPLOT
 70
     0
102
SHADEPLOTRESLEVEL
 70
     2
102
SHADEPLOTCUSTOMDPI
 70
   300
  0
XRECORD
  5
2F9
102
{ACAD_REACTORS
330
2F8
102
}
330
2F8
100
AcDbXrecord
102
SHADEPLOT
 70
     0
102
SHADEPLOTRESLEVEL
 70
     2
102
SHADEPLOTCUSTOMDPI
 70
   300
  0
ENDSEC
  0
EOF
