  0
SECTION
  2
HEADER
  9
$ACADVER
  1
AC1015
  9
$ACADMAINTVER
 70
     6
  9
$DWGCODEPAGE
  3
ANSI_1252
  9
$INSBASE
 10
0.0
 20
0.0
 30
0.0
  9
$EXTMIN
 10
-1.626624944643879
 20
-0.0050028302081202
 30
-0.0000000000112498
  9
$EXTMAX
 10
8.747968119453986
 20
8.250616786293726
 30
0.0000000000002956
  9
$LIMMIN
 10
0.0
 20
0.0
  9
$LIMMAX
 10
21.00000000000053
 20
15.61216552679092
  9
$ORTHOMODE
 70
     1
  9
$REGENMODE
 70
     1
  9
$FILLMODE
 70
     1
  9
$QTEXTMODE
 70
     0
  9
$MIRRTEXT
 70
     1
  9
$LTSCALE
 40
1.0
  9
$ATTMODE
 70
     1
  9
$TEXTSIZE
 40
0.18
  9
$TRACEWID
 40
0.05
  9
$TEXTSTYLE
  7
STANDARD
  9
$CLAYER
  8
0
  9
$CELTYPE
  6
BYLAYER
  9
$CECOLOR
 62
   256
  9
$CELTSCALE
 40
1.0
  9
$DISPSILH
 70
     0
  9
$DIMSCALE
 40
1.0
  9
$DIMASZ
 40
0.250000000000005
  9
$DIMEXO
 40
0.062
  9
$DIMDLI
 40
0.375
  9
$DIMRND
 40
0.0
  9
$DIMDLE
 40
0.0
  9
$DIMEXE
 40
0.160000000000004
  9
$DIMTP
 40
0.0
  9
$DIMTM
 40
0.0
  9
$DIMTXT
 40
0.180000000000004
  9
$DIMCEN
 40
-0.06
  9
$DIMTSZ
 40
0.0
  9
$DIMTOL
 70
     0
  9
$DIMLIM
 70
     0
  9
$DIMTIH
 70
     1
  9
$DIMTOH
 70
     1
  9
$DIMSE1
 70
     0
  9
$DIMSE2
 70
     0
  9
$DIMTAD
 70
     0
  9
$DIMZIN
 70
     0
  9
$DIMBLK
  1

  9
$DIMASO
 70
     0
  9
$DIMSHO
 70
     0
  9
$DIMPOST
  1

  9
$DIMAPOST
  1

  9
$DIMALT
 70
     0
  9
$DIMALTD
 70
     2
  9
$DIMALTF
 40
25.4
  9
$DIMLFAC
 40
1.0
  9
$DIMTOFL
 70
     0
  9
$DIMTVP
 40
0.0
  9
$DIMTIX
 70
     0
  9
$DIMSOXD
 70
     0
  9
$DIMSAH
 70
     0
  9
$DIMBLK1
  1

  9
$DIMBLK2
  1

  9
$DIMSTYLE
  2
STANDARD
  9
$DIMCLRD
 70
     0
  9
$DIMCLRE
 70
     0
  9
$DIMCLRT
 70
     0
  9
$DIMTFAC
 40
1.0
  9
$DIMGAP
 40
0.09
  9
$DIMJUST
 70
     0
  9
$DIMSD1
 70
     0
  9
$DIMSD2
 70
     0
  9
$DIMTOLJ
 70
     1
  9
$DIMTZIN
 70
     0
  9
$DIMALTZ
 70
     0
  9
$DIMALTTZ
 70
     0
  9
$DIMUPT
 70
     0
  9
$DIMDEC
 70
     5
  9
$DIMTDEC
 70
     5
  9
$DIMALTU
 70
     2
  9
$DIMALTTD
 70
     2
  9
$DIMTXSTY
  7
STANDARD
  9
$DIMAUNIT
 70
     0
  9
$DIMADEC
 70
     0
  9
$DIMALTRND
 40
0.0
  9
$DIMAZIN
 70
     0
  9
$DIMDSEP
 70
    46
  9
$DIMATFIT
 70
     3
  9
$DIMFRAC
 70
     2
  9
$DIMLDRBLK
  1

  9
$DIMLUNIT
 70
     5
  9
$DIMLWD
 70
    -2
  9
$DIMLWE
 70
    -2
  9
$DIMTMOVE
 70
     2
  9
$LUNITS
 70
     2
  9
$LUPREC
 70
     3
  9
$SKETCHINC
 40
0.1
  9
$FILLETRAD
 40
0.05
  9
$AUNITS
 70
     0
  9
$AUPREC
 70
     0
  9
$MENU
  1
ACAD
  9
$ELEVATION
 40
0.0
  9
$PELEVATION
 40
0.0
  9
$THICKNESS
 40
0.0
  9
$LIMCHECK
 70
     0
  9
$CHAMFERA
 40
0.0
  9
$CHAMFERB
 40
0.0
  9
$CHAMFERC
 40
0.0
  9
$CHAMFERD
 40
0.0
  9
$SKPOLY
 70
     0
  9
$TDCREATE
 40
2449021.767420139
  9
$TDUCREATE
 40
2449022.100753472
  9
$TDUPDATE
 40
2454162.831236192
  9
$TDUUPDATE
 40
2454163.164569526
  9
$TDINDWG
 40
0.1885408912
  9
$TDUSRTIMER
 40
0.1885408912
  9
$USRTIMER
 70
     1
  9
$ANGBASE
 50
0.0
  9
$ANGDIR
 70
     0
  9
$PDMODE
 70
     0
  9
$PDSIZE
 40
0.0
  9
$PLINEWID
 40
0.0
  9
$SPLFRAME
 70
     0
  9
$SPLINETYPE
 70
     6
  9
$SPLINESEGS
 70
     8
  9
$HANDSEED
  5
2EA
  9
$SURFTAB1
 70
     6
  9
$SURFTAB2
 70
     6
  9
$SURFTYPE
 70
     6
  9
$SURFU
 70
     6
  9
$SURFV
 70
     6
  9
$UCSBASE
  2

  9
$UCSNAME
  2

  9
$UCSORG
 10
0.0
 20
0.0
 30
0.0
  9
$UCSXDIR
 10
1.0
 20
0.0
 30
0.0
  9
$UCSYDIR
 10
0.0
 20
1.0
 30
0.0
  9
$UCSORTHOREF
  2

  9
$UCSORTHOVIEW
 70
     0
  9
$UCSORGTOP
 10
0.0
 20
0.0
 30
0.0
  9
$UCSORGBOTTOM
 10
0.0
 20
0.0
 30
0.0
  9
$UCSORGLEFT
 10
0.0
 20
0.0
 30
0.0
  9
$UCSORGRIGHT
 10
0.0
 20
0.0
 30
0.0
  9
$UCSORGFRONT
 10
0.0
 20
0.0
 30
0.0
  9
$UCSORGBACK
 10
0.0
 20
0.0
 30
0.0
  9
$PUCSBASE
  2

  9
$PUCSNAME
  2

  9
$PUCSORG
 10
0.0
 20
0.0
 30
0.0
  9
$PUCSXDIR
 10
1.0
 20
0.0
 30
0.0
  9
$PUCSYDIR
 10
0.0
 20
1.0
 30
0.0
  9
$PUCSORTHOREF
  2

  9
$PUCSORTHOVIEW
 70
     0
  9
$PUCSORGTOP
 10
0.0
 20
0.0
 30
0.0
  9
$PUCSORGBOTTOM
 10
0.0
 20
0.0
 30
0.0
  9
$PUCSORGLEFT
 10
0.0
 20
0.0
 30
0.0
  9
$PUCSORGRIGHT
 10
0.0
 20
0.0
 30
0.0
  9
$PUCSORGFRONT
 10
0.0
 20
0.0
 30
0.0
  9
$PUCSORGBACK
 10
0.0
 20
0.0
 30
0.0
  9
$USERI1
 70
     0
  9
$USERI2
 70
     0
  9
$USERI3
 70
     0
  9
$USERI4
 70
     0
  9
$USERI5
 70
     0
  9
$USERR1
 40
0.0
  9
$USERR2
 40
0.0
  9
$USERR3
 40
0.0
  9
$USERR4
 40
0.0
  9
$USERR5
 40
0.0
  9
$WORLDVIEW
 70
     1
  9
$SHADEDGE
 70
     3
  9
$SHADEDIF
 70
    70
  9
$TILEMODE
 70
     1
  9
$MAXACTVP
 70
    16
  9
$PINSBASE
 10
0.0
 20
0.0
 30
0.0
  9
$PLIMCHECK
 70
     0
  9
$PEXTMIN
 10
1.000000000000000E+20
 20
1.000000000000000E+20
 30
1.000000000000000E+20
  9
$PEXTMAX
 10
-1.000000000000000E+20
 20
-1.000000000000000E+20
 30
-1.000000000000000E+20
  9
$PLIMMIN
 10
0.0
 20
0.0
  9
$PLIMMAX
 10
12.0
 20
9.0
  9
$UNITMODE
 70
     0
  9
$VISRETAIN
 70
     0
  9
$PLINEGEN
 70
     1
  9
$PSLTSCALE
 70
     0
  9
$TREEDEPTH
 70
  3020
  9
$CMLSTYLE
  2
STANDARD
  9
$CMLJUST
 70
     0
  9
$CMLSCALE
 40
1.0
  9
$PROXYGRAPHICS
 70
     1
  9
$MEASUREMENT
 70
     0
  9
$CELWEIGHT
370
    -1
  9
$ENDCAPS
280
     0
  9
$JOINSTYLE
280
     0
  9
$LWDISPLAY
290
     0
  9
$INSUNITS
 70
     0
  9
$HYPERLINKBASE
  1

  9
$STYLESHEET
  1

  9
$XEDIT
290
     1
  9
$CEPSNTYPE
380
     0
  9
$PSTYLEMODE
290
     1
  9
$FINGERPRINTGUID
  2
{7F5DA417-9279-4C18-924D-BD44579AE668}
  9
$VERSIONGUID
  2
{6AA11B66-357A-49F3-A40A-97FE7D30CE53}
  9
$EXTNAMES
290
     1
  9
$PSVPSCALE
 40
0.0
  9
$OLESTARTUP
290
     0
  0
ENDSEC
  0
SECTION
  2
CLASSES
  0
CLASS
  1
DICTIONARYVAR
  2
AcDbDictionaryVar
  3
AutoCAD 2000
 90
        0
280
     0
281
     0
  0
CLASS
  1
LWPOLYLINE
  2
AcDbPolyline
  3
AutoCAD 2000
 90
        0
280
     0
281
     1
  0
CLASS
  1
ACDBDICTIONARYWDFLT
  2
AcDbDictionaryWithDefault
  3
AutoCAD 2000
 90
        0
280
     0
281
     0
  0
CLASS
  1
ACDBPLACEHOLDER
  2
AcDbPlaceHolder
  3
ObjectDBX Classes
 90
        0
280
     0
281
     0
  0
CLASS
  1
LAYOUT
  2
AcDbLayout
  3
ObjectDBX Classes
 90
        0
280
     0
281
     0
  0
CLASS
  1
TABLESTYLE
  2
AcDbTableStyle
  3
ObjectDBX Classes
 90
     2047
280
     1
281
     0
  0
CLASS
  1
SORTENTSTABLE
  2
AcDbSortentsTable
  3
AutoCAD 2000
 90
        0
280
     0
281
     0
  0
ENDSEC
  0
SECTION
  2
TABLES
  0
TABLE
  2
VPORT
  5
19
330
0
100
AcDbSymbolTable
 70
     2
  0
VPORT
  5
2DA
330
19
100
AcDbSymbolTableRecord
100
AcDbViewportTableRecord
  2
*Active
 70
     0
 10
0.0
 20
0.0
 11
1.0
 21
1.0
 12
9.686687527678327
 22
7.803581348291398
 13
0.0
 23
0.0
 14
0.0625
 24
0.0625
 15
0.25
 25
0.25
 16
0.0
 26
0.0
 36
1.0
 17
0.0
 27
0.0
 37
0.0
 40
15.811977109893
 41
1.814583333333333
 42
50.0
 43
0.0
 44
0.0
 50
0.0
 51
0.0
 71
     0
 72
   100
 73
     1
 74
     1
 75
     0
 76
     0
 77
     0
 78
     0
281
     0
 65
     1
110
0.0
120
0.0
130
0.0
111
1.0
121
0.0
131
0.0
112
0.0
122
1.0
132
0.0
 79
     0
146
0.0
  0
ENDTAB
  0
TABLE
  2
LTYPE
  5
14
330
0
100
AcDbSymbolTable
 70
     2
  0
LTYPE
  5
15
330
14
100
AcDbSymbolTableRecord
100
AcDbLinetypeTableRecord
  2
BYBLOCK
 70
     0
  3

 72
    65
 73
     0
 40
0.0
  0
LTYPE
  5
16
330
14
100
AcDbSymbolTableRecord
100
AcDbLinetypeTableRecord
  2
BYLAYER
 70
     0
  3

 72
    65
 73
     0
 40
0.0
  0
LTYPE
  5
8
330
14
100
AcDbSymbolTableRecord
100
AcDbLinetypeTableRecord
  2
CONTINUOUS
 70
     0
  3
Solid line
 72
    65
 73
     0
 40
0.0
  0
LTYPE
  5
2D8
330
14
100
AcDbSymbolTableRecord
100
AcDbLinetypeTableRecord
  2
HIDDEN
 70
     0
  3
Hidden __ __ __ __ __ __ __ __ __ __ __ __ __ _
 72
    65
 73
     2
 40
0.375
 49
0.25
 74
     0
 49
-0.125
 74
     0
  0
ENDTAB
  0
TABLE
  2
LAYER
  5
10
330
0
100
AcDbSymbolTable
 70
     1
  0
LAYER
  5
4
330
10
100
AcDbSymbolTableRecord
100
AcDbLayerTableRecord
  2
0
 70
     0
 62
     7
  6
CONTINUOUS
370
    -3
390
5
  0
ENDTAB
  0
TABLE
  2
STYLE
  5
11
330
0
100
AcDbSymbolTable
 70
     2
  0
STYLE
  5
12
330
11
100
AcDbSymbolTableRecord
100
AcDbTextStyleTableRecord
  2
STANDARD
 70
     0
 40
0.0
 41
1.0
 50
0.0
 71
     0
 42
0.18
  3
TXT
  4

  0
STYLE
  5
2D7
330
11
100
AcDbSymbolTableRecord
100
AcDbTextStyleTableRecord
  2

 70
     1
 40
0.0
 41
1.0
 50
0.0
 71
     0
 42
0.18
  3
ltypeshp.shx
  4

  0
ENDTAB
  0
TABLE
  2
VIEW
  5
17
330
0
100
AcDbSymbolTable
 70
     0
  0
ENDTAB
  0
TABLE
  2
UCS
  5
18
330
0
100
AcDbSymbolTable
 70
     0
  0
ENDTAB
  0
TABLE
  2
APPID
  5
1B
330
0
100
AcDbSymbolTable
 70
     1
  0
APPID
  5
1C
330
1B
100
AcDbSymbolTableRecord
100
AcDbRegAppTableRecord
  2
ACAD
 70
     0
  0
ENDTAB
  0
TABLE
  2
DIMSTYLE
  5
1D
330
0
100
AcDbSymbolTable
 70
     1
100
AcDbDimStyleTable
  0
DIMSTYLE
105
1E
330
1D
100
AcDbSymbolTableRecord
100
AcDbDimStyleTableRecord
  2
STANDARD
 70
     0
  3

  4

340
12
  0
ENDTAB
  0
TABLE
  2
BLOCK_RECORD
  5
1
330
0
100
AcDbSymbolTable
 70
     0
  0
BLOCK_RECORD
  5
2
102
{ACAD_XDICTIONARY
360
2D4
102
}
330
1
100
AcDbSymbolTableRecord
100
AcDbBlockTableRecord
  2
*MODEL_SPACE
340
A
  0
BLOCK_RECORD
  5
C
330
1
100
AcDbSymbolTableRecord
100
AcDbBlockTableRecord
  2
*PAPER_SPACE
340
F
  0
ENDTAB
  0
ENDSEC
  0
SECTION
  2
BLOCKS
  0
BLOCK
  5
3
330
2
100
AcDbEntity
  8
0
100
AcDbBlockBegin
  2
*MODEL_SPACE
 70
     0
 10
0.0
 20
0.0
 30
0.0
  3
*MODEL_SPACE
  1

  4

  0
ENDBLK
  5
9
330
2
100
AcDbEntity
  8
0
100
AcDbBlockEnd
  0
BLOCK
  5
D
330
C
100
AcDbEntity
 67
     1
  8
0
100
AcDbBlockBegin
  2
*PAPER_SPACE
 70
     0
 10
0.0
 20
0.0
 30
0.0
  3
*PAPER_SPACE
  1

  4

  0
ENDBLK
  5
E
330
C
100
AcDbEntity
 67
     1
  8
0
100
AcDbBlockEnd
  0
ENDSEC
  0
SECTION
  2
ENTITIES
  0
LINE
  5
25
330
2
100
AcDbEntity
  8
0
100
AcDbLine
 10
8.494278236667615
 20
5.99603365952318
 30
0.0
 11
5.100978236667618
 21
5.99603365952318
 31
0.0
  0
LINE
  5
26
330
2
100
AcDbEntity
  8
0
100
AcDbLine
 10
8.474278236667619
 20
6.12103365952318
 30
0.0
 11
5.120978236667614
 21
6.12103365952318
 31
0.0
  0
LINE
  5
27
330
2
100
AcDbEntity
  8
0
100
AcDbLine
 10
0.2598027005364525
 20
4.555548662464704
 30
0.0
 11
0.2598027005364525
 21
4.073548662464704
 31
0.0
  0
LINE
  5
29
330
2
100
AcDbEntity
  8
0
100
AcDbLine
 10
0.5196103216717862
 20
4.555548662464704
 30
0.0
 11
0.5196103216717862
 21
4.073548662464704
 31
0.0
  0
LINE
  5
2A
330
2
100
AcDbEntity
  8
0
100
AcDbLine
 10
-0.2598125417342114
 20
4.555548662464704
 30
0.0
 11
-0.2598125417342114
 21
4.073548662464704
 31
0.0
  0
LINE
  5
2B
330
2
100
AcDbEntity
  8
0
100
AcDbLine
 10
-0.5196201628695398
 20
4.555548662464704
 30
0.0
 11
-0.5196201628695398
 21
4.073548662464704
 31
0.0
  0
LINE
  5
2C
330
2
100
AcDbEntity
  8
0
100
AcDbLine
 10
7.306903112135178
 20
4.551582321987883
 30
0.0
 11
7.306903112135178
 21
4.069582321987884
 31
0.0
  0
LINE
  5
2D
330
2
100
AcDbEntity
  8
0
100
AcDbLine
 10
7.047095490999844
 20
4.551582321987883
 30
0.0
 11
7.047095490999844
 21
4.069582321987884
 31
0.0
  0
LINE
  5
2E
330
2
100
AcDbEntity
  8
0
100
AcDbLine
 10
6.52748024872918
 20
4.551582321987883
 30
0.0
 11
6.52748024872918
 21
4.069582321987884
 31
0.0
  0
LINE
  5
2F
330
2
100
AcDbEntity
  8
0
100
AcDbLine
 10
6.267672627593852
 20
4.551582321987883
 30
0.0
 11
6.267672627593852
 21
4.069582321987884
 31
0.0
  0
LINE
  5
30
330
2
100
AcDbEntity
  8
0
100
AcDbLine
 10
0.3906200794011188
 20
1.704545454545455
 30
0.0
 11
0.2922081016983444
 21
1.761363636363635
 31
0.0
  0
LINE
  5
31
330
2
100
AcDbEntity
  8
0
100
AcDbLine
 10
-0.2922179428961034
 20
1.704551136363639
 30
0.0
 11
-0.3906299205988795
 21
1.761369318181819
 31
0.0
  0
LINE
  5
32
330
2
100
AcDbEntity
  8
0
100
AcDbLine
 10
-0.2922179428961034
 20
1.704551136363639
 30
0.0
 11
0.2922081016983444
 21
1.761363636363635
 31
0.0
  0
LINE
  5
33
330
2
100
AcDbEntity
  8
0
100
AcDbLine
 10
0.3906200794011152
 20
0.5681818181818201
 30
0.0
 11
-0.3906299205988848
 21
0.5113693181818189
 31
0.0
  0
LINE
  5
34
330
2
100
AcDbEntity
  8
0
100
AcDbLine
 10
-0.3906299205988848
 20
0.5113693181818189
 30
0.0
 11
-0.2922179428961087
 21
0.5681875000000005
 31
0.0
  0
LINE
  5
35
330
2
100
AcDbEntity
  8
0
100
AcDbLine
 10
0.2922081016983391
 20
0.5113636363636385
 30
0.0
 11
0.3906200794011152
 21
0.5681818181818183
 31
0.0
  0
LINE
  5
36
330
2
100
AcDbEntity
  8
0
100
AcDbLine
 10
-0.2922179428961087
 20
0.0000056818181804
 30
0.0
 11
0.2922081016983391
 21
0.0568181818181817
 31
0.0
  0
LINE
  5
37
330
2
100
AcDbEntity
  8
0
100
AcDbLine
 10
-0.2922081016983391
 20
0.0
 30
0.0
 11
0.2922081016983391
 21
0.0
 31
0.0
  0
LINE
  5
38
330
2
100
AcDbEntity
  8
0
100
AcDbLine
 10
-0.2922179428961087
 20
0.227278409090907
 30
0.0
 11
0.2922081016983391
 21
0.2840909090909083
 31
0.0
  0
LINE
  5
39
330
2
100
AcDbEntity
  8
0
100
AcDbLine
 10
-0.2922179428961087
 20
0.1136420454545455
 30
0.0
 11
0.2922081016983391
 21
0.1704545454545432
 31
0.0
  0
LINE
  5
3A
330
2
100
AcDbEntity
  8
0
100
AcDbLine
 10
-0.2922179428961087
 20
0.4545511363636354
 30
0.0
 11
0.2922081016983391
 21
0.5113636363636385
 31
0.0
  0
LINE
  5
3B
330
2
100
AcDbEntity
  8
0
100
AcDbLine
 10
-0.2922179428961087
 20
0.3409147727272757
 30
0.0
 11
0.2922081016983391
 21
0.3977272727272716
 31
0.0
  0
LINE
  5
3C
330
2
100
AcDbEntity
  8
0
100
AcDbLine
 10
0.3906200794011152
 20
0.454545454545455
 30
0.0
 11
-0.3906299205988848
 21
0.3977329545454555
 31
0.0
  0
LINE
  5
3D
330
2
100
AcDbEntity
  8
0
100
AcDbLine
 10
0.3906200794011152
 20
0.3409090909090917
 30
0.0
 11
-0.3906299205988848
 21
0.2840965909090922
 31
0.0
  0
LINE
  5
3E
330
2
100
AcDbEntity
  8
0
100
AcDbLine
 10
0.3906200794011152
 20
0.2272727272727266
 30
0.0
 11
-0.3906299205988848
 21
0.1704602272727254
 31
0.0
  0
LINE
  5
3F
330
2
100
AcDbEntity
  8
0
100
AcDbLine
 10
0.3906200794011152
 20
0.1136363636363615
 30
0.0
 11
-0.3642578737068813
 21
0.0720497720085422
 31
0.0
  0
LINE
  5
40
330
2
100
AcDbEntity
  8
0
100
AcDbLine
 10
-0.3906299205988848
 20
0.1704602272727254
 30
0.0
 11
-0.2922179428961087
 21
0.227278409090907
 31
0.0
  0
LINE
  5
41
330
2
100
AcDbEntity
  8
0
100
AcDbLine
 10
-0.2922179428961087
 20
0.1136420454545455
 30
0.0
 11
-0.3906299205988848
 21
0.1704602272727254
 31
0.0
  0
LINE
  5
42
330
2
100
AcDbEntity
  8
0
100
AcDbLine
 10
-0.3642578737068813
 20
0.0720497720085422
 30
0.0
 11
-0.2922081016983391
 21
0.0
 31
0.0
  0
LINE
  5
43
330
2
100
AcDbEntity
  8
0
100
AcDbLine
 10
-0.3642578737068813
 20
0.0720497720085422
 30
0.0
 11
-0.2922179428961087
 21
0.1136420454545455
 31
0.0
  0
LINE
  5
44
330
2
100
AcDbEntity
  8
0
100
AcDbLine
 10
-0.2922179428961087
 20
0.4545511363636354
 30
0.0
 11
-0.3906299205988848
 21
0.5113693181818189
 31
0.0
  0
LINE
  5
45
330
2
100
AcDbEntity
  8
0
100
AcDbLine
 10
-0.2922179428961087
 20
0.3409147727272757
 30
0.0
 11
-0.3906299205988848
 21
0.3977329545454555
 31
0.0
  0
LINE
  5
46
330
2
100
AcDbEntity
  8
0
100
AcDbLine
 10
-0.3906299205988848
 20
0.2840965909090922
 30
0.0
 11
-0.2922179428961087
 21
0.3409147727272757
 31
0.0
  0
LINE
  5
47
330
2
100
AcDbEntity
  8
0
100
AcDbLine
 10
-0.3906299205988848
 20
0.3977329545454555
 30
0.0
 11
-0.2922179428961087
 21
0.4545511363636354
 31
0.0
  0
LINE
  5
48
330
2
100
AcDbEntity
  8
0
100
AcDbLine
 10
-0.2922179428961087
 20
0.2272784090909088
 30
0.0
 11
-0.3906299205988848
 21
0.2840965909090922
 31
0.0
  0
LINE
  5
49
330
2
100
AcDbEntity
  8
0
100
AcDbLine
 10
0.2922081016983391
 20
0.1704545454545432
 30
0.0
 11
0.3906200794011152
 21
0.2272727272727249
 31
0.0
  0
LINE
  5
4A
330
2
100
AcDbEntity
  8
0
100
AcDbLine
 10
0.3906200794011134
 20
0.1136363636363615
 30
0.0
 11
0.2922081016983391
 21
0.1704545454545432
 31
0.0
  0
LINE
  5
4B
330
2
100
AcDbEntity
  8
0
100
AcDbLine
 10
0.3282293855742235
 20
0.0360212838758809
 30
0.0
 11
0.2922081016983391
 21
0.0568181818181817
 31
0.0
  0
LINE
  5
4C
330
2
100
AcDbEntity
  8
0
100
AcDbLine
 10
0.2922081016983391
 20
-0.0000000000000018
 30
0.0
 11
0.3282293855742235
 21
0.0360212838758809
 31
0.0
  0
LINE
  5
4D
330
2
100
AcDbEntity
  8
0
100
AcDbLine
 10
0.2922081016983391
 20
0.0568181818181817
 30
0.0
 11
0.3906200794011152
 21
0.1136363636363615
 31
0.0
  0
LINE
  5
4E
330
2
100
AcDbEntity
  8
0
100
AcDbLine
 10
0.3906200794011134
 20
0.454545454545455
 30
0.0
 11
0.2922081016983391
 21
0.5113636363636385
 31
0.0
  0
LINE
  5
4F
330
2
100
AcDbEntity
  8
0
100
AcDbLine
 10
0.3906200794011134
 20
0.3409090909090917
 30
0.0
 11
0.2922081016983391
 21
0.3977272727272716
 31
0.0
  0
LINE
  5
50
330
2
100
AcDbEntity
  8
0
100
AcDbLine
 10
0.2922081016983391
 20
0.2840909090909083
 30
0.0
 11
0.3906200794011152
 21
0.3409090909090882
 31
0.0
  0
LINE
  5
51
330
2
100
AcDbEntity
  8
0
100
AcDbLine
 10
0.3906200794011134
 20
0.2272727272727266
 30
0.0
 11
0.2922081016983391
 21
0.2840909090909083
 31
0.0
  0
LINE
  5
52
330
2
100
AcDbEntity
  8
0
100
AcDbLine
 10
0.2922081016983391
 20
0.3977272727272716
 30
0.0
 11
0.3906200794011152
 21
0.454545454545455
 31
0.0
  0
LINE
  5
53
330
2
100
AcDbEntity
  8
0
100
AcDbLine
 10
-0.2922179428961034
 20
1.363642045454547
 30
0.0
 11
0.2922081016983444
 21
1.420454545454545
 31
0.0
  0
LINE
  5
54
330
2
100
AcDbEntity
  8
0
100
AcDbLine
 10
-0.2922179428961034
 20
1.250005681818182
 30
0.0
 11
0.2922081016983444
 21
1.306818181818182
 31
0.0
  0
LINE
  5
55
330
2
100
AcDbEntity
  8
0
100
AcDbLine
 10
-0.2922179428961034
 20
1.590914772727274
 30
0.0
 11
0.2922081016983444
 21
1.647727272727272
 31
0.0
  0
LINE
  5
56
330
2
100
AcDbEntity
  8
0
100
AcDbLine
 10
-0.2922179428961034
 20
1.477278409090911
 30
0.0
 11
0.2922081016983444
 21
1.534090909090908
 31
0.0
  0
LINE
  5
57
330
2
100
AcDbEntity
  8
0
100
AcDbLine
 10
-0.2922179428961087
 20
0.6818238636363656
 30
0.0
 11
0.2922081016983391
 21
0.7386363636363633
 31
0.0
  0
LINE
  5
58
330
2
100
AcDbEntity
  8
0
100
AcDbLine
 10
-0.2922179428961087
 20
0.5681875000000005
 30
0.0
 11
0.2922081016983391
 21
0.6250000000000018
 31
0.0
  0
LINE
  5
59
330
2
100
AcDbEntity
  8
0
100
AcDbLine
 10
-0.2922179428961034
 20
0.9090965909090922
 30
0.0
 11
0.2922081016983444
 21
0.9659090909090917
 31
0.0
  0
LINE
  5
5A
330
2
100
AcDbEntity
  8
0
100
AcDbLine
 10
-0.2922179428961034
 20
0.7954602272727289
 30
0.0
 11
0.2922081016983444
 21
0.8522727272727284
 31
0.0
  0
LINE
  5
5B
330
2
100
AcDbEntity
  8
0
100
AcDbLine
 10
-0.2922179428961034
 20
1.022732954545456
 30
0.0
 11
0.2922081016983444
 21
1.079545454545455
 31
0.0
  0
LINE
  5
5C
330
2
100
AcDbEntity
  8
0
100
AcDbLine
 10
-0.2922179428961034
 20
1.136369318181819
 30
0.0
 11
0.2922081016983444
 21
1.193181818181818
 31
0.0
  0
LINE
  5
5D
330
2
100
AcDbEntity
  8
0
100
AcDbLine
 10
0.3906200794011152
 20
0.7954545454545468
 30
0.0
 11
-0.3906299205988848
 21
0.7386420454545455
 31
0.0
  0
LINE
  5
5E
330
2
100
AcDbEntity
  8
0
100
AcDbLine
 10
0.3906200794011152
 20
0.6818181818181817
 30
0.0
 11
-0.3906299205988848
 21
0.6250056818181822
 31
0.0
  0
LINE
  5
5F
330
2
100
AcDbEntity
  8
0
100
AcDbLine
 10
0.3906200794011205
 20
1.704545454545455
 30
0.0
 11
-0.3906299205988795
 21
1.647732954545456
 31
0.0
  0
LINE
  5
60
330
2
100
AcDbEntity
  8
0
100
AcDbLine
 10
0.3906200794011205
 20
1.590909090909092
 30
0.0
 11
-0.3906299205988795
 21
1.534096590909091
 31
0.0
  0
LINE
  5
61
330
2
100
AcDbEntity
  8
0
100
AcDbLine
 10
0.3906200794011205
 20
1.477272727272728
 30
0.0
 11
-0.3906299205988795
 21
1.420460227272727
 31
0.0
  0
LINE
  5
62
330
2
100
AcDbEntity
  8
0
100
AcDbLine
 10
0.3906200794011205
 20
1.363636363636365
 30
0.0
 11
-0.3906299205988795
 21
1.306823863636364
 31
0.0
  0
LINE
  5
63
330
2
100
AcDbEntity
  8
0
100
AcDbLine
 10
0.3906200794011205
 20
1.25
 30
0.0
 11
-0.3906299205988795
 21
1.193187499999999
 31
0.0
  0
LINE
  5
64
330
2
100
AcDbEntity
  8
0
100
AcDbLine
 10
0.3906200794011205
 20
1.136363636363639
 30
0.0
 11
-0.3906299205988795
 21
1.079551136363635
 31
0.0
  0
LINE
  5
65
330
2
100
AcDbEntity
  8
0
100
AcDbLine
 10
0.3906200794011205
 20
1.022727272727275
 30
0.0
 11
-0.3906299205988795
 21
0.9659147727272721
 31
0.0
  0
LINE
  5
66
330
2
100
AcDbEntity
  8
0
100
AcDbLine
 10
0.3906200794011205
 20
0.9090909090909101
 30
0.0
 11
-0.3906299205988795
 21
0.8522784090909088
 31
0.0
  0
LINE
  5
67
330
2
100
AcDbEntity
  8
0
100
AcDbLine
 10
-0.2922179428961034
 20
1.136369318181819
 30
0.0
 11
-0.3906299205988795
 21
1.193187500000002
 31
0.0
  0
LINE
  5
68
330
2
100
AcDbEntity
  8
0
100
AcDbLine
 10
-0.2922179428961034
 20
0.7954602272727289
 30
0.0
 11
-0.3906299205988795
 21
0.8522784090909106
 31
0.0
  0
LINE
  5
69
330
2
100
AcDbEntity
  8
0
100
AcDbLine
 10
-0.3906299205988848
 20
0.7386420454545455
 30
0.0
 11
-0.2922179428961087
 21
0.7954602272727271
 31
0.0
  0
LINE
  5
6A
330
2
100
AcDbEntity
  8
0
100
AcDbLine
 10
-0.3906299205988848
 20
0.6250056818181839
 30
0.0
 11
-0.2922179428961087
 21
0.6818238636363656
 31
0.0
  0
LINE
  5
6B
330
2
100
AcDbEntity
  8
0
100
AcDbLine
 10
-0.2922179428961087
 20
0.5681875000000005
 30
0.0
 11
-0.3906299205988848
 21
0.6250056818181822
 31
0.0
  0
LINE
  5
6C
330
2
100
AcDbEntity
  8
0
100
AcDbLine
 10
-0.2922179428961087
 20
0.6818238636363656
 30
0.0
 11
-0.3906299205988848
 21
0.7386420454545455
 31
0.0
  0
LINE
  5
6D
330
2
100
AcDbEntity
  8
0
100
AcDbLine
 10
-0.2922179428961034
 20
1.022732954545456
 30
0.0
 11
-0.3906299205988795
 21
1.079551136363639
 31
0.0
  0
LINE
  5
6E
330
2
100
AcDbEntity
  8
0
100
AcDbLine
 10
-0.3906299205988795
 20
1.079551136363639
 30
0.0
 11
-0.2922179428961034
 21
1.136369318181819
 31
0.0
  0
LINE
  5
6F
330
2
100
AcDbEntity
  8
0
100
AcDbLine
 10
-0.2922179428961034
 20
0.9090965909090922
 30
0.0
 11
-0.3906299205988795
 21
0.9659147727272739
 31
0.0
  0
LINE
  5
70
330
2
100
AcDbEntity
  8
0
100
AcDbLine
 10
-0.3906299205988795
 20
0.8522784090909124
 30
0.0
 11
-0.2922179428961034
 21
0.9090965909090922
 31
0.0
  0
LINE
  5
71
330
2
100
AcDbEntity
  8
0
100
AcDbLine
 10
-0.3906299205988795
 20
0.9659147727272757
 30
0.0
 11
-0.2922179428961034
 21
1.022732954545456
 31
0.0
  0
LINE
  5
72
330
2
100
AcDbEntity
  8
0
100
AcDbLine
 10
-0.3906299205988795
 20
1.420460227272729
 30
0.0
 11
-0.2922179428961034
 21
1.477278409090911
 31
0.0
  0
LINE
  5
73
330
2
100
AcDbEntity
  8
0
100
AcDbLine
 10
-0.2922179428961034
 20
1.363642045454547
 30
0.0
 11
-0.3906299205988795
 21
1.420460227272729
 31
0.0
  0
LINE
  5
74
330
2
100
AcDbEntity
  8
0
100
AcDbLine
 10
-0.3906299205988795
 20
1.193187500000002
 30
0.0
 11
-0.2922179428961034
 21
1.250005681818182
 31
0.0
  0
LINE
  5
75
330
2
100
AcDbEntity
  8
0
100
AcDbLine
 10
-0.2922179428961034
 20
1.250005681818182
 30
0.0
 11
-0.3906299205988795
 21
1.306823863636364
 31
0.0
  0
LINE
  5
76
330
2
100
AcDbEntity
  8
0
100
AcDbLine
 10
-0.3906299205988795
 20
1.306823863636366
 30
0.0
 11
-0.2922179428961034
 21
1.363642045454547
 31
0.0
  0
LINE
  5
77
330
2
100
AcDbEntity
  8
0
100
AcDbLine
 10
-0.3906299205988795
 20
1.647732954545456
 30
0.0
 11
-0.2922179428961034
 21
1.704551136363639
 31
0.0
  0
LINE
  5
78
330
2
100
AcDbEntity
  8
0
100
AcDbLine
 10
-0.3906299205988795
 20
1.534096590909092
 30
0.0
 11
-0.2922179428961034
 21
1.590914772727274
 31
0.0
  0
LINE
  5
79
330
2
100
AcDbEntity
  8
0
100
AcDbLine
 10
-0.2922179428961034
 20
1.477278409090911
 30
0.0
 11
-0.3906299205988795
 21
1.534096590909092
 31
0.0
  0
LINE
  5
7A
330
2
100
AcDbEntity
  8
0
100
AcDbLine
 10
-0.2922179428961034
 20
1.590914772727274
 30
0.0
 11
-0.3906299205988795
 21
1.647732954545456
 31
0.0
  0
LINE
  5
7B
330
2
100
AcDbEntity
  8
0
100
AcDbLine
 10
0.3906200794011188
 20
1.136363636363639
 30
0.0
 11
0.2922081016983444
 21
1.193181818181818
 31
0.0
  0
LINE
  5
7C
330
2
100
AcDbEntity
  8
0
100
AcDbLine
 10
0.3906200794011188
 20
0.7954545454545468
 30
0.0
 11
0.2922081016983444
 21
0.8522727272727284
 31
0.0
  0
LINE
  5
7D
330
2
100
AcDbEntity
  8
0
100
AcDbLine
 10
0.2922081016983391
 20
0.7386363636363633
 30
0.0
 11
0.3906200794011152
 21
0.795454545454545
 31
0.0
  0
LINE
  5
7E
330
2
100
AcDbEntity
  8
0
100
AcDbLine
 10
0.2922081016983391
 20
0.6250000000000018
 30
0.0
 11
0.3906200794011152
 21
0.6818181818181817
 31
0.0
  0
LINE
  5
7F
330
2
100
AcDbEntity
  8
0
100
AcDbLine
 10
0.3906200794011134
 20
0.5681818181818201
 30
0.0
 11
0.2922081016983391
 21
0.6250000000000018
 31
0.0
  0
LINE
  5
80
330
2
100
AcDbEntity
  8
0
100
AcDbLine
 10
0.3906200794011134
 20
0.6818181818181817
 30
0.0
 11
0.2922081016983391
 21
0.7386363636363633
 31
0.0
  0
LINE
  5
81
330
2
100
AcDbEntity
  8
0
100
AcDbLine
 10
0.3906200794011188
 20
1.022727272727275
 30
0.0
 11
0.2922081016983444
 21
1.079545454545455
 31
0.0
  0
LINE
  5
82
330
2
100
AcDbEntity
  8
0
100
AcDbLine
 10
0.2922081016983444
 20
1.079545454545455
 30
0.0
 11
0.3906200794011205
 21
1.136363636363635
 31
0.0
  0
LINE
  5
83
330
2
100
AcDbEntity
  8
0
100
AcDbLine
 10
0.3906200794011188
 20
0.9090909090909101
 30
0.0
 11
0.2922081016983444
 21
0.9659090909090917
 31
0.0
  0
LINE
  5
84
330
2
100
AcDbEntity
  8
0
100
AcDbLine
 10
0.2922081016983444
 20
0.8522727272727284
 30
0.0
 11
0.3906200794011205
 21
0.9090909090909083
 31
0.0
  0
LINE
  5
85
330
2
100
AcDbEntity
  8
0
100
AcDbLine
 10
0.2922081016983444
 20
0.9659090909090917
 30
0.0
 11
0.3906200794011205
 21
1.022727272727272
 31
0.0
  0
LINE
  5
86
330
2
100
AcDbEntity
  8
0
100
AcDbLine
 10
0.2922081016983444
 20
1.420454545454545
 30
0.0
 11
0.3906200794011205
 21
1.477272727272727
 31
0.0
  0
LINE
  5
87
330
2
100
AcDbEntity
  8
0
100
AcDbLine
 10
0.3906200794011188
 20
1.363636363636365
 30
0.0
 11
0.2922081016983444
 21
1.420454545454545
 31
0.0
  0
LINE
  5
88
330
2
100
AcDbEntity
  8
0
100
AcDbLine
 10
0.3906200794011188
 20
1.25
 30
0.0
 11
0.2922081016983444
 21
1.306818181818182
 31
0.0
  0
LINE
  5
89
330
2
100
AcDbEntity
  8
0
100
AcDbLine
 10
0.2922081016983444
 20
1.193181818181818
 30
0.0
 11
0.3906200794011205
 21
1.25
 31
0.0
  0
LINE
  5
8A
330
2
100
AcDbEntity
  8
0
100
AcDbLine
 10
0.2922081016983444
 20
1.306818181818182
 30
0.0
 11
0.3906200794011205
 21
1.363636363636362
 31
0.0
  0
LINE
  5
8B
330
2
100
AcDbEntity
  8
0
100
AcDbLine
 10
0.2922081016983444
 20
1.647727272727272
 30
0.0
 11
0.3906200794011205
 21
1.704545454545455
 31
0.0
  0
LINE
  5
8C
330
2
100
AcDbEntity
  8
0
100
AcDbLine
 10
0.2922081016983444
 20
1.534090909090908
 30
0.0
 11
0.3906200794011205
 21
1.590909090909092
 31
0.0
  0
LINE
  5
8D
330
2
100
AcDbEntity
  8
0
100
AcDbLine
 10
0.3906200794011188
 20
1.477272727272728
 30
0.0
 11
0.2922081016983444
 21
1.534090909090908
 31
0.0
  0
LINE
  5
8E
330
2
100
AcDbEntity
  8
0
100
AcDbLine
 10
0.3906200794011188
 20
1.590909090909092
 30
0.0
 11
0.2922081016983444
 21
1.647727272727272
 31
0.0
  0
LINE
  5
8F
330
2
100
AcDbEntity
  8
0
100
AcDbLine
 10
-0.2922179428961034
 20
2.954551136363635
 30
0.0
 11
0.2922081016983444
 21
3.011363636363635
 31
0.0
  0
LINE
  5
90
330
2
100
AcDbEntity
  8
0
100
AcDbLine
 10
-0.2922179428961034
 20
2.954551136363635
 30
0.0
 11
-0.3906299205988795
 21
3.011369318181819
 31
0.0
  0
LINE
  5
91
330
2
100
AcDbEntity
  8
0
100
AcDbLine
 10
0.3906200794011188
 20
2.954545454545455
 30
0.0
 11
0.2922081016983444
 21
3.011363636363635
 31
0.0
  0
LINE
  5
92
330
2
100
AcDbEntity
  8
0
100
AcDbLine
 10
-0.2922179428961034
 20
2.386369318181819
 30
0.0
 11
0.2922081016983444
 21
2.443181818181818
 31
0.0
  0
LINE
  5
93
330
2
100
AcDbEntity
  8
0
100
AcDbLine
 10
-0.2922179428961034
 20
2.840914772727272
 30
0.0
 11
0.2922081016983444
 21
2.897727272727272
 31
0.0
  0
LINE
  5
94
330
2
100
AcDbEntity
  8
0
100
AcDbLine
 10
-0.2922179428961034
 20
2.727278409090909
 30
0.0
 11
0.2922081016983444
 21
2.784090909090908
 31
0.0
  0
LINE
  5
95
330
2
100
AcDbEntity
  8
0
100
AcDbLine
 10
-0.2922179428961034
 20
2.613642045454546
 30
0.0
 11
0.2922081016983444
 21
2.670454545454545
 31
0.0
  0
LINE
  5
96
330
2
100
AcDbEntity
  8
0
100
AcDbLine
 10
-0.2922179428961034
 20
2.500005681818182
 30
0.0
 11
0.2922081016983444
 21
2.556818181818178
 31
0.0
  0
LINE
  5
97
330
2
100
AcDbEntity
  8
0
100
AcDbLine
 10
-0.2922179428961034
 20
1.931823863636366
 30
0.0
 11
0.2922081016983444
 21
1.988636363636362
 31
0.0
  0
LINE
  5
98
330
2
100
AcDbEntity
  8
0
100
AcDbLine
 10
-0.2922179428961034
 20
1.818187500000002
 30
0.0
 11
0.2922081016983444
 21
1.874999999999998
 31
0.0
  0
LINE
  5
99
330
2
100
AcDbEntity
  8
0
100
AcDbLine
 10
-0.2922179428961034
 20
2.272732954545456
 30
0.0
 11
0.2922081016983444
 21
2.329545454545455
 31
0.0
  0
LINE
  5
9A
330
2
100
AcDbEntity
  8
0
100
AcDbLine
 10
-0.2922179428961034
 20
2.159096590909092
 30
0.0
 11
0.2922081016983444
 21
2.215909090909092
 31
0.0
  0
LINE
  5
9B
330
2
100
AcDbEntity
  8
0
100
AcDbLine
 10
-0.2922179428961034
 20
2.045460227272729
 30
0.0
 11
0.2922081016983444
 21
2.102272727272725
 31
0.0
  0
LINE
  5
9C
330
2
100
AcDbEntity
  8
0
100
AcDbLine
 10
0.3906200794011205
 20
2.954545454545455
 30
0.0
 11
-0.3906299205988795
 21
2.897732954545452
 31
0.0
  0
LINE
  5
9D
330
2
100
AcDbEntity
  8
0
100
AcDbLine
 10
0.3906200794011205
 20
2.840909090909092
 30
0.0
 11
-0.3906299205988795
 21
2.784096590909089
 31
0.0
  0
LINE
  5
9E
330
2
100
AcDbEntity
  8
0
100
AcDbLine
 10
0.3906200794011205
 20
2.727272727272725
 30
0.0
 11
-0.3906299205988795
 21
2.670460227272725
 31
0.0
  0
LINE
  5
9F
330
2
100
AcDbEntity
  8
0
100
AcDbLine
 10
0.3906200794011205
 20
2.613636363636362
 30
0.0
 11
-0.3906299205988795
 21
2.556823863636362
 31
0.0
  0
LINE
  5
A0
330
2
100
AcDbEntity
  8
0
100
AcDbLine
 10
0.3906200794011205
 20
2.500000000000002
 30
0.0
 11
-0.3906299205988795
 21
2.443187499999999
 31
0.0
  0
LINE
  5
A1
330
2
100
AcDbEntity
  8
0
100
AcDbLine
 10
0.3906200794011205
 20
2.386363636363635
 30
0.0
 11
-0.3906299205988795
 21
2.329551136363635
 31
0.0
  0
LINE
  5
A2
330
2
100
AcDbEntity
  8
0
100
AcDbLine
 10
0.3906200794011205
 20
2.272727272727272
 30
0.0
 11
-0.3906299205988795
 21
2.215914772727272
 31
0.0
  0
LINE
  5
A3
330
2
100
AcDbEntity
  8
0
100
AcDbLine
 10
0.3906200794011205
 20
2.159090909090908
 30
0.0
 11
-0.3906299205988795
 21
2.102278409090909
 31
0.0
  0
LINE
  5
A4
330
2
100
AcDbEntity
  8
0
100
AcDbLine
 10
0.3906200794011205
 20
2.045454545454545
 30
0.0
 11
-0.3906299205988795
 21
1.988642045454546
 31
0.0
  0
LINE
  5
A5
330
2
100
AcDbEntity
  8
0
100
AcDbLine
 10
0.3906200794011205
 20
1.818181818181818
 30
0.0
 11
-0.3906299205988795
 21
1.761369318181819
 31
0.0
  0
LINE
  5
A6
330
2
100
AcDbEntity
  8
0
100
AcDbLine
 10
0.3906200794011205
 20
1.931818181818182
 30
0.0
 11
-0.3906299205988795
 21
1.875005681818182
 31
0.0
  0
LINE
  5
A7
330
2
100
AcDbEntity
  8
0
100
AcDbLine
 10
-0.3906299205988795
 20
2.329551136363639
 30
0.0
 11
-0.2922179428961034
 21
2.386369318181819
 31
0.0
  0
LINE
  5
A8
330
2
100
AcDbEntity
  8
0
100
AcDbLine
 10
-0.2922179428961034
 20
2.045460227272729
 30
0.0
 11
-0.3906299205988795
 21
2.102278409090909
 31
0.0
  0
LINE
  5
A9
330
2
100
AcDbEntity
  8
0
100
AcDbLine
 10
-0.3906299205988795
 20
1.988642045454546
 30
0.0
 11
-0.2922179428961034
 21
2.045460227272729
 31
0.0
  0
LINE
  5
AA
330
2
100
AcDbEntity
  8
0
100
AcDbLine
 10
-0.3906299205988795
 20
1.761369318181819
 30
0.0
 11
-0.2922179428961034
 21
1.818187500000002
 31
0.0
  0
LINE
  5
AB
330
2
100
AcDbEntity
  8
0
100
AcDbLine
 10
-0.2922179428961034
 20
1.818187500000002
 30
0.0
 11
-0.3906299205988795
 21
1.875005681818182
 31
0.0
  0
LINE
  5
AC
330
2
100
AcDbEntity
  8
0
100
AcDbLine
 10
-0.3906299205988795
 20
1.875005681818182
 30
0.0
 11
-0.2922179428961034
 21
1.931823863636366
 31
0.0
  0
LINE
  5
AD
330
2
100
AcDbEntity
  8
0
100
AcDbLine
 10
-0.2922179428961034
 20
1.931823863636366
 30
0.0
 11
-0.3906299205988795
 21
1.988642045454546
 31
0.0
  0
LINE
  5
AE
330
2
100
AcDbEntity
  8
0
100
AcDbLine
 10
-0.2922179428961034
 20
2.272732954545456
 30
0.0
 11
-0.3906299205988795
 21
2.329551136363635
 31
0.0
  0
LINE
  5
AF
330
2
100
AcDbEntity
  8
0
100
AcDbLine
 10
-0.2922179428961034
 20
2.159096590909092
 30
0.0
 11
-0.3906299205988795
 21
2.215914772727272
 31
0.0
  0
LINE
  5
B0
330
2
100
AcDbEntity
  8
0
100
AcDbLine
 10
-0.3906299205988795
 20
2.102278409090909
 30
0.0
 11
-0.2922179428961034
 21
2.159096590909092
 31
0.0
  0
LINE
  5
B1
330
2
100
AcDbEntity
  8
0
100
AcDbLine
 10
-0.3906299205988795
 20
2.215914772727272
 30
0.0
 11
-0.2922179428961034
 21
2.272732954545456
 31
0.0
  0
LINE
  5
B2
330
2
100
AcDbEntity
  8
0
100
AcDbLine
 10
-0.2922179428961034
 20
2.613642045454546
 30
0.0
 11
-0.3906299205988795
 21
2.670460227272725
 31
0.0
  0
LINE
  5
B3
330
2
100
AcDbEntity
  8
0
100
AcDbLine
 10
-0.3906299205988795
 20
2.556823863636366
 30
0.0
 11
-0.2922179428961034
 21
2.613642045454546
 31
0.0
  0
LINE
  5
B4
330
2
100
AcDbEntity
  8
0
100
AcDbLine
 10
-0.2922179428961034
 20
2.386369318181819
 30
0.0
 11
-0.3906299205988795
 21
2.443187499999999
 31
0.0
  0
LINE
  5
B5
330
2
100
AcDbEntity
  8
0
100
AcDbLine
 10
-0.3906299205988795
 20
2.443187500000002
 30
0.0
 11
-0.2922179428961034
 21
2.500005681818182
 31
0.0
  0
LINE
  5
B6
330
2
100
AcDbEntity
  8
0
100
AcDbLine
 10
-0.2922179428961034
 20
2.500005681818182
 30
0.0
 11
-0.3906299205988795
 21
2.556823863636366
 31
0.0
  0
LINE
  5
B7
330
2
100
AcDbEntity
  8
0
100
AcDbLine
 10
-0.3906299205988795
 20
2.897732954545456
 30
0.0
 11
-0.2922179428961034
 21
2.954551136363635
 31
0.0
  0
LINE
  5
B8
330
2
100
AcDbEntity
  8
0
100
AcDbLine
 10
-0.3906299205988795
 20
2.784096590909092
 30
0.0
 11
-0.2922179428961034
 21
2.840914772727272
 31
0.0
  0
LINE
  5
B9
330
2
100
AcDbEntity
  8
0
100
AcDbLine
 10
-0.3906299205988795
 20
2.670460227272725
 30
0.0
 11
-0.2922179428961034
 21
2.727278409090909
 31
0.0
  0
LINE
  5
BA
330
2
100
AcDbEntity
  8
0
100
AcDbLine
 10
-0.2922179428961034
 20
2.727278409090909
 30
0.0
 11
-0.3906299205988795
 21
2.784096590909089
 31
0.0
  0
LINE
  5
BB
330
2
100
AcDbEntity
  8
0
100
AcDbLine
 10
-0.2922179428961034
 20
2.840914772727272
 30
0.0
 11
-0.3906299205988795
 21
2.897732954545456
 31
0.0
  0
LINE
  5
BC
330
2
100
AcDbEntity
  8
0
100
AcDbLine
 10
0.2922081016983444
 20
2.329545454545455
 30
0.0
 11
0.3906200794011205
 21
2.386363636363635
 31
0.0
  0
LINE
  5
BD
330
2
100
AcDbEntity
  8
0
100
AcDbLine
 10
0.3906200794011188
 20
2.045454545454545
 30
0.0
 11
0.2922081016983444
 21
2.102272727272725
 31
0.0
  0
LINE
  5
BE
330
2
100
AcDbEntity
  8
0
100
AcDbLine
 10
0.2922081016983444
 20
1.988636363636362
 30
0.0
 11
0.3906200794011205
 21
2.045454545454545
 31
0.0
  0
LINE
  5
BF
330
2
100
AcDbEntity
  8
0
100
AcDbLine
 10
0.3906200794011188
 20
1.818181818181818
 30
0.0
 11
0.2922081016983444
 21
1.874999999999998
 31
0.0
  0
LINE
  5
C0
330
2
100
AcDbEntity
  8
0
100
AcDbLine
 10
0.2922081016983444
 20
1.761363636363635
 30
0.0
 11
0.3906200794011205
 21
1.818181818181818
 31
0.0
  0
LINE
  5
C1
330
2
100
AcDbEntity
  8
0
100
AcDbLine
 10
0.2922081016983444
 20
1.874999999999998
 30
0.0
 11
0.3906200794011205
 21
1.931818181818182
 31
0.0
  0
LINE
  5
C2
330
2
100
AcDbEntity
  8
0
100
AcDbLine
 10
0.3906200794011188
 20
1.931818181818182
 30
0.0
 11
0.2922081016983444
 21
1.988636363636362
 31
0.0
  0
LINE
  5
C3
330
2
100
AcDbEntity
  8
0
100
AcDbLine
 10
0.3906200794011188
 20
2.272727272727272
 30
0.0
 11
0.2922081016983444
 21
2.329545454545455
 31
0.0
  0
LINE
  5
C4
330
2
100
AcDbEntity
  8
0
100
AcDbLine
 10
0.3906200794011188
 20
2.159090909090908
 30
0.0
 11
0.2922081016983444
 21
2.215909090909092
 31
0.0
  0
LINE
  5
C5
330
2
100
AcDbEntity
  8
0
100
AcDbLine
 10
0.2922081016983444
 20
2.102272727272725
 30
0.0
 11
0.3906200794011205
 21
2.159090909090908
 31
0.0
  0
LINE
  5
C6
330
2
100
AcDbEntity
  8
0
100
AcDbLine
 10
0.2922081016983444
 20
2.215909090909092
 30
0.0
 11
0.3906200794011205
 21
2.272727272727272
 31
0.0
  0
LINE
  5
C7
330
2
100
AcDbEntity
  8
0
100
AcDbLine
 10
0.3906200794011188
 20
2.613636363636362
 30
0.0
 11
0.2922081016983444
 21
2.670454545454545
 31
0.0
  0
LINE
  5
C8
330
2
100
AcDbEntity
  8
0
100
AcDbLine
 10
0.2922081016983444
 20
2.556818181818178
 30
0.0
 11
0.3906200794011205
 21
2.613636363636362
 31
0.0
  0
LINE
  5
C9
330
2
100
AcDbEntity
  8
0
100
AcDbLine
 10
0.2922081016983444
 20
2.443181818181818
 30
0.0
 11
0.3906200794011205
 21
2.499999999999998
 31
0.0
  0
LINE
  5
CA
330
2
100
AcDbEntity
  8
0
100
AcDbLine
 10
0.3906200794011188
 20
2.386363636363635
 30
0.0
 11
0.2922081016983444
 21
2.443181818181818
 31
0.0
  0
LINE
  5
CB
330
2
100
AcDbEntity
  8
0
100
AcDbLine
 10
0.3906200794011188
 20
2.500000000000002
 30
0.0
 11
0.2922081016983444
 21
2.556818181818178
 31
0.0
  0
LINE
  5
CC
330
2
100
AcDbEntity
  8
0
100
AcDbLine
 10
0.2922081016983444
 20
2.897727272727272
 30
0.0
 11
0.3906200794011205
 21
2.954545454545452
 31
0.0
  0
LINE
  5
CD
330
2
100
AcDbEntity
  8
0
100
AcDbLine
 10
0.2922081016983444
 20
2.784090909090908
 30
0.0
 11
0.3906200794011205
 21
2.840909090909088
 31
0.0
  0
LINE
  5
CE
330
2
100
AcDbEntity
  8
0
100
AcDbLine
 10
0.3906200794011188
 20
2.727272727272725
 30
0.0
 11
0.2922081016983444
 21
2.784090909090908
 31
0.0
  0
LINE
  5
CF
330
2
100
AcDbEntity
  8
0
100
AcDbLine
 10
0.2922081016983444
 20
2.670454545454545
 30
0.0
 11
0.3906200794011205
 21
2.727272727272725
 31
0.0
  0
LINE
  5
D0
330
2
100
AcDbEntity
  8
0
100
AcDbLine
 10
0.3906200794011188
 20
2.840909090909092
 30
0.0
 11
0.2922081016983444
 21
2.897727272727272
 31
0.0
  0
LINE
  5
D1
330
2
100
AcDbEntity
  8
0
100
AcDbLine
 10
0.0438982682838258
 20
3.838422753531916
 30
0.0
 11
-0.3906299205988653
 21
3.806823863636371
 31
0.0
  0
LINE
  5
D2
330
2
100
AcDbEntity
  8
0
100
AcDbLine
 10
-0.2922179428960892
 20
3.750005681818188
 30
0.0
 11
0.2922081016983587
 21
3.806818181818187
 31
0.0
  0
LINE
  5
D3
330
2
100
AcDbEntity
  8
0
100
AcDbLine
 10
0.3906200794011205
 20
3.295454545454541
 30
0.0
 11
-0.3906299205988795
 21
3.238642045454546
 31
0.0
  0
LINE
  5
D4
330
2
100
AcDbEntity
  8
0
100
AcDbLine
 10
-0.2922179428960963
 20
3.29546022727273
 30
0.0
 11
0.2922081016983515
 21
3.352272727272729
 31
0.0
  0
LINE
  5
D5
330
2
100
AcDbEntity
  8
0
100
AcDbLine
 10
-0.2922179428960963
 20
3.409096590909093
 30
0.0
 11
0.2922081016983515
 21
3.465909090909093
 31
0.0
  0
LINE
  5
D6
330
2
100
AcDbEntity
  8
0
100
AcDbLine
 10
0.3906200794011276
 20
3.522727272727273
 30
0.0
 11
-0.3906299205988724
 21
3.465914772727277
 31
0.0
  0
LINE
  5
D7
330
2
100
AcDbEntity
  8
0
100
AcDbLine
 10
0.3906200794011276
 20
3.409090909090913
 30
0.0
 11
-0.3906299205988724
 21
3.35227840909091
 31
0.0
  0
SPLINE
  5
D8
330
2
100
AcDbEntity
  8
0
100
AcDbSpline
210
0.0
220
0.0
230
1.0
 70
     8
 71
     3
 72
    11
 73
     7
 74
     5
 42
0.0000000001
 43
0.0000000001
 44
0.0000000001
 40
0.0
 40
0.0
 40
0.0
 40
0.0
 40
0.0480845167207115
 40
0.1291811622031154
 40
0.2092806130713139
 40
0.2761745749011508
 40
0.2761745749011508
 40
0.2761745749011508
 40
0.2761745749011508
 10
0.1236552329866001
 20
3.53126227414417
 30
0.0
 10
0.1131728357880271
 20
3.516474513385052
 30
0.0
 10
0.0850114161640867
 20
3.476746545807878
 30
0.0
 10
0.0097427439509357
 20
3.533336147148914
 30
0.0
 10
-0.0667236453422352
 20
3.486817149339536
 30
0.0
 10
-0.1084658635204531
 20
3.520114281549703
 30
0.0
 10
-0.1274619688445728
 20
3.535267186370215
 30
0.0
 11
0.1236552329866001
 21
3.53126227414417
 31
0.0
 11
0.0896726627161613
 21
3.497243078591084
 31
0.0
 11
0.0103799171969214
 21
3.514252676367627
 31
0.0
 11
-0.0689127875448818
 21
3.502912967195159
 31
0.0
 11
-0.1274619688445728
 21
3.535267186370215
 31
0.0
  0
SPLINE
  5
D9
330
2
100
AcDbEntity
  8
0
100
AcDbSpline
210
0.0
220
0.0
230
1.0
 70
     8
 71
     3
 72
    11
 73
     7
 74
     5
 42
0.0000000001
 43
0.0000000001
 44
0.0000000001
 40
0.0
 40
0.0
 40
0.0
 40
0.0
 40
0.0480845167207115
 40
0.1291811622031154
 40
0.2092806130713139
 40
0.2761745749011508
 40
0.2761745749011508
 40
0.2761745749011508
 40
0.2761745749011508
 10
0.1236552329866001
 20
3.739387636370602
 30
0.0
 10
0.1131728357880271
 20
3.754175397134916
 30
0.0
 10
0.0850114161640867
 20
3.793903364726047
 30
0.0
 10
0.0097427439509357
 20
3.737313763225377
 30
0.0
 10
-0.0667236453422352
 20
3.783832761650395
 30
0.0
 10
-0.1084658635204531
 20
3.750535628116737
 30
0.0
 10
-0.1274619688445728
 20
3.735382724144556
 30
0.0
 11
0.1236552329866001
 21
3.739387636370602
 31
0.0
 11
0.0896726627161613
 21
3.773406831923688
 31
0.0
 11
0.0103799171969214
 21
3.756397234147145
 31
0.0
 11
-0.0689127875448818
 21
3.767736943319613
 31
0.0
 11
-0.1274619688445728
 21
3.735382724144556
 31
0.0
  0
ARC
  5
DA
330
2
100
AcDbEntity
  8
0
100
AcDbCircle
 10
-0.0000049205988795
 20
5.411048662464697
 30
0.0
 40
1.362499999999996
100
AcDbArc
 50
259.0072669106907
 51
280.9927330893092
  0
LINE
  5
DB
330
2
100
AcDbEntity
  8
0
100
AcDbLine
 10
-0.2922179428961034
 20
4.000005681818182
 30
0.0
 11
0.2071401591425754
 21
4.048548662464702
 31
0.0
  0
LINE
  5
DC
330
2
100
AcDbEntity
  8
0
100
AcDbLine
 10
-0.2922179428961034
 20
3.181823863636366
 30
0.0
 11
0.2922081016983444
 21
3.238636363636362
 31
0.0
  0
LINE
  5
DD
330
2
100
AcDbEntity
  8
0
100
AcDbLine
 10
-0.2922179428961034
 20
3.068187499999999
 30
0.0
 11
0.2922081016983444
 21
3.124999999999998
 31
0.0
  0
LINE
  5
DE
330
2
100
AcDbEntity
  8
0
100
AcDbLine
 10
0.3906200794011205
 20
4.000000000000002
 30
0.0
 11
-0.2031264341863448
 21
3.956822753531919
 31
0.0
  0
LINE
  5
DF
330
2
100
AcDbEntity
  8
0
100
AcDbLine
 10
0.3897065111041211
 20
4.048548662464702
 30
0.0
 11
-0.3897163523018765
 21
4.048548662464702
 31
0.0
  0
LINE
  5
E0
330
2
100
AcDbEntity
  8
0
100
AcDbLine
 10
-0.8000049205988802
 20
3.956822753531919
 30
0.0
 11
0.7999950794011213
 21
3.956822753531919
 31
0.0
  0
LINE
  5
E1
330
2
100
AcDbEntity
  8
0
100
AcDbLine
 10
-0.8000049205988802
 20
3.838422753531917
 30
0.0
 11
0.7999950794011213
 21
3.838422753531917
 31
0.0
  0
LINE
  5
E2
330
2
100
AcDbEntity
  8
0
100
AcDbLine
 10
0.3906200794011205
 20
3.068181818181818
 30
0.0
 11
-0.3906299205988795
 21
3.011369318181815
 31
0.0
  0
LINE
  5
E3
330
2
100
AcDbEntity
  8
0
100
AcDbLine
 10
0.3906200794011205
 20
3.181818181818178
 30
0.0
 11
-0.3906299205988795
 21
3.125005681818182
 31
0.0
  0
LINE
  5
E4
330
2
100
AcDbEntity
  8
0
100
AcDbLine
 10
-0.126248641627015
 20
3.598776942970472
 30
0.0
 11
-0.3906299205988724
 21
3.57955113636364
 31
0.0
  0
LINE
  5
E5
330
2
100
AcDbEntity
  8
0
100
AcDbLine
 10
-0.3906299205988653
 20
3.579551136363644
 30
0.0
 11
-0.2922179428960892
 21
3.636369318181824
 31
0.0
  0
SPLINE
  5
E6
330
2
100
AcDbEntity
  8
0
100
AcDbSpline
210
0.0
220
0.0
230
1.0
 70
     8
 71
     3
 72
    11
 73
     7
 74
     5
 42
0.0000000001
 43
0.0000000001
 44
0.0000000001
 40
0.0
 40
0.0
 40
0.0
 40
0.0
 40
0.0480845167207115
 40
0.1291811622031154
 40
0.2092806130713139
 40
0.2466687584764357
 40
0.2466687584764357
 40
0.2466687584764357
 40
0.2466687584764357
 10
-0.1040676017121029
 20
3.751117201831173
 30
0.0
 10
-0.1189028314559247
 20
3.740631415297182
 30
0.0
 10
-0.1587583265415527
 20
3.712460890075052
 30
0.0
 10
-0.1007101940137567
 20
3.637296358522171
 30
0.0
 10
-0.1461087441873915
 20
3.570372020293235
 30
0.0
 10
-0.1225037865290089
 20
3.536309533693736
 30
0.0
 10
-0.1149919672927195
 20
3.5254698095532
 30
0.0
 11
-0.1040676017121029
 21
3.751117201831173
 31
0.0
 11
-0.1380867972651885
 21
3.717134631560734
 31
0.0
 11
-0.1210771994886457
 21
3.637841886041494
 31
0.0
 11
-0.1324169086611136
 21
3.558549181299691
 31
0.0
 11
-0.1149919672927195
 21
3.5254698095532
 31
0.0
  0
LINE
  5
E7
330
2
100
AcDbEntity
  8
0
100
AcDbLine
 10
-0.3906299205988724
 20
3.23864204545455
 30
0.0
 11
-0.2922179428960963
 21
3.29546022727273
 31
0.0
  0
LINE
  5
E8
330
2
100
AcDbEntity
  8
0
100
AcDbLine
 10
-0.2922179428961034
 20
3.181823863636362
 30
0.0
 11
-0.3906299205988795
 21
3.238642045454546
 31
0.0
  0
LINE
  5
E9
330
2
100
AcDbEntity
  8
0
100
AcDbLine
 10
-0.2922179428961034
 20
3.181823863636366
 30
0.0
 11
-0.3906299205988795
 21
3.238642045454542
 31
0.0
  0
LINE
  5
EA
330
2
100
AcDbEntity
  8
0
100
AcDbLine
 10
-0.3906299205988795
 20
3.011369318181819
 30
0.0
 11
-0.2922179428961034
 21
3.068187499999999
 31
0.0
  0
LINE
  5
EB
330
2
100
AcDbEntity
  8
0
100
AcDbLine
 10
-0.2922179428961034
 20
3.068187499999999
 30
0.0
 11
-0.3906299205988795
 21
3.125005681818182
 31
0.0
  0
LINE
  5
EC
330
2
100
AcDbEntity
  8
0
100
AcDbLine
 10
-0.3906299205988795
 20
3.125005681818182
 30
0.0
 11
-0.2922179428961034
 21
3.181823863636366
 31
0.0
  0
LINE
  5
ED
330
2
100
AcDbEntity
  8
0
100
AcDbLine
 10
-0.2922179428960963
 20
3.52273295454546
 30
0.0
 11
-0.1266609199150395
 21
3.53882687858445
 31
0.0
  0
LINE
  5
EE
330
2
100
AcDbEntity
  8
0
100
AcDbLine
 10
-0.2922179428960963
 20
3.522732954545456
 30
0.0
 11
-0.3906299205988724
 21
3.57955113636364
 31
0.0
  0
LINE
  5
EF
330
2
100
AcDbEntity
  8
0
100
AcDbLine
 10
-0.2922179428960963
 20
3.29546022727273
 30
0.0
 11
-0.3906299205988724
 21
3.352278409090913
 31
0.0
  0
LINE
  5
F0
330
2
100
AcDbEntity
  8
0
100
AcDbLine
 10
-0.3906299205988724
 20
3.352278409090913
 30
0.0
 11
-0.2922179428960963
 21
3.409096590909093
 31
0.0
  0
LINE
  5
F1
330
2
100
AcDbEntity
  8
0
100
AcDbLine
 10
-0.2922179428960963
 20
3.409096590909093
 30
0.0
 11
-0.3906299205988724
 21
3.465914772727277
 31
0.0
  0
LINE
  5
F2
330
2
100
AcDbEntity
  8
0
100
AcDbLine
 10
-0.3906299205988724
 20
3.465914772727277
 30
0.0
 11
-0.2922179428960963
 21
3.52273295454546
 31
0.0
  0
LINE
  5
F3
330
2
100
AcDbEntity
  8
0
100
AcDbLine
 10
-0.8000049205988802
 20
3.956822753531919
 30
0.0
 11
-0.8000049205988802
 21
3.838422753531917
 31
0.0
  0
LINE
  5
F4
330
2
100
AcDbEntity
  8
0
100
AcDbLine
 10
-0.1393809607103993
 20
3.711458324363094
 30
0.0
 11
-0.3906299205988653
 21
3.693187500000004
 31
0.0
  0
LINE
  5
F5
330
2
100
AcDbEntity
  8
0
100
AcDbLine
 10
-0.2922179428960892
 20
3.636369318181824
 30
0.0
 11
-0.1239589836182127
 21
3.652725899501891
 31
0.0
  0
LINE
  5
F6
330
2
100
AcDbEntity
  8
0
100
AcDbLine
 10
-0.3906299205988653
 20
3.806823863636371
 30
0.0
 11
-0.335899037837005
 21
3.838422753531917
 31
0.0
  0
LINE
  5
F7
330
2
100
AcDbEntity
  8
0
100
AcDbLine
 10
-0.2922179428960892
 20
3.750005681818188
 30
0.0
 11
-0.3906299205988653
 21
3.806823863636371
 31
0.0
  0
LINE
  5
F8
330
2
100
AcDbEntity
  8
0
100
AcDbLine
 10
-0.3906299205988653
 20
3.693187500000008
 30
0.0
 11
-0.2922179428960892
 21
3.750005681818188
 31
0.0
  0
LINE
  5
F9
330
2
100
AcDbEntity
  8
0
100
AcDbLine
 10
-0.2922179428960892
 20
3.636369318181824
 30
0.0
 11
-0.3906299205988653
 21
3.693187500000008
 31
0.0
  0
ARC
  5
FA
330
2
100
AcDbEntity
  8
0
100
AcDbCircle
 10
-0.3897163523018765
 20
4.398548662464695
 30
0.0
 40
0.3499999999999915
100
AcDbArc
 50
248.2132107017378
 51
291.7867892982621
  0
LINE
  5
FB
330
2
100
AcDbEntity
  8
0
100
AcDbLine
 10
-0.367012968707515
 20
3.956822753531919
 30
0.0
 11
-0.2922179428961034
 21
4.000005681818182
 31
0.0
  0
LINE
  5
FC
330
2
100
AcDbEntity
  8
0
100
AcDbLine
 10
-0.2922179428961034
 20
4.000005681818182
 30
0.0
 11
-0.3762968517267051
 21
4.048548662464702
 31
0.0
  0
LINE
  5
FD
330
2
100
AcDbEntity
  8
0
100
AcDbLine
 10
0.2922081016983515
 20
3.579545454545456
 30
0.0
 11
0.3906200794011276
 21
3.636363636363636
 31
0.0
  0
SPLINE
  5
FE
330
2
100
AcDbEntity
  8
0
100
AcDbSpline
210
0.0
220
0.0
230
1.0
 70
     8
 71
     3
 72
    11
 73
     7
 74
     5
 42
0.0000000001
 43
0.0000000001
 44
0.0000000001
 40
0.0
 40
0.0
 40
0.0
 40
0.0
 40
0.0265175851028659
 40
0.1076142305852697
 40
0.1877136814534682
 40
0.2546076432833052
 40
0.2546076432833052
 40
0.2546076432833052
 40
0.2546076432833052
 10
0.1236552329866001
 20
3.739387636370602
 30
0.0
 10
0.1295466898338366
 20
3.73212376307436
 30
0.0
 10
0.1534555259206173
 20
3.702645357223613
 30
0.0
 10
0.1017197938359349
 20
3.637971146066795
 30
0.0
 10
0.1485560919767574
 20
3.560583911917605
 30
0.0
 10
0.1152223931630489
 20
3.518947812108803
 30
0.0
 10
0.1000528482882839
 20
3.5
 30
0.0
 11
0.1236552329866001
 21
3.739387636370602
 31
0.0
 11
0.1380769560674153
 21
3.717134631560734
 31
0.0
 11
0.1210673582908726
 21
3.637841886041494
 31
0.0
 11
0.1324070674633404
 21
3.558549181299691
 31
0.0
 11
0.1000528482882839
 21
3.5
 31
0.0
  0
LINE
  5
FF
330
2
100
AcDbEntity
  8
0
100
AcDbLine
 10
0.2922081016983444
 20
3.238636363636362
 30
0.0
 11
0.3906200794011205
 21
3.295454545454541
 31
0.0
  0
LINE
  5
100
330
2
100
AcDbEntity
  8
0
100
AcDbLine
 10
0.3906200794011188
 20
3.181818181818178
 30
0.0
 11
0.2922081016983444
 21
3.238636363636362
 31
0.0
  0
LINE
  5
101
330
2
100
AcDbEntity
  8
0
100
AcDbLine
 10
0.3906200794011188
 20
3.068181818181818
 30
0.0
 11
0.2922081016983444
 21
3.124999999999998
 31
0.0
  0
LINE
  5
102
330
2
100
AcDbEntity
  8
0
100
AcDbLine
 10
0.2922081016983444
 20
3.011363636363635
 30
0.0
 11
0.3906200794011205
 21
3.068181818181818
 31
0.0
  0
LINE
  5
103
330
2
100
AcDbEntity
  8
0
100
AcDbLine
 10
0.2922081016983444
 20
3.124999999999998
 30
0.0
 11
0.3906200794011205
 21
3.181818181818178
 31
0.0
  0
LINE
  5
104
330
2
100
AcDbEntity
  8
0
100
AcDbLine
 10
0.3906200794011188
 20
3.295454545454541
 30
0.0
 11
0.2922081016983444
 21
3.352272727272725
 31
0.0
  0
LINE
  5
105
330
2
100
AcDbEntity
  8
0
100
AcDbLine
 10
0.2922081016983515
 20
3.465909090909093
 30
0.0
 11
0.3906200794011276
 21
3.522727272727273
 31
0.0
  0
LINE
  5
106
330
2
100
AcDbEntity
  8
0
100
AcDbLine
 10
0.2922081016983515
 20
3.352272727272729
 30
0.0
 11
0.3906200794011276
 21
3.409090909090913
 31
0.0
  0
LINE
  5
107
330
2
100
AcDbEntity
  8
0
100
AcDbLine
 10
0.3906200794011259
 20
3.409090909090913
 30
0.0
 11
0.2922081016983515
 21
3.465909090909093
 31
0.0
  0
LINE
  5
108
330
2
100
AcDbEntity
  8
0
100
AcDbLine
 10
0.3906200794011259
 20
3.522727272727273
 30
0.0
 11
0.2922081016983515
 21
3.579545454545456
 31
0.0
  0
LINE
  5
109
330
2
100
AcDbEntity
  8
0
100
AcDbLine
 10
0.1326582522558804
 20
3.564035492412026
 30
0.0
 11
0.2922081016983515
 21
3.579545454545456
 31
0.0
  0
LINE
  5
10A
330
2
100
AcDbEntity
  8
0
100
AcDbLine
 10
0.390620079401133
 20
3.750000000000007
 30
0.0
 11
0.2922081016983587
 21
3.806818181818187
 31
0.0
  0
LINE
  5
10B
330
2
100
AcDbEntity
  8
0
100
AcDbLine
 10
0.2922081016983587
 20
3.693181818181824
 30
0.0
 11
0.3906200794011348
 21
3.750000000000007
 31
0.0
  0
LINE
  5
10C
330
2
100
AcDbEntity
  8
0
100
AcDbLine
 10
0.2922081016983587
 20
3.806818181818187
 30
0.0
 11
0.3469488256579947
 21
3.838422753531917
 31
0.0
  0
LINE
  5
10D
330
2
100
AcDbEntity
  8
0
100
AcDbLine
 10
0.3906200794011259
 20
3.636363636363636
 30
0.0
 11
0.2922081016983515
 21
3.693181818181819
 31
0.0
  0
LINE
  5
10E
330
2
100
AcDbEntity
  8
0
100
AcDbLine
 10
0.3906200794011348
 20
3.750000000000007
 30
0.0
 11
0.1291273605512835
 21
3.730984249485245
 31
0.0
  0
LINE
  5
10F
330
2
100
AcDbEntity
  8
0
100
AcDbLine
 10
0.3906200794011276
 20
3.636363636363636
 30
0.0
 11
0.1221670255915619
 21
3.616841730290606
 31
0.0
  0
LINE
  5
110
330
2
100
AcDbEntity
  8
0
100
AcDbLine
 10
0.1325668951032739
 20
3.67766297515015
 30
0.0
 11
0.2922081016983587
 21
3.693181818181824
 31
0.0
  0
ARC
  5
111
330
2
100
AcDbEntity
  8
0
100
AcDbCircle
 10
0.3897065111041211
 20
4.398548662464714
 30
0.0
 40
0.3500000000000102
100
AcDbArc
 50
248.2132107017385
 51
291.7867892982612
  0
LINE
  5
112
330
2
100
AcDbEntity
  8
0
100
AcDbLine
 10
0.3158348947874821
 20
3.956822753531919
 30
0.0
 11
0.3906200794011205
 21
3.999999999999998
 31
0.0
  0
LINE
  5
113
330
2
100
AcDbEntity
  8
0
100
AcDbLine
 10
0.3906200794011188
 20
4.000000000000002
 30
0.0
 11
0.3065313293727403
 21
4.048548662464702
 31
0.0
  0
LINE
  5
114
330
2
100
AcDbEntity
  8
0
100
AcDbLine
 10
0.7999950794011213
 20
3.956822753531919
 30
0.0
 11
0.7999950794011213
 21
3.838422753531917
 31
0.0
  0
LINE
  5
115
330
2
100
AcDbEntity
  8
0
100
AcDbLine
 10
6.495074847567288
 20
1.700584795886819
 30
0.0
 11
6.396662869864512
 21
1.757402977704999
 31
0.0
  0
LINE
  5
116
330
2
100
AcDbEntity
  8
0
100
AcDbLine
 10
6.495074847567288
 20
1.700584795886819
 30
0.0
 11
7.079500892161736
 21
1.757397295886815
 31
0.0
  0
LINE
  5
117
330
2
100
AcDbEntity
  8
0
100
AcDbLine
 10
7.17791286986451
 20
1.700579114068635
 30
0.0
 11
7.079500892161736
 21
1.757397295886815
 31
0.0
  0
LINE
  5
118
330
2
100
AcDbEntity
  8
0
100
AcDbLine
 10
6.396662869864507
 20
0.5074029777049987
 30
0.0
 11
6.495074847567283
 21
0.5642211595231803
 31
0.0
  0
LINE
  5
119
330
2
100
AcDbEntity
  8
0
100
AcDbLine
 10
7.177912869864507
 20
0.5642154777049999
 30
0.0
 11
6.396662869864507
 21
0.5074029777049987
 31
0.0
  0
LINE
  5
11A
330
2
100
AcDbEntity
  8
0
100
AcDbLine
 10
7.079500892161731
 20
0.5073972958868183
 30
0.0
 11
7.177912869864507
 21
0.5642154777049981
 31
0.0
  0
LINE
  5
11B
330
2
100
AcDbEntity
  8
0
100
AcDbLine
 10
6.495074847567283
 20
0.3369484322504555
 30
0.0
 11
7.079500892161731
 21
0.3937609322504514
 31
0.0
  0
LINE
  5
11C
330
2
100
AcDbEntity
  8
0
100
AcDbLine
 10
6.495074847567283
 20
0.4505847958868152
 30
0.0
 11
7.079500892161731
 21
0.5073972958868183
 31
0.0
  0
LINE
  5
11D
330
2
100
AcDbEntity
  8
0
100
AcDbLine
 10
6.495074847567283
 20
0.1096757049777253
 30
0.0
 11
7.079500892161731
 21
0.166488204977723
 31
0.0
  0
LINE
  5
11E
330
2
100
AcDbEntity
  8
0
100
AcDbLine
 10
6.495074847567283
 20
0.2233120686140868
 30
0.0
 11
7.079500892161731
 21
0.2801245686140881
 31
0.0
  0
LINE
  5
11F
330
2
100
AcDbEntity
  8
0
100
AcDbLine
 10
6.495084688765052
 20
-0.0039663404768202
 30
0.0
 11
7.079500892161731
 21
-0.0039663404768202
 31
0.0
  0
LINE
  5
120
330
2
100
AcDbEntity
  8
0
100
AcDbLine
 10
6.495074847567283
 20
-0.0039606586586398
 30
0.0
 11
7.079500892161731
 21
0.0528518413413615
 31
0.0
  0
LINE
  5
121
330
2
100
AcDbEntity
  8
0
100
AcDbLine
 10
7.177912869864507
 20
0.1096700231595413
 30
0.0
 11
6.42303491675651
 21
0.068083431531722
 31
0.0
  0
LINE
  5
122
330
2
100
AcDbEntity
  8
0
100
AcDbLine
 10
7.177912869864507
 20
0.2233063867959064
 30
0.0
 11
6.396662869864507
 21
0.1664938867959052
 31
0.0
  0
LINE
  5
123
330
2
100
AcDbEntity
  8
0
100
AcDbLine
 10
7.177912869864507
 20
0.3369427504322715
 30
0.0
 11
6.396662869864507
 21
0.280130250432272
 31
0.0
  0
LINE
  5
124
330
2
100
AcDbEntity
  8
0
100
AcDbLine
 10
7.177912869864507
 20
0.4505791140686348
 30
0.0
 11
6.396662869864507
 21
0.3937666140686353
 31
0.0
  0
LINE
  5
125
330
2
100
AcDbEntity
  8
0
100
AcDbLine
 10
6.495074847567283
 20
0.2233120686140886
 30
0.0
 11
6.396662869864507
 21
0.280130250432272
 31
0.0
  0
LINE
  5
126
330
2
100
AcDbEntity
  8
0
100
AcDbLine
 10
6.495074847567283
 20
0.1096757049777253
 30
0.0
 11
6.396662869864507
 21
0.1664938867959052
 31
0.0
  0
LINE
  5
127
330
2
100
AcDbEntity
  8
0
100
AcDbLine
 10
6.396662869864507
 20
0.1664938867959052
 30
0.0
 11
6.495074847567283
 21
0.2233120686140868
 31
0.0
  0
LINE
  5
128
330
2
100
AcDbEntity
  8
0
100
AcDbLine
 10
6.42303491675651
 20
0.068083431531722
 30
0.0
 11
6.495084688765052
 21
-0.0039663404768202
 31
0.0
  0
LINE
  5
129
330
2
100
AcDbEntity
  8
0
100
AcDbLine
 10
6.42303491675651
 20
0.068083431531722
 30
0.0
 11
6.495074847567283
 21
0.1096757049777253
 31
0.0
  0
LINE
  5
12A
330
2
100
AcDbEntity
  8
0
100
AcDbLine
 10
6.396662869864507
 20
0.280130250432272
 30
0.0
 11
6.495074847567283
 21
0.3369484322504555
 31
0.0
  0
LINE
  5
12B
330
2
100
AcDbEntity
  8
0
100
AcDbLine
 10
6.495074847567283
 20
0.3369484322504555
 30
0.0
 11
6.396662869864507
 21
0.3937666140686353
 31
0.0
  0
LINE
  5
12C
330
2
100
AcDbEntity
  8
0
100
AcDbLine
 10
6.396662869864507
 20
0.3937666140686353
 30
0.0
 11
6.495074847567283
 21
0.4505847958868152
 31
0.0
  0
LINE
  5
12D
330
2
100
AcDbEntity
  8
0
100
AcDbLine
 10
6.495074847567283
 20
0.4505847958868152
 30
0.0
 11
6.396662869864507
 21
0.5074029777049987
 31
0.0
  0
LINE
  5
12E
330
2
100
AcDbEntity
  8
0
100
AcDbLine
 10
7.177912869864505
 20
0.2233063867959064
 30
0.0
 11
7.079500892161731
 21
0.2801245686140881
 31
0.0
  0
LINE
  5
12F
330
2
100
AcDbEntity
  8
0
100
AcDbLine
 10
7.079500892161731
 20
-0.003966340476822
 30
0.0
 11
7.115522176037615
 21
0.0320549433990607
 31
0.0
  0
LINE
  5
130
330
2
100
AcDbEntity
  8
0
100
AcDbLine
 10
7.115522176037615
 20
0.0320549433990607
 30
0.0
 11
7.079500892161731
 21
0.0528518413413615
 31
0.0
  0
LINE
  5
131
330
2
100
AcDbEntity
  8
0
100
AcDbLine
 10
7.177912869864505
 20
0.1096700231595413
 30
0.0
 11
7.079500892161731
 21
0.166488204977723
 31
0.0
  0
LINE
  5
132
330
2
100
AcDbEntity
  8
0
100
AcDbLine
 10
7.079500892161731
 20
0.0528518413413615
 30
0.0
 11
7.177912869864507
 21
0.1096700231595413
 31
0.0
  0
LINE
  5
133
330
2
100
AcDbEntity
  8
0
100
AcDbLine
 10
7.079500892161731
 20
0.166488204977723
 30
0.0
 11
7.177912869864507
 21
0.2233063867959046
 31
0.0
  0
LINE
  5
134
330
2
100
AcDbEntity
  8
0
100
AcDbLine
 10
7.079500892161731
 20
0.2801245686140881
 30
0.0
 11
7.177912869864507
 21
0.336942750432268
 31
0.0
  0
LINE
  5
135
330
2
100
AcDbEntity
  8
0
100
AcDbLine
 10
7.177912869864505
 20
0.3369427504322715
 30
0.0
 11
7.079500892161731
 21
0.3937609322504514
 31
0.0
  0
LINE
  5
136
330
2
100
AcDbEntity
  8
0
100
AcDbLine
 10
7.079500892161731
 20
0.3937609322504514
 30
0.0
 11
7.177912869864507
 21
0.4505791140686348
 31
0.0
  0
LINE
  5
137
330
2
100
AcDbEntity
  8
0
100
AcDbLine
 10
7.177912869864505
 20
0.4505791140686348
 30
0.0
 11
7.079500892161731
 21
0.5073972958868183
 31
0.0
  0
LINE
  5
138
330
2
100
AcDbEntity
  8
0
100
AcDbLine
 10
6.495074847567288
 20
1.47331206861409
 30
0.0
 11
7.079500892161736
 21
1.530124568614088
 31
0.0
  0
LINE
  5
139
330
2
100
AcDbEntity
  8
0
100
AcDbLine
 10
6.495074847567288
 20
1.586948432250454
 30
0.0
 11
7.079500892161736
 21
1.643760932250451
 31
0.0
  0
LINE
  5
13A
330
2
100
AcDbEntity
  8
0
100
AcDbLine
 10
6.495074847567288
 20
1.018766614068635
 30
0.0
 11
7.079500892161736
 21
1.075579114068635
 31
0.0
  0
LINE
  5
13B
330
2
100
AcDbEntity
  8
0
100
AcDbLine
 10
6.495074847567288
 20
1.132402977704999
 30
0.0
 11
7.079500892161736
 21
1.189215477704998
 31
0.0
  0
LINE
  5
13C
330
2
100
AcDbEntity
  8
0
100
AcDbLine
 10
6.495074847567288
 20
1.246039341341362
 30
0.0
 11
7.079500892161736
 21
1.302851841341361
 31
0.0
  0
LINE
  5
13D
330
2
100
AcDbEntity
  8
0
100
AcDbLine
 10
6.495074847567288
 20
1.359675704977727
 30
0.0
 11
7.079500892161736
 21
1.416488204977725
 31
0.0
  0
LINE
  5
13E
330
2
100
AcDbEntity
  8
0
100
AcDbLine
 10
6.495074847567288
 20
0.7914938867959087
 30
0.0
 11
7.079500892161736
 21
0.8483063867959082
 31
0.0
  0
LINE
  5
13F
330
2
100
AcDbEntity
  8
0
100
AcDbLine
 10
6.495074847567288
 20
0.905130250432272
 30
0.0
 11
7.079500892161736
 21
0.9619427504322715
 31
0.0
  0
LINE
  5
140
330
2
100
AcDbEntity
  8
0
100
AcDbLine
 10
6.495074847567283
 20
0.5642211595231803
 30
0.0
 11
7.079500892161731
 21
0.6210336595231816
 31
0.0
  0
LINE
  5
141
330
2
100
AcDbEntity
  8
0
100
AcDbLine
 10
6.495074847567283
 20
0.6778575231595454
 30
0.0
 11
7.079500892161731
 21
0.7346700231595431
 31
0.0
  0
LINE
  5
142
330
2
100
AcDbEntity
  8
0
100
AcDbLine
 10
7.177912869864512
 20
0.9051245686140899
 30
0.0
 11
6.396662869864512
 21
0.8483120686140886
 31
0.0
  0
LINE
  5
143
330
2
100
AcDbEntity
  8
0
100
AcDbLine
 10
7.177912869864512
 20
1.018760932250455
 30
0.0
 11
6.396662869864512
 21
0.9619484322504519
 31
0.0
  0
LINE
  5
144
330
2
100
AcDbEntity
  8
0
100
AcDbLine
 10
7.177912869864512
 20
1.132397295886818
 30
0.0
 11
6.396662869864512
 21
1.075584795886815
 31
0.0
  0
LINE
  5
145
330
2
100
AcDbEntity
  8
0
100
AcDbLine
 10
7.177912869864512
 20
1.24603365952318
 30
0.0
 11
6.396662869864512
 21
1.189221159523179
 31
0.0
  0
LINE
  5
146
330
2
100
AcDbEntity
  8
0
100
AcDbLine
 10
7.177912869864512
 20
1.359670023159545
 30
0.0
 11
6.396662869864512
 21
1.302857523159544
 31
0.0
  0
LINE
  5
147
330
2
100
AcDbEntity
  8
0
100
AcDbLine
 10
7.177912869864512
 20
1.473306386795908
 30
0.0
 11
6.396662869864512
 21
1.416493886795907
 31
0.0
  0
LINE
  5
148
330
2
100
AcDbEntity
  8
0
100
AcDbLine
 10
7.177912869864512
 20
1.586942750432272
 30
0.0
 11
6.396662869864512
 21
1.53013025043227
 31
0.0
  0
LINE
  5
149
330
2
100
AcDbEntity
  8
0
100
AcDbLine
 10
7.177912869864512
 20
1.700579114068635
 30
0.0
 11
6.396662869864512
 21
1.643766614068635
 31
0.0
  0
LINE
  5
14A
330
2
100
AcDbEntity
  8
0
100
AcDbLine
 10
7.177912869864507
 20
0.6778518413413615
 30
0.0
 11
6.396662869864507
 21
0.621039341341362
 31
0.0
  0
LINE
  5
14B
330
2
100
AcDbEntity
  8
0
100
AcDbLine
 10
7.177912869864507
 20
0.7914882049777265
 30
0.0
 11
6.396662869864507
 21
0.7346757049777253
 31
0.0
  0
LINE
  5
14C
330
2
100
AcDbEntity
  8
0
100
AcDbLine
 10
6.495074847567288
 20
1.132402977704999
 30
0.0
 11
6.396662869864512
 21
1.189221159523182
 31
0.0
  0
LINE
  5
14D
330
2
100
AcDbEntity
  8
0
100
AcDbLine
 10
6.495074847567288
 20
0.7914938867959087
 30
0.0
 11
6.396662869864512
 21
0.8483120686140904
 31
0.0
  0
LINE
  5
14E
330
2
100
AcDbEntity
  8
0
100
AcDbLine
 10
6.396662869864507
 20
0.7346757049777253
 30
0.0
 11
6.495074847567283
 21
0.7914938867959069
 31
0.0
  0
LINE
  5
14F
330
2
100
AcDbEntity
  8
0
100
AcDbLine
 10
6.495074847567283
 20
0.5642211595231803
 30
0.0
 11
6.396662869864507
 21
0.621039341341362
 31
0.0
  0
LINE
  5
150
330
2
100
AcDbEntity
  8
0
100
AcDbLine
 10
6.396662869864507
 20
0.6210393413413637
 30
0.0
 11
6.495074847567283
 21
0.6778575231595454
 31
0.0
  0
LINE
  5
151
330
2
100
AcDbEntity
  8
0
100
AcDbLine
 10
6.495074847567283
 20
0.6778575231595454
 30
0.0
 11
6.396662869864507
 21
0.7346757049777253
 31
0.0
  0
LINE
  5
152
330
2
100
AcDbEntity
  8
0
100
AcDbLine
 10
6.396662869864512
 20
1.075584795886819
 30
0.0
 11
6.495074847567288
 21
1.132402977704999
 31
0.0
  0
LINE
  5
153
330
2
100
AcDbEntity
  8
0
100
AcDbLine
 10
6.495074847567288
 20
1.018766614068635
 30
0.0
 11
6.396662869864512
 21
1.075584795886819
 31
0.0
  0
LINE
  5
154
330
2
100
AcDbEntity
  8
0
100
AcDbLine
 10
6.396662869864512
 20
0.8483120686140921
 30
0.0
 11
6.495074847567288
 21
0.905130250432272
 31
0.0
  0
LINE
  5
155
330
2
100
AcDbEntity
  8
0
100
AcDbLine
 10
6.495074847567288
 20
0.905130250432272
 30
0.0
 11
6.396662869864512
 21
0.9619484322504537
 31
0.0
  0
LINE
  5
156
330
2
100
AcDbEntity
  8
0
100
AcDbLine
 10
6.396662869864512
 20
0.9619484322504555
 30
0.0
 11
6.495074847567288
 21
1.018766614068635
 31
0.0
  0
LINE
  5
157
330
2
100
AcDbEntity
  8
0
100
AcDbLine
 10
6.396662869864512
 20
1.416493886795909
 30
0.0
 11
6.495074847567288
 21
1.47331206861409
 31
0.0
  0
LINE
  5
158
330
2
100
AcDbEntity
  8
0
100
AcDbLine
 10
6.495074847567288
 20
1.359675704977727
 30
0.0
 11
6.396662869864512
 21
1.416493886795909
 31
0.0
  0
LINE
  5
159
330
2
100
AcDbEntity
  8
0
100
AcDbLine
 10
6.495074847567288
 20
1.246039341341362
 30
0.0
 11
6.396662869864512
 21
1.302857523159544
 31
0.0
  0
LINE
  5
15A
330
2
100
AcDbEntity
  8
0
100
AcDbLine
 10
6.396662869864512
 20
1.189221159523182
 30
0.0
 11
6.495074847567288
 21
1.246039341341362
 31
0.0
  0
LINE
  5
15B
330
2
100
AcDbEntity
  8
0
100
AcDbLine
 10
6.396662869864512
 20
1.302857523159545
 30
0.0
 11
6.495074847567288
 21
1.359675704977727
 31
0.0
  0
LINE
  5
15C
330
2
100
AcDbEntity
  8
0
100
AcDbLine
 10
6.495074847567288
 20
1.586948432250454
 30
0.0
 11
6.396662869864512
 21
1.643766614068635
 31
0.0
  0
LINE
  5
15D
330
2
100
AcDbEntity
  8
0
100
AcDbLine
 10
6.495074847567288
 20
1.47331206861409
 30
0.0
 11
6.396662869864512
 21
1.530130250432272
 31
0.0
  0
LINE
  5
15E
330
2
100
AcDbEntity
  8
0
100
AcDbLine
 10
6.396662869864512
 20
1.530130250432272
 30
0.0
 11
6.495074847567288
 21
1.586948432250454
 31
0.0
  0
LINE
  5
15F
330
2
100
AcDbEntity
  8
0
100
AcDbLine
 10
6.396662869864512
 20
1.643766614068635
 30
0.0
 11
6.495074847567288
 21
1.700584795886819
 31
0.0
  0
LINE
  5
160
330
2
100
AcDbEntity
  8
0
100
AcDbLine
 10
7.17791286986451
 20
1.132397295886818
 30
0.0
 11
7.079500892161736
 21
1.189215477704998
 31
0.0
  0
LINE
  5
161
330
2
100
AcDbEntity
  8
0
100
AcDbLine
 10
7.17791286986451
 20
0.7914882049777265
 30
0.0
 11
7.079500892161736
 21
0.8483063867959082
 31
0.0
  0
LINE
  5
162
330
2
100
AcDbEntity
  8
0
100
AcDbLine
 10
7.177912869864505
 20
0.5642154777049999
 30
0.0
 11
7.079500892161731
 21
0.6210336595231816
 31
0.0
  0
LINE
  5
163
330
2
100
AcDbEntity
  8
0
100
AcDbLine
 10
7.079500892161731
 20
0.6210336595231816
 30
0.0
 11
7.177912869864507
 21
0.6778518413413615
 31
0.0
  0
LINE
  5
164
330
2
100
AcDbEntity
  8
0
100
AcDbLine
 10
7.177912869864505
 20
0.6778518413413615
 30
0.0
 11
7.079500892161731
 21
0.7346700231595431
 31
0.0
  0
LINE
  5
165
330
2
100
AcDbEntity
  8
0
100
AcDbLine
 10
7.079500892161731
 20
0.7346700231595431
 30
0.0
 11
7.177912869864507
 21
0.7914882049777248
 31
0.0
  0
LINE
  5
166
330
2
100
AcDbEntity
  8
0
100
AcDbLine
 10
7.079500892161736
 20
0.8483063867959082
 30
0.0
 11
7.177912869864512
 21
0.9051245686140881
 31
0.0
  0
LINE
  5
167
330
2
100
AcDbEntity
  8
0
100
AcDbLine
 10
7.079500892161736
 20
1.075579114068635
 30
0.0
 11
7.177912869864512
 21
1.132397295886815
 31
0.0
  0
LINE
  5
168
330
2
100
AcDbEntity
  8
0
100
AcDbLine
 10
7.17791286986451
 20
0.9051245686140899
 30
0.0
 11
7.079500892161736
 21
0.9619427504322715
 31
0.0
  0
LINE
  5
169
330
2
100
AcDbEntity
  8
0
100
AcDbLine
 10
7.079500892161736
 20
0.9619427504322715
 30
0.0
 11
7.177912869864512
 21
1.018760932250451
 31
0.0
  0
LINE
  5
16A
330
2
100
AcDbEntity
  8
0
100
AcDbLine
 10
7.17791286986451
 20
1.018760932250455
 30
0.0
 11
7.079500892161736
 21
1.075579114068635
 31
0.0
  0
LINE
  5
16B
330
2
100
AcDbEntity
  8
0
100
AcDbLine
 10
7.079500892161736
 20
1.416488204977725
 30
0.0
 11
7.177912869864512
 21
1.473306386795906
 31
0.0
  0
LINE
  5
16C
330
2
100
AcDbEntity
  8
0
100
AcDbLine
 10
7.17791286986451
 20
1.359670023159545
 30
0.0
 11
7.079500892161736
 21
1.416488204977725
 31
0.0
  0
LINE
  5
16D
330
2
100
AcDbEntity
  8
0
100
AcDbLine
 10
7.079500892161736
 20
1.189215477704998
 30
0.0
 11
7.177912869864512
 21
1.24603365952318
 31
0.0
  0
LINE
  5
16E
330
2
100
AcDbEntity
  8
0
100
AcDbLine
 10
7.17791286986451
 20
1.24603365952318
 30
0.0
 11
7.079500892161736
 21
1.302851841341361
 31
0.0
  0
LINE
  5
16F
330
2
100
AcDbEntity
  8
0
100
AcDbLine
 10
7.079500892161736
 20
1.302851841341361
 30
0.0
 11
7.177912869864512
 21
1.359670023159541
 31
0.0
  0
LINE
  5
170
330
2
100
AcDbEntity
  8
0
100
AcDbLine
 10
7.17791286986451
 20
1.586942750432272
 30
0.0
 11
7.079500892161736
 21
1.643760932250451
 31
0.0
  0
LINE
  5
171
330
2
100
AcDbEntity
  8
0
100
AcDbLine
 10
7.17791286986451
 20
1.473306386795908
 30
0.0
 11
7.079500892161736
 21
1.530124568614088
 31
0.0
  0
LINE
  5
172
330
2
100
AcDbEntity
  8
0
100
AcDbLine
 10
7.079500892161736
 20
1.530124568614088
 30
0.0
 11
7.177912869864512
 21
1.586942750432272
 31
0.0
  0
LINE
  5
173
330
2
100
AcDbEntity
  8
0
100
AcDbLine
 10
7.079500892161736
 20
1.643760932250451
 30
0.0
 11
7.177912869864512
 21
1.700579114068635
 31
0.0
  0
LINE
  5
174
330
2
100
AcDbEntity
  8
0
100
AcDbLine
 10
6.495074847567288
 20
2.950584795886815
 30
0.0
 11
6.396662869864512
 21
3.007402977704999
 31
0.0
  0
LINE
  5
175
330
2
100
AcDbEntity
  8
0
100
AcDbLine
 10
6.495074847567288
 20
2.950584795886815
 30
0.0
 11
7.079500892161736
 21
3.007397295886815
 31
0.0
  0
LINE
  5
176
330
2
100
AcDbEntity
  8
0
100
AcDbLine
 10
7.17791286986451
 20
2.950579114068635
 30
0.0
 11
7.079500892161736
 21
3.007397295886815
 31
0.0
  0
LINE
  5
177
330
2
100
AcDbEntity
  8
0
100
AcDbLine
 10
6.495074847567288
 20
2.496039341341362
 30
0.0
 11
7.079500892161736
 21
2.552851841341358
 31
0.0
  0
LINE
  5
178
330
2
100
AcDbEntity
  8
0
100
AcDbLine
 10
6.495074847567288
 20
2.609675704977725
 30
0.0
 11
7.079500892161736
 21
2.666488204977725
 31
0.0
  0
LINE
  5
179
330
2
100
AcDbEntity
  8
0
100
AcDbLine
 10
6.495074847567288
 20
2.723312068614089
 30
0.0
 11
7.079500892161736
 21
2.780124568614088
 31
0.0
  0
LINE
  5
17A
330
2
100
AcDbEntity
  8
0
100
AcDbLine
 10
6.495074847567288
 20
2.836948432250452
 30
0.0
 11
7.079500892161736
 21
2.893760932250451
 31
0.0
  0
LINE
  5
17B
330
2
100
AcDbEntity
  8
0
100
AcDbLine
 10
6.495074847567288
 20
2.041493886795909
 30
0.0
 11
7.079500892161736
 21
2.098306386795905
 31
0.0
  0
LINE
  5
17C
330
2
100
AcDbEntity
  8
0
100
AcDbLine
 10
6.495074847567288
 20
2.155130250432272
 30
0.0
 11
7.079500892161736
 21
2.211942750432272
 31
0.0
  0
LINE
  5
17D
330
2
100
AcDbEntity
  8
0
100
AcDbLine
 10
6.495074847567288
 20
2.268766614068635
 30
0.0
 11
7.079500892161736
 21
2.325579114068635
 31
0.0
  0
LINE
  5
17E
330
2
100
AcDbEntity
  8
0
100
AcDbLine
 10
6.495074847567288
 20
1.814221159523182
 30
0.0
 11
7.079500892161736
 21
1.871033659523178
 31
0.0
  0
LINE
  5
17F
330
2
100
AcDbEntity
  8
0
100
AcDbLine
 10
6.495074847567288
 20
1.927857523159545
 30
0.0
 11
7.079500892161736
 21
1.984670023159541
 31
0.0
  0
LINE
  5
180
330
2
100
AcDbEntity
  8
0
100
AcDbLine
 10
6.495074847567288
 20
2.382402977704999
 30
0.0
 11
7.079500892161736
 21
2.439215477704998
 31
0.0
  0
LINE
  5
181
330
2
100
AcDbEntity
  8
0
100
AcDbLine
 10
7.177912869864512
 20
1.927851841341361
 30
0.0
 11
6.396662869864512
 21
1.871039341341362
 31
0.0
  0
LINE
  5
182
330
2
100
AcDbEntity
  8
0
100
AcDbLine
 10
7.177912869864512
 20
1.814215477704998
 30
0.0
 11
6.396662869864512
 21
1.757402977704999
 31
0.0
  0
LINE
  5
183
330
2
100
AcDbEntity
  8
0
100
AcDbLine
 10
7.177912869864512
 20
2.041488204977725
 30
0.0
 11
6.396662869864512
 21
1.984675704977725
 31
0.0
  0
LINE
  5
184
330
2
100
AcDbEntity
  8
0
100
AcDbLine
 10
7.177912869864512
 20
2.155124568614088
 30
0.0
 11
6.396662869864512
 21
2.098312068614089
 31
0.0
  0
LINE
  5
185
330
2
100
AcDbEntity
  8
0
100
AcDbLine
 10
7.177912869864512
 20
2.268760932250451
 30
0.0
 11
6.396662869864512
 21
2.211948432250452
 31
0.0
  0
LINE
  5
186
330
2
100
AcDbEntity
  8
0
100
AcDbLine
 10
7.177912869864512
 20
2.382397295886815
 30
0.0
 11
6.396662869864512
 21
2.325584795886815
 31
0.0
  0
LINE
  5
187
330
2
100
AcDbEntity
  8
0
100
AcDbLine
 10
7.177912869864512
 20
2.496033659523182
 30
0.0
 11
6.396662869864512
 21
2.439221159523179
 31
0.0
  0
LINE
  5
188
330
2
100
AcDbEntity
  8
0
100
AcDbLine
 10
7.177912869864512
 20
2.609670023159541
 30
0.0
 11
6.396662869864512
 21
2.552857523159542
 31
0.0
  0
LINE
  5
189
330
2
100
AcDbEntity
  8
0
100
AcDbLine
 10
7.177912869864512
 20
2.723306386795905
 30
0.0
 11
6.396662869864512
 21
2.666493886795905
 31
0.0
  0
LINE
  5
18A
330
2
100
AcDbEntity
  8
0
100
AcDbLine
 10
7.177912869864512
 20
2.836942750432272
 30
0.0
 11
6.396662869864512
 21
2.780130250432269
 31
0.0
  0
LINE
  5
18B
330
2
100
AcDbEntity
  8
0
100
AcDbLine
 10
7.177912869864512
 20
2.950579114068635
 30
0.0
 11
6.396662869864512
 21
2.893766614068632
 31
0.0
  0
LINE
  5
18C
330
2
100
AcDbEntity
  8
0
100
AcDbLine
 10
6.396662869864512
 20
2.325584795886819
 30
0.0
 11
6.495074847567288
 21
2.382402977704999
 31
0.0
  0
LINE
  5
18D
330
2
100
AcDbEntity
  8
0
100
AcDbLine
 10
6.495074847567288
 20
2.041493886795909
 30
0.0
 11
6.396662869864512
 21
2.098312068614089
 31
0.0
  0
LINE
  5
18E
330
2
100
AcDbEntity
  8
0
100
AcDbLine
 10
6.396662869864512
 20
1.984675704977725
 30
0.0
 11
6.495074847567288
 21
2.041493886795909
 31
0.0
  0
LINE
  5
18F
330
2
100
AcDbEntity
  8
0
100
AcDbLine
 10
6.396662869864512
 20
1.871039341341362
 30
0.0
 11
6.495074847567288
 21
1.927857523159545
 31
0.0
  0
LINE
  5
190
330
2
100
AcDbEntity
  8
0
100
AcDbLine
 10
6.495074847567288
 20
1.814221159523182
 30
0.0
 11
6.396662869864512
 21
1.871039341341362
 31
0.0
  0
LINE
  5
191
330
2
100
AcDbEntity
  8
0
100
AcDbLine
 10
6.396662869864512
 20
1.757402977704999
 30
0.0
 11
6.495074847567288
 21
1.814221159523182
 31
0.0
  0
LINE
  5
192
330
2
100
AcDbEntity
  8
0
100
AcDbLine
 10
6.495074847567288
 20
1.927857523159545
 30
0.0
 11
6.396662869864512
 21
1.984675704977725
 31
0.0
  0
LINE
  5
193
330
2
100
AcDbEntity
  8
0
100
AcDbLine
 10
6.396662869864512
 20
2.098312068614089
 30
0.0
 11
6.495074847567288
 21
2.155130250432272
 31
0.0
  0
LINE
  5
194
330
2
100
AcDbEntity
  8
0
100
AcDbLine
 10
6.495074847567288
 20
2.155130250432272
 30
0.0
 11
6.396662869864512
 21
2.211948432250452
 31
0.0
  0
LINE
  5
195
330
2
100
AcDbEntity
  8
0
100
AcDbLine
 10
6.495074847567288
 20
2.268766614068635
 30
0.0
 11
6.396662869864512
 21
2.325584795886815
 31
0.0
  0
LINE
  5
196
330
2
100
AcDbEntity
  8
0
100
AcDbLine
 10
6.396662869864512
 20
2.211948432250452
 30
0.0
 11
6.495074847567288
 21
2.268766614068635
 31
0.0
  0
LINE
  5
197
330
2
100
AcDbEntity
  8
0
100
AcDbLine
 10
6.495074847567288
 20
2.609675704977725
 30
0.0
 11
6.396662869864512
 21
2.666493886795905
 31
0.0
  0
LINE
  5
198
330
2
100
AcDbEntity
  8
0
100
AcDbLine
 10
6.495074847567288
 20
2.496039341341362
 30
0.0
 11
6.396662869864512
 21
2.552857523159545
 31
0.0
  0
LINE
  5
199
330
2
100
AcDbEntity
  8
0
100
AcDbLine
 10
6.396662869864512
 20
2.439221159523182
 30
0.0
 11
6.495074847567288
 21
2.496039341341362
 31
0.0
  0
LINE
  5
19A
330
2
100
AcDbEntity
  8
0
100
AcDbLine
 10
6.396662869864512
 20
2.552857523159545
 30
0.0
 11
6.495074847567288
 21
2.609675704977725
 31
0.0
  0
LINE
  5
19B
330
2
100
AcDbEntity
  8
0
100
AcDbLine
 10
6.495074847567288
 20
2.382402977704999
 30
0.0
 11
6.396662869864512
 21
2.439221159523179
 31
0.0
  0
LINE
  5
19C
330
2
100
AcDbEntity
  8
0
100
AcDbLine
 10
6.495074847567288
 20
2.723312068614089
 30
0.0
 11
6.396662869864512
 21
2.780130250432269
 31
0.0
  0
LINE
  5
19D
330
2
100
AcDbEntity
  8
0
100
AcDbLine
 10
6.396662869864512
 20
2.666493886795905
 30
0.0
 11
6.495074847567288
 21
2.723312068614089
 31
0.0
  0
LINE
  5
19E
330
2
100
AcDbEntity
  8
0
100
AcDbLine
 10
6.495074847567288
 20
2.836948432250452
 30
0.0
 11
6.396662869864512
 21
2.893766614068635
 31
0.0
  0
LINE
  5
19F
330
2
100
AcDbEntity
  8
0
100
AcDbLine
 10
6.396662869864512
 20
2.780130250432272
 30
0.0
 11
6.495074847567288
 21
2.836948432250452
 31
0.0
  0
LINE
  5
1A0
330
2
100
AcDbEntity
  8
0
100
AcDbLine
 10
6.396662869864512
 20
2.893766614068635
 30
0.0
 11
6.495074847567288
 21
2.950584795886815
 31
0.0
  0
LINE
  5
1A1
330
2
100
AcDbEntity
  8
0
100
AcDbLine
 10
7.079500892161736
 20
2.325579114068635
 30
0.0
 11
7.177912869864512
 21
2.382397295886815
 31
0.0
  0
LINE
  5
1A2
330
2
100
AcDbEntity
  8
0
100
AcDbLine
 10
7.17791286986451
 20
2.041488204977725
 30
0.0
 11
7.079500892161736
 21
2.098306386795905
 31
0.0
  0
LINE
  5
1A3
330
2
100
AcDbEntity
  8
0
100
AcDbLine
 10
7.079500892161736
 20
1.871033659523178
 30
0.0
 11
7.177912869864512
 21
1.927851841341361
 31
0.0
  0
LINE
  5
1A4
330
2
100
AcDbEntity
  8
0
100
AcDbLine
 10
7.079500892161736
 20
1.757397295886815
 30
0.0
 11
7.177912869864512
 21
1.814215477704998
 31
0.0
  0
LINE
  5
1A5
330
2
100
AcDbEntity
  8
0
100
AcDbLine
 10
7.17791286986451
 20
1.814215477704998
 30
0.0
 11
7.079500892161736
 21
1.871033659523178
 31
0.0
  0
LINE
  5
1A6
330
2
100
AcDbEntity
  8
0
100
AcDbLine
 10
7.17791286986451
 20
1.927851841341361
 30
0.0
 11
7.079500892161736
 21
1.984670023159541
 31
0.0
  0
LINE
  5
1A7
330
2
100
AcDbEntity
  8
0
100
AcDbLine
 10
7.079500892161736
 20
1.984670023159541
 30
0.0
 11
7.177912869864512
 21
2.041488204977725
 31
0.0
  0
LINE
  5
1A8
330
2
100
AcDbEntity
  8
0
100
AcDbLine
 10
7.079500892161736
 20
2.098306386795905
 30
0.0
 11
7.177912869864512
 21
2.155124568614088
 31
0.0
  0
LINE
  5
1A9
330
2
100
AcDbEntity
  8
0
100
AcDbLine
 10
7.17791286986451
 20
2.155124568614088
 30
0.0
 11
7.079500892161736
 21
2.211942750432272
 31
0.0
  0
LINE
  5
1AA
330
2
100
AcDbEntity
  8
0
100
AcDbLine
 10
7.079500892161736
 20
2.211942750432272
 30
0.0
 11
7.177912869864512
 21
2.268760932250451
 31
0.0
  0
LINE
  5
1AB
330
2
100
AcDbEntity
  8
0
100
AcDbLine
 10
7.17791286986451
 20
2.268760932250451
 30
0.0
 11
7.079500892161736
 21
2.325579114068635
 31
0.0
  0
LINE
  5
1AC
330
2
100
AcDbEntity
  8
0
100
AcDbLine
 10
7.17791286986451
 20
2.609670023159541
 30
0.0
 11
7.079500892161736
 21
2.666488204977725
 31
0.0
  0
LINE
  5
1AD
330
2
100
AcDbEntity
  8
0
100
AcDbLine
 10
7.17791286986451
 20
2.382397295886815
 30
0.0
 11
7.079500892161736
 21
2.439215477704998
 31
0.0
  0
LINE
  5
1AE
330
2
100
AcDbEntity
  8
0
100
AcDbLine
 10
7.079500892161736
 20
2.439215477704998
 30
0.0
 11
7.177912869864512
 21
2.496033659523178
 31
0.0
  0
LINE
  5
1AF
330
2
100
AcDbEntity
  8
0
100
AcDbLine
 10
7.17791286986451
 20
2.496033659523182
 30
0.0
 11
7.079500892161736
 21
2.552851841341358
 31
0.0
  0
LINE
  5
1B0
330
2
100
AcDbEntity
  8
0
100
AcDbLine
 10
7.079500892161736
 20
2.552851841341358
 30
0.0
 11
7.177912869864512
 21
2.609670023159541
 31
0.0
  0
LINE
  5
1B1
330
2
100
AcDbEntity
  8
0
100
AcDbLine
 10
7.079500892161736
 20
2.893760932250451
 30
0.0
 11
7.177912869864512
 21
2.950579114068631
 31
0.0
  0
LINE
  5
1B2
330
2
100
AcDbEntity
  8
0
100
AcDbLine
 10
7.079500892161736
 20
2.666488204977725
 30
0.0
 11
7.177912869864512
 21
2.723306386795905
 31
0.0
  0
LINE
  5
1B3
330
2
100
AcDbEntity
  8
0
100
AcDbLine
 10
7.17791286986451
 20
2.723306386795905
 30
0.0
 11
7.079500892161736
 21
2.780124568614088
 31
0.0
  0
LINE
  5
1B4
330
2
100
AcDbEntity
  8
0
100
AcDbLine
 10
7.079500892161736
 20
2.780124568614088
 30
0.0
 11
7.177912869864512
 21
2.836942750432268
 31
0.0
  0
LINE
  5
1B5
330
2
100
AcDbEntity
  8
0
100
AcDbLine
 10
7.17791286986451
 20
2.836942750432272
 30
0.0
 11
7.079500892161736
 21
2.893760932250451
 31
0.0
  0
LINE
  5
1B6
330
2
100
AcDbEntity
  8
0
100
AcDbLine
 10
6.831191058747308
 20
3.834456413055097
 30
0.0
 11
6.396662869864509
 21
3.802857523159541
 31
0.0
  0
LINE
  5
1B7
330
2
100
AcDbEntity
  8
0
100
AcDbLine
 10
6.552400290229516
 20
3.637975627557569
 30
0.0
 11
7.079500892161738
 21
3.689215477704997
 31
0.0
  0
LINE
  5
1B8
330
2
100
AcDbEntity
  8
0
100
AcDbLine
 10
6.49507484756729
 20
3.746039341341365
 30
0.0
 11
7.079500892161738
 21
3.802851841341361
 31
0.0
  0
LINE
  5
1B9
330
2
100
AcDbEntity
  8
0
100
AcDbLine
 10
7.177912869864514
 20
3.632397295886817
 30
0.0
 11
6.571454000767107
 21
3.588295606926051
 31
0.0
  0
LINE
  5
1BA
330
2
100
AcDbEntity
  8
0
100
AcDbLine
 10
7.177912869864514
 20
3.746033659523177
 30
0.0
 11
6.557848225694325
 21
3.700942558599125
 31
0.0
  0
LINE
  5
1BB
330
2
100
AcDbEntity
  8
0
100
AcDbLine
 10
7.177912869864512
 20
3.518760932250455
 30
0.0
 11
6.396662869864512
 21
3.461948432250452
 31
0.0
  0
LINE
  5
1BC
330
2
100
AcDbEntity
  8
0
100
AcDbLine
 10
6.570837044196249
 20
3.526131514787545
 30
0.0
 11
7.079500892161736
 21
3.575579114068635
 31
0.0
  0
LINE
  5
1BD
330
2
100
AcDbEntity
  8
0
100
AcDbLine
 10
7.177912869864512
 20
3.405124568614092
 30
0.0
 11
6.396662869864512
 21
3.348312068614089
 31
0.0
  0
LINE
  5
1BE
330
2
100
AcDbEntity
  8
0
100
AcDbLine
 10
7.177912869864512
 20
3.291488204977728
 30
0.0
 11
6.396662869864512
 21
3.234675704977725
 31
0.0
  0
LINE
  5
1BF
330
2
100
AcDbEntity
  8
0
100
AcDbLine
 10
6.495074847567288
 20
3.291493886795909
 30
0.0
 11
7.079500892161736
 21
3.348306386795908
 31
0.0
  0
LINE
  5
1C0
330
2
100
AcDbEntity
  8
0
100
AcDbLine
 10
6.495074847567288
 20
3.405130250432272
 30
0.0
 11
7.079500892161736
 21
3.461942750432272
 31
0.0
  0
ARC
  5
1C1
330
2
100
AcDbEntity
  8
0
100
AcDbCircle
 10
6.787287869864512
 20
5.407082321987877
 30
0.0
 40
1.362499999999996
100
AcDbArc
 50
259.0072669106907
 51
280.9927330893092
  0
LINE
  5
1C2
330
2
100
AcDbEntity
  8
0
100
AcDbLine
 10
7.176999301567513
 20
4.044582321987882
 30
0.0
 11
6.397576438161515
 21
4.044582321987882
 31
0.0
  0
LINE
  5
1C3
330
2
100
AcDbEntity
  8
0
100
AcDbLine
 10
5.987287869864511
 20
3.834456413055097
 30
0.0
 11
7.587287869864513
 21
3.834456413055097
 31
0.0
  0
LINE
  5
1C4
330
2
100
AcDbEntity
  8
0
100
AcDbLine
 10
5.987287869864511
 20
3.952856413055098
 30
0.0
 11
7.587287869864513
 21
3.952856413055098
 31
0.0
  0
LINE
  5
1C5
330
2
100
AcDbEntity
  8
0
100
AcDbLine
 10
6.495074847567288
 20
3.996039341341362
 30
0.0
 11
6.994432949605967
 21
4.044582321987882
 31
0.0
  0
LINE
  5
1C6
330
2
100
AcDbEntity
  8
0
100
AcDbLine
 10
6.495074847567288
 20
3.064221159523179
 30
0.0
 11
7.079500892161736
 21
3.121033659523178
 31
0.0
  0
LINE
  5
1C7
330
2
100
AcDbEntity
  8
0
100
AcDbLine
 10
6.495074847567288
 20
3.177857523159545
 30
0.0
 11
7.079500892161736
 21
3.234670023159541
 31
0.0
  0
LINE
  5
1C8
330
2
100
AcDbEntity
  8
0
100
AcDbLine
 10
7.177912869864512
 20
3.064215477704998
 30
0.0
 11
6.396662869864512
 21
3.007402977704995
 31
0.0
  0
LINE
  5
1C9
330
2
100
AcDbEntity
  8
0
100
AcDbLine
 10
7.177912869864512
 20
3.177851841341358
 30
0.0
 11
6.396662869864512
 21
3.121039341341362
 31
0.0
  0
LINE
  5
1CA
330
2
100
AcDbEntity
  8
0
100
AcDbLine
 10
7.177912869864512
 20
3.996033659523182
 30
0.0
 11
6.584166356277047
 21
3.952856413055098
 31
0.0
  0
LINE
  5
1CB
330
2
100
AcDbEntity
  8
0
100
AcDbLine
 10
6.396662869864514
 20
3.575584795886818
 30
0.0
 11
6.419893816883953
 21
3.58899718940202
 31
0.0
  0
LINE
  5
1CC
330
2
100
AcDbEntity
  8
0
100
AcDbLine
 10
6.396662869864512
 20
3.575584795886819
 30
0.0
 11
6.419893816883953
 21
3.588997189402023
 31
0.0
  0
SPLINE
  5
1CD
330
2
100
AcDbEntity
  8
0
100
AcDbSpline
210
0.0
220
0.0
230
1.0
 70
     8
 71
     3
 72
    11
 73
     7
 74
     5
 42
0.0000000001
 43
0.0000000001
 44
0.0000000001
 40
0.0
 40
0.0
 40
0.0
 40
0.0
 40
0.0480845167207121
 40
0.1291811622031157
 40
0.209280613071315
 40
0.2761745749011507
 40
0.2761745749011507
 40
0.2761745749011507
 40
0.2761745749011507
 10
6.513599999479041
 20
3.747480160028697
 30
0.0
 10
6.530136519768504
 20
3.740057086796915
 30
0.0
 10
6.57456260648985
 20
3.720114675131011
 30
0.0
 10
6.533605881678192
 20
3.635319022392173
 30
0.0
 10
6.594041043438555
 20
3.569298441313934
 30
0.0
 10
6.569449698503133
 20
3.52190247408008
 30
0.0
 10
6.55825863718445
 20
3.500333453686588
 30
0.0
 11
6.513599999479041
 21
3.747480160028697
 31
0.0
 11
6.553551509459172
 21
3.720722028581006
 31
0.0
 11
6.552205445290518
 21
3.639636555037637
 31
0.0
 11
6.578672959776698
 21
3.564036338726366
 31
0.0
 11
6.55825863718445
 21
3.500333453686588
 31
0.0
  0
SPLINE
  5
1CE
330
2
100
AcDbEntity
  8
0
100
AcDbSpline
210
0.0
220
0.0
230
1.0
 70
     8
 71
     3
 72
    11
 73
     7
 74
     5
 42
0.0000000001
 43
0.0000000001
 44
0.0000000001
 40
0.0
 40
0.0
 40
0.0
 40
0.0
 40
0.0480845167207115
 40
0.1291811622031154
 40
0.2092806130713139
 40
0.2761745749011508
 40
0.2761745749011508
 40
0.2761745749011508
 40
0.2761745749011508
 10
6.443588207311658
 20
3.747150861354353
 30
0.0
 10
6.42880044655462
 20
3.736668464158369
 30
0.0
 10
6.389072478983037
 20
3.708507044541385
 30
0.0
 10
6.445662080260132
 20
3.633238372248677
 30
0.0
 10
6.399143082697353
 20
3.556771983262324
 30
0.0
 10
6.432440214377386
 20
3.515029764424514
 30
0.0
 10
6.447593119537704
 20
3.49603365952318
 30
0.0
 11
6.443588207311658
 21
3.747150861354353
 31
0.0
 11
6.409569011758572
 21
3.713168291083914
 31
0.0
 11
6.426578609535115
 21
3.633875545564674
 31
0.0
 11
6.415238900362647
 21
3.554582840822871
 31
0.0
 11
6.447593119537704
 21
3.49603365952318
 31
0.0
  0
LINE
  5
1CF
330
2
100
AcDbEntity
  8
0
100
AcDbLine
 10
6.396662869864512
 20
3.234675704977729
 30
0.0
 11
6.495074847567288
 21
3.291493886795909
 31
0.0
  0
LINE
  5
1D0
330
2
100
AcDbEntity
  8
0
100
AcDbLine
 10
6.495074847567288
 20
3.177857523159545
 30
0.0
 11
6.396662869864512
 21
3.234675704977725
 31
0.0
  0
LINE
  5
1D1
330
2
100
AcDbEntity
  8
0
100
AcDbLine
 10
6.396662869864512
 20
3.121039341341362
 30
0.0
 11
6.495074847567288
 21
3.177857523159545
 31
0.0
  0
LINE
  5
1D2
330
2
100
AcDbEntity
  8
0
100
AcDbLine
 10
6.495074847567288
 20
3.064221159523179
 30
0.0
 11
6.396662869864512
 21
3.121039341341362
 31
0.0
  0
LINE
  5
1D3
330
2
100
AcDbEntity
  8
0
100
AcDbLine
 10
6.396662869864512
 20
3.007402977704999
 30
0.0
 11
6.495074847567288
 21
3.064221159523179
 31
0.0
  0
SPLINE
  5
1D4
330
2
100
AcDbEntity
  8
0
100
AcDbSpline
210
0.0
220
0.0
230
1.0
 70
     8
 71
     3
 72
     9
 73
     5
 74
     3
 42
0.0000000001
 43
0.0000000001
 44
0.0000000001
 40
0.0
 40
0.0
 40
0.0
 40
0.0
 40
0.0523247462688227
 40
0.1154156910708552
 40
0.1154156910708552
 40
0.1154156910708552
 40
0.1154156910708552
 10
6.447593119537704
 20
3.49603365952318
 30
0.0
 10
6.464403396839739
 20
3.489057449356698
 30
0.0
 10
6.501482788719427
 20
3.473669622853279
 30
0.0
 10
6.538191919454487
 20
3.490909454068695
 30
0.0
 10
6.558258637184448
 20
3.500333453686588
 30
0.0
 11
6.447593119537704
 21
3.49603365952318
 31
0.0
 11
6.497947850036361
 21
3.481811135538168
 31
0.0
 11
6.558258637184448
 21
3.500333453686588
 31
0.0
  0
LINE
  5
1D5
330
2
100
AcDbEntity
  8
0
100
AcDbLine
 10
6.417037136390965
 20
3.577066412548622
 30
0.0
 11
6.396662869864512
 21
3.575584795886819
 31
0.0
  0
LINE
  5
1D6
330
2
100
AcDbEntity
  8
0
100
AcDbLine
 10
6.417037136390965
 20
3.577066412548618
 30
0.0
 11
6.396662869864514
 21
3.575584795886814
 31
0.0
  0
LINE
  5
1D7
330
2
100
AcDbEntity
  8
0
100
AcDbLine
 10
6.415196805269902
 20
3.564884223291373
 30
0.0
 11
6.396662869864514
 21
3.575584795886818
 31
0.0
  0
LINE
  5
1D8
330
2
100
AcDbEntity
  8
0
100
AcDbLine
 10
6.396662869864512
 20
3.461948432250456
 30
0.0
 11
6.452315372980188
 21
3.494079419905367
 31
0.0
  0
LINE
  5
1D9
330
2
100
AcDbEntity
  8
0
100
AcDbLine
 10
6.415196805269902
 20
3.564884223291373
 30
0.0
 11
6.396662869864512
 21
3.575584795886819
 31
0.0
  0
LINE
  5
1DA
330
2
100
AcDbEntity
  8
0
100
AcDbLine
 10
6.396662869864512
 20
3.348312068614092
 30
0.0
 11
6.495074847567288
 21
3.405130250432272
 31
0.0
  0
LINE
  5
1DB
330
2
100
AcDbEntity
  8
0
100
AcDbLine
 10
6.495074847567288
 20
3.405130250432272
 30
0.0
 11
6.396662869864512
 21
3.461948432250456
 31
0.0
  0
LINE
  5
1DC
330
2
100
AcDbEntity
  8
0
100
AcDbLine
 10
6.495074847567288
 20
3.291493886795909
 30
0.0
 11
6.396662869864512
 21
3.348312068614092
 31
0.0
  0
LINE
  5
1DD
330
2
100
AcDbEntity
  8
0
100
AcDbLine
 10
5.987287869864511
 20
3.952856413055098
 30
0.0
 11
5.987287869864511
 21
3.834456413055097
 31
0.0
  0
LINE
  5
1DE
330
2
100
AcDbEntity
  8
0
100
AcDbLine
 10
6.40980690648731
 20
3.690176993866391
 30
0.0
 11
6.396662869864514
 21
3.689221159523181
 31
0.0
  0
SPLINE
  5
1DF
330
2
100
AcDbEntity
  8
0
100
AcDbSpline
210
0.0
220
0.0
230
1.0
 70
     8
 71
     3
 72
     9
 73
     5
 74
     3
 42
0.0000000001
 43
0.0000000001
 44
0.0000000001
 40
0.0
 40
0.0
 40
0.0
 40
0.0
 40
0.0335211547676817
 40
0.0700132779650708
 40
0.0700132779650708
 40
0.0700132779650708
 40
0.0700132779650708
 10
6.443588207311658
 20
3.747150861354353
 30
0.0
 10
6.454762034829548
 20
3.7471267237896
 30
0.0
 10
6.478100022359083
 20
3.747076309356024
 30
0.0
 10
6.501436579963599
 20
3.747341786165682
 30
0.0
 10
6.513599999479041
 20
3.747480160028697
 30
0.0
 11
6.443588207311658
 21
3.747150861354353
 31
0.0
 11
6.477109362079339
 21
3.747150861354353
 31
0.0
 11
6.513599999479041
 21
3.747480160028697
 31
0.0
  0
LINE
  5
1E0
330
2
100
AcDbEntity
  8
0
100
AcDbLine
 10
6.495074847567285
 20
3.746039341341358
 30
0.0
 11
6.396662869864509
 21
3.802857523159541
 31
0.0
  0
LINE
  5
1E1
330
2
100
AcDbEntity
  8
0
100
AcDbLine
 10
6.396662869864509
 20
3.802857523159541
 30
0.0
 11
6.451393752626387
 21
3.834456413055098
 31
0.0
  0
LINE
  5
1E2
330
2
100
AcDbEntity
  8
0
100
AcDbLine
 10
6.396662869864514
 20
3.689221159523181
 30
0.0
 11
6.408600671791634
 21
3.696113452679337
 31
0.0
  0
LINE
  5
1E3
330
2
100
AcDbEntity
  8
0
100
AcDbLine
 10
6.412897489416395
 20
3.679848097554711
 30
0.0
 11
6.396662869864514
 21
3.689221159523181
 31
0.0
  0
ARC
  5
1E4
330
2
100
AcDbEntity
  8
0
100
AcDbCircle
 10
6.397576438161515
 20
4.394582321987874
 30
0.0
 40
0.3499999999999915
100
AcDbArc
 50
248.2132107017378
 51
291.7867892982621
  0
LINE
  5
1E5
330
2
100
AcDbEntity
  8
0
100
AcDbLine
 10
6.495074847567288
 20
3.996039341341362
 30
0.0
 11
6.410995938736686
 21
4.044582321987882
 31
0.0
  0
LINE
  5
1E6
330
2
100
AcDbEntity
  8
0
100
AcDbLine
 10
6.420279821755877
 20
3.952856413055098
 30
0.0
 11
6.495074847567288
 21
3.996039341341362
 31
0.0
  0
LINE
  5
1E7
330
2
100
AcDbEntity
  8
0
100
AcDbLine
 10
7.079500892161738
 20
3.575579114068634
 30
0.0
 11
7.177912869864514
 21
3.632397295886817
 31
0.0
  0
LINE
  5
1E8
330
2
100
AcDbEntity
  8
0
100
AcDbLine
 10
7.079500892161736
 20
3.575579114068635
 30
0.0
 11
7.177912869864512
 21
3.632397295886815
 31
0.0
  0
LINE
  5
1E9
330
2
100
AcDbEntity
  8
0
100
AcDbLine
 10
7.079500892161736
 20
3.234670023159545
 30
0.0
 11
7.177912869864512
 21
3.291488204977725
 31
0.0
  0
LINE
  5
1EA
330
2
100
AcDbEntity
  8
0
100
AcDbLine
 10
7.079500892161736
 20
3.121033659523178
 30
0.0
 11
7.177912869864512
 21
3.177851841341358
 31
0.0
  0
LINE
  5
1EB
330
2
100
AcDbEntity
  8
0
100
AcDbLine
 10
7.079500892161736
 20
3.007397295886815
 30
0.0
 11
7.177912869864512
 21
3.064215477704998
 31
0.0
  0
LINE
  5
1EC
330
2
100
AcDbEntity
  8
0
100
AcDbLine
 10
7.17791286986451
 20
3.064215477704998
 30
0.0
 11
7.079500892161736
 21
3.121033659523178
 31
0.0
  0
LINE
  5
1ED
330
2
100
AcDbEntity
  8
0
100
AcDbLine
 10
7.17791286986451
 20
3.177851841341358
 30
0.0
 11
7.079500892161736
 21
3.234670023159541
 31
0.0
  0
LINE
  5
1EE
330
2
100
AcDbEntity
  8
0
100
AcDbLine
 10
7.17791286986451
 20
3.518760932250455
 30
0.0
 11
7.079500892161736
 21
3.575579114068635
 31
0.0
  0
LINE
  5
1EF
330
2
100
AcDbEntity
  8
0
100
AcDbLine
 10
7.079500892161736
 20
3.461942750432272
 30
0.0
 11
7.177912869864512
 21
3.518760932250455
 31
0.0
  0
LINE
  5
1F0
330
2
100
AcDbEntity
  8
0
100
AcDbLine
 10
7.17791286986451
 20
3.291488204977728
 30
0.0
 11
7.079500892161736
 21
3.348306386795908
 31
0.0
  0
LINE
  5
1F1
330
2
100
AcDbEntity
  8
0
100
AcDbLine
 10
7.079500892161736
 20
3.348306386795908
 30
0.0
 11
7.177912869864512
 21
3.405124568614088
 31
0.0
  0
LINE
  5
1F2
330
2
100
AcDbEntity
  8
0
100
AcDbLine
 10
7.17791286986451
 20
3.405124568614092
 30
0.0
 11
7.079500892161736
 21
3.461942750432272
 31
0.0
  0
LINE
  5
1F3
330
2
100
AcDbEntity
  8
0
100
AcDbLine
 10
7.079500892161732
 20
3.802851841341357
 30
0.0
 11
7.134241616121388
 21
3.834456413055097
 31
0.0
  0
LINE
  5
1F4
330
2
100
AcDbEntity
  8
0
100
AcDbLine
 10
7.177912869864512
 20
3.746033659523177
 30
0.0
 11
7.079500892161738
 21
3.802851841341361
 31
0.0
  0
LINE
  5
1F5
330
2
100
AcDbEntity
  8
0
100
AcDbLine
 10
7.177912869864512
 20
3.632397295886817
 30
0.0
 11
7.079500892161738
 21
3.689215477704997
 31
0.0
  0
LINE
  5
1F6
330
2
100
AcDbEntity
  8
0
100
AcDbLine
 10
7.079500892161738
 20
3.689215477704997
 30
0.0
 11
7.177912869864514
 21
3.746033659523177
 31
0.0
  0
LINE
  5
1F7
330
2
100
AcDbEntity
  8
0
100
AcDbLine
 10
7.17791286986451
 20
3.632397295886815
 30
0.0
 11
7.079500892161736
 21
3.689215477704998
 31
0.0
  0
ARC
  5
1F8
330
2
100
AcDbEntity
  8
0
100
AcDbCircle
 10
7.176999301567513
 20
4.394582321987894
 30
0.0
 40
0.3500000000000102
100
AcDbArc
 50
248.2132107017385
 51
291.7867892982612
  0
LINE
  5
1F9
330
2
100
AcDbEntity
  8
0
100
AcDbLine
 10
7.103127685250874
 20
3.952856413055098
 30
0.0
 11
7.177912869864512
 21
3.996033659523178
 31
0.0
  0
LINE
  5
1FA
330
2
100
AcDbEntity
  8
0
100
AcDbLine
 10
7.17791286986451
 20
3.996033659523182
 30
0.0
 11
7.093824119836132
 21
4.044582321987882
 31
0.0
  0
LINE
  5
1FB
330
2
100
AcDbEntity
  8
0
100
AcDbLine
 10
7.587287869864513
 20
3.952856413055098
 30
0.0
 11
7.587287869864513
 21
3.834456413055097
 31
0.0
  0
LINE
  5
1FC
330
2
100
AcDbEntity
  8
0
100
AcDbLine
 10
-1.625
 20
8.250000000000004
 30
0.0
 11
1.625
 21
8.250000000000004
 31
0.0
  0
LINE
  5
1FD
330
2
100
AcDbEntity
  8
0
100
AcDbLine
 10
1.625
 20
6.0
 30
0.0
 11
-1.625
 21
6.0
 31
0.0
  0
LINE
  5
1FE
330
2
100
AcDbEntity
  8
0
100
AcDbLine
 10
-1.625
 20
6.282959810794495
 30
0.0
 11
-1.625
 21
8.250000000000004
 31
0.0
  0
LINE
  5
1FF
330
2
100
AcDbEntity
  8
0
100
AcDbLine
 10
-1.5625
 20
6.0
 30
0.0
 11
-1.5625
 21
6.232959810794494
 31
0.0
  0
LINE
  5
200
330
2
100
AcDbEntity
  8
0
100
AcDbLine
 10
-1.625
 20
6.0
 30
0.0
 11
-1.625
 21
6.121033659523183
 31
0.0
  0
ARC
  5
201
330
2
100
AcDbEntity
  8
0
100
AcDbCircle
 10
-1.612500000000001
 20
6.232959810794494
 30
0.0
 40
0.05
100
AcDbArc
 50
359.9999999999999
 51
90.0
  0
LINE
  5
202
330
2
100
AcDbEntity
  8
0
100
AcDbLine
 10
-1.612500000000001
 20
6.282959810794495
 30
0.0
 11
-1.625
 21
6.282959810794495
 31
0.0
  0
LINE
  5
203
330
2
100
AcDbEntity
  8
0
100
AcDbLine
 10
1.625
 20
8.250000000000004
 30
0.0
 11
1.625
 21
6.282959810794496
 31
0.0
  0
LINE
  5
204
330
2
100
AcDbEntity
  8
0
100
AcDbLine
 10
0.3906200794011205
 20
5.454545454545459
 30
0.0
 11
-0.3906299205988795
 21
5.397732954545456
 31
0.0
  0
LINE
  5
205
330
2
100
AcDbEntity
  8
0
100
AcDbLine
 10
-0.3906299205988795
 20
5.397732954545456
 30
0.0
 11
-0.2922179428961034
 21
5.454551136363639
 31
0.0
  0
LINE
  5
206
330
2
100
AcDbEntity
  8
0
100
AcDbLine
 10
0.2922081016983444
 20
5.397727272727275
 30
0.0
 11
0.3906200794011205
 21
5.454545454545455
 31
0.0
  0
LINE
  5
207
330
2
100
AcDbEntity
  8
0
100
AcDbLine
 10
-0.2922179428961034
 20
5.000005681818182
 30
0.0
 11
0.2922081016983444
 21
5.056818181818182
 31
0.0
  0
LINE
  5
208
330
2
100
AcDbEntity
  8
0
100
AcDbLine
 10
-0.2922179428961034
 20
4.886369318181819
 30
0.0
 11
0.2922081016983444
 21
4.943181818181818
 31
0.0
  0
LINE
  5
209
330
2
100
AcDbEntity
  8
0
100
AcDbLine
 10
-0.2922179428961034
 20
5.113642045454546
 30
0.0
 11
0.2922081016983444
 21
5.170454545454549
 31
0.0
  0
LINE
  5
20A
330
2
100
AcDbEntity
  8
0
100
AcDbLine
 10
-0.2922179428961034
 20
5.340914772727276
 30
0.0
 11
0.2922081016983444
 21
5.397727272727275
 31
0.0
  0
LINE
  5
20B
330
2
100
AcDbEntity
  8
0
100
AcDbLine
 10
-0.2922179428961034
 20
5.227278409090912
 30
0.0
 11
0.2922081016983444
 21
5.284090909090912
 31
0.0
  0
ARC
  5
20C
330
2
100
AcDbEntity
  8
0
100
AcDbCircle
 10
-0.0000049205988812
 20
3.211110380950065
 30
0.0
 40
1.362499999999996
100
AcDbArc
 50
79.00726691069063
 51
100.9927330893092
  0
LINE
  5
20D
330
2
100
AcDbEntity
  8
0
100
AcDbLine
 10
-0.2922179428961034
 20
4.659096590909089
 30
0.0
 11
0.2922081016983444
 21
4.715909090909092
 31
0.0
  0
LINE
  5
20E
330
2
100
AcDbEntity
  8
0
100
AcDbLine
 10
-0.2922179428961034
 20
4.772732954545456
 30
0.0
 11
0.2922081016983444
 21
4.829545454545452
 31
0.0
  0
LINE
  5
20F
330
2
100
AcDbEntity
  8
0
100
AcDbLine
 10
0.3906200794011205
 20
5.113636363636362
 30
0.0
 11
-0.3906299205988795
 21
5.056823863636362
 31
0.0
  0
LINE
  5
210
330
2
100
AcDbEntity
  8
0
100
AcDbLine
 10
0.3906200794011205
 20
5.000000000000002
 30
0.0
 11
-0.3906299205988795
 21
4.943187499999999
 31
0.0
  0
LINE
  5
211
330
2
100
AcDbEntity
  8
0
100
AcDbLine
 10
0.3906200794011205
 20
4.886363636363635
 30
0.0
 11
-0.3906299205988795
 21
4.829551136363635
 31
0.0
  0
LINE
  5
212
330
2
100
AcDbEntity
  8
0
100
AcDbLine
 10
0.3906200794011205
 20
4.772727272727272
 30
0.0
 11
-0.3906299205988795
 21
4.715914772727272
 31
0.0
  0
LINE
  5
213
330
2
100
AcDbEntity
  8
0
100
AcDbLine
 10
0.3906200794011205
 20
4.659090909090908
 30
0.0
 11
-0.3906299205988795
 21
4.602278409090909
 31
0.0
  0
LINE
  5
214
330
2
100
AcDbEntity
  8
0
100
AcDbLine
 10
0.3906200794011205
 20
5.227272727272728
 30
0.0
 11
-0.3906299205988795
 21
5.170460227272729
 31
0.0
  0
LINE
  5
215
330
2
100
AcDbEntity
  8
0
100
AcDbLine
 10
0.3906200794011205
 20
5.340909090909092
 30
0.0
 11
-0.3906299205988795
 21
5.284096590909092
 31
0.0
  0
LINE
  5
216
330
2
100
AcDbEntity
  8
0
100
AcDbLine
 10
0.3897065111041211
 20
4.580548662464702
 30
0.0
 11
-0.3897163523018747
 21
4.580548662464702
 31
0.0
  0
LINE
  5
217
330
2
100
AcDbEntity
  8
0
100
AcDbLine
 10
-0.2922179428961034
 20
4.772732954545456
 30
0.0
 11
-0.3906299205988795
 21
4.829551136363635
 31
0.0
  0
ARC
  5
218
330
2
100
AcDbEntity
  8
0
100
AcDbCircle
 10
-0.3897163523018765
 20
4.230548662464711
 30
0.0
 40
0.3499999999999915
100
AcDbArc
 50
68.21321070173785
 51
111.786789298262
  0
LINE
  5
219
330
2
100
AcDbEntity
  8
0
100
AcDbLine
 10
-0.3906299205988795
 20
4.715914772727272
 30
0.0
 11
-0.2922179428961034
 21
4.772732954545456
 31
0.0
  0
LINE
  5
21A
330
2
100
AcDbEntity
  8
0
100
AcDbLine
 10
-0.3906299205988795
 20
4.602278409090909
 30
0.0
 11
-0.2922179428961034
 21
4.659096590909089
 31
0.0
  0
LINE
  5
21B
330
2
100
AcDbEntity
  8
0
100
AcDbLine
 10
-0.3529928954066932
 20
4.580548662464702
 30
0.0
 11
-0.3906299205988795
 21
4.602278409090909
 31
0.0
  0
LINE
  5
21C
330
2
100
AcDbEntity
  8
0
100
AcDbLine
 10
-0.2922179428961034
 20
4.659096590909089
 30
0.0
 11
-0.3906299205988795
 21
4.715914772727272
 31
0.0
  0
LINE
  5
21D
330
2
100
AcDbEntity
  8
0
100
AcDbLine
 10
-0.3906299205988795
 20
5.056823863636366
 30
0.0
 11
-0.2922179428961034
 21
5.113642045454546
 31
0.0
  0
LINE
  5
21E
330
2
100
AcDbEntity
  8
0
100
AcDbLine
 10
-0.2922179428961034
 20
5.000005681818182
 30
0.0
 11
-0.3906299205988795
 21
5.056823863636362
 31
0.0
  0
LINE
  5
21F
330
2
100
AcDbEntity
  8
0
100
AcDbLine
 10
-0.3906299205988795
 20
4.829551136363639
 30
0.0
 11
-0.2922179428961034
 21
4.886369318181819
 31
0.0
  0
LINE
  5
220
330
2
100
AcDbEntity
  8
0
100
AcDbLine
 10
-0.2922179428961034
 20
4.886369318181819
 30
0.0
 11
-0.3906299205988795
 21
4.943187499999999
 31
0.0
  0
LINE
  5
221
330
2
100
AcDbEntity
  8
0
100
AcDbLine
 10
-0.3906299205988795
 20
4.943187499999999
 30
0.0
 11
-0.2922179428961034
 21
5.000005681818182
 31
0.0
  0
LINE
  5
222
330
2
100
AcDbEntity
  8
0
100
AcDbLine
 10
-0.2922179428961034
 20
5.340914772727276
 30
0.0
 11
-0.3906299205988795
 21
5.397732954545456
 31
0.0
  0
LINE
  5
223
330
2
100
AcDbEntity
  8
0
100
AcDbLine
 10
-0.2922179428961034
 20
5.113642045454546
 30
0.0
 11
-0.3906299205988795
 21
5.170460227272729
 31
0.0
  0
LINE
  5
224
330
2
100
AcDbEntity
  8
0
100
AcDbLine
 10
-0.3906299205988795
 20
5.170460227272729
 30
0.0
 11
-0.2922179428961034
 21
5.227278409090912
 31
0.0
  0
LINE
  5
225
330
2
100
AcDbEntity
  8
0
100
AcDbLine
 10
-0.2922179428961034
 20
5.227278409090912
 30
0.0
 11
-0.3906299205988795
 21
5.284096590909092
 31
0.0
  0
LINE
  5
226
330
2
100
AcDbEntity
  8
0
100
AcDbLine
 10
-0.3906299205988795
 20
5.284096590909096
 30
0.0
 11
-0.2922179428961034
 21
5.340914772727276
 31
0.0
  0
LINE
  5
227
330
2
100
AcDbEntity
  8
0
100
AcDbLine
 10
0.3906200794011188
 20
4.772727272727272
 30
0.0
 11
0.2922081016983444
 21
4.829545454545452
 31
0.0
  0
ARC
  5
228
330
2
100
AcDbEntity
  8
0
100
AcDbCircle
 10
0.3897065111041211
 20
4.23054866246469
 30
0.0
 40
0.3500000000000102
100
AcDbArc
 50
68.21321070173863
 51
111.7867892982614
  0
LINE
  5
229
330
2
100
AcDbEntity
  8
0
100
AcDbLine
 10
0.3298352856927602
 20
4.580548662464702
 30
0.0
 11
0.2922081016983444
 21
4.602272727272725
 31
0.0
  0
LINE
  5
22A
330
2
100
AcDbEntity
  8
0
100
AcDbLine
 10
0.2922081016983444
 20
4.715909090909092
 30
0.0
 11
0.3906200794011205
 21
4.772727272727272
 31
0.0
  0
LINE
  5
22B
330
2
100
AcDbEntity
  8
0
100
AcDbLine
 10
0.2922081016983444
 20
4.602272727272725
 30
0.0
 11
0.3906200794011205
 21
4.659090909090908
 31
0.0
  0
LINE
  5
22C
330
2
100
AcDbEntity
  8
0
100
AcDbLine
 10
0.3906200794011188
 20
4.659090909090908
 30
0.0
 11
0.2922081016983444
 21
4.715909090909092
 31
0.0
  0
LINE
  5
22D
330
2
100
AcDbEntity
  8
0
100
AcDbLine
 10
0.0687342311898087
 20
4.580548662464702
 30
0.0
 11
0.2922081016983444
 21
4.602272727272725
 31
0.0
  0
LINE
  5
22E
330
2
100
AcDbEntity
  8
0
100
AcDbLine
 10
0.2922081016983444
 20
5.056818181818182
 30
0.0
 11
0.3906200794011205
 21
5.113636363636362
 31
0.0
  0
LINE
  5
22F
330
2
100
AcDbEntity
  8
0
100
AcDbLine
 10
0.3906200794011188
 20
5.000000000000002
 30
0.0
 11
0.2922081016983444
 21
5.056818181818182
 31
0.0
  0
LINE
  5
230
330
2
100
AcDbEntity
  8
0
100
AcDbLine
 10
0.3906200794011188
 20
4.886363636363635
 30
0.0
 11
0.2922081016983444
 21
4.943181818181818
 31
0.0
  0
LINE
  5
231
330
2
100
AcDbEntity
  8
0
100
AcDbLine
 10
0.2922081016983444
 20
4.829545454545452
 30
0.0
 11
0.3906200794011205
 21
4.886363636363635
 31
0.0
  0
LINE
  5
232
330
2
100
AcDbEntity
  8
0
100
AcDbLine
 10
0.2922081016983444
 20
4.943181818181818
 30
0.0
 11
0.3906200794011205
 21
4.999999999999998
 31
0.0
  0
LINE
  5
233
330
2
100
AcDbEntity
  8
0
100
AcDbLine
 10
0.3906200794011188
 20
5.340909090909092
 30
0.0
 11
0.2922081016983444
 21
5.397727272727275
 31
0.0
  0
LINE
  5
234
330
2
100
AcDbEntity
  8
0
100
AcDbLine
 10
0.3906200794011188
 20
5.113636363636362
 30
0.0
 11
0.2922081016983444
 21
5.170454545454549
 31
0.0
  0
LINE
  5
235
330
2
100
AcDbEntity
  8
0
100
AcDbLine
 10
0.2922081016983444
 20
5.170454545454549
 30
0.0
 11
0.3906200794011205
 21
5.227272727272728
 31
0.0
  0
LINE
  5
236
330
2
100
AcDbEntity
  8
0
100
AcDbLine
 10
0.3906200794011188
 20
5.227272727272728
 30
0.0
 11
0.2922081016983444
 21
5.284090909090912
 31
0.0
  0
LINE
  5
237
330
2
100
AcDbEntity
  8
0
100
AcDbLine
 10
0.2922081016983444
 20
5.284090909090912
 30
0.0
 11
0.3906200794011205
 21
5.340909090909092
 31
0.0
  0
LINE
  5
238
330
2
100
AcDbEntity
  8
0
100
AcDbLine
 10
0.3906200794011205
 20
5.909090909090912
 30
0.0
 11
-0.3906299205988795
 21
5.852278409090912
 31
0.0
  0
LINE
  5
239
330
2
100
AcDbEntity
  8
0
100
AcDbLine
 10
-0.2922179428961034
 20
5.909096590909096
 30
0.0
 11
0.2922081016983444
 21
5.965909090909095
 31
0.0
  0
LINE
  5
23A
330
2
100
AcDbEntity
  8
0
100
AcDbLine
 10
-0.2922179428961034
 20
5.795460227272729
 30
0.0
 11
0.2922081016983444
 21
5.852272727272732
 31
0.0
  0
LINE
  5
23B
330
2
100
AcDbEntity
  8
0
100
AcDbLine
 10
-0.2922179428961034
 20
5.681823863636369
 30
0.0
 11
0.2922081016983444
 21
5.738636363636365
 31
0.0
  0
LINE
  5
23C
330
2
100
AcDbEntity
  8
0
100
AcDbLine
 10
-0.2922179428961034
 20
5.454551136363639
 30
0.0
 11
0.2922081016983444
 21
5.511363636363639
 31
0.0
  0
LINE
  5
23D
330
2
100
AcDbEntity
  8
0
100
AcDbLine
 10
-0.2922179428961034
 20
5.568187500000002
 30
0.0
 11
0.2922081016983444
 21
5.625000000000002
 31
0.0
  0
LINE
  5
23E
330
2
100
AcDbEntity
  8
0
100
AcDbLine
 10
0.0780888262757742
 20
6.0
 30
0.0
 11
-0.3906299205988795
 21
5.965914772727276
 31
0.0
  0
LINE
  5
23F
330
2
100
AcDbEntity
  8
0
100
AcDbLine
 10
0.3906200794011205
 20
5.795454545454549
 30
0.0
 11
-0.3906299205988795
 21
5.738642045454549
 31
0.0
  0
LINE
  5
240
330
2
100
AcDbEntity
  8
0
100
AcDbLine
 10
0.3906200794011205
 20
5.681818181818185
 30
0.0
 11
-0.3906299205988795
 21
5.625005681818186
 31
0.0
  0
LINE
  5
241
330
2
100
AcDbEntity
  8
0
100
AcDbLine
 10
0.3906200794011205
 20
5.568181818181822
 30
0.0
 11
-0.3906299205988795
 21
5.511369318181819
 31
0.0
  0
LINE
  5
242
330
2
100
AcDbEntity
  8
0
100
AcDbLine
 10
-0.2922179428961034
 20
5.681823863636369
 30
0.0
 11
-0.3906299205988795
 21
5.738642045454549
 31
0.0
  0
LINE
  5
243
330
2
100
AcDbEntity
  8
0
100
AcDbLine
 10
-0.3906299205988795
 20
5.625005681818186
 30
0.0
 11
-0.2922179428961034
 21
5.681823863636369
 31
0.0
  0
LINE
  5
244
330
2
100
AcDbEntity
  8
0
100
AcDbLine
 10
-0.3906299205988795
 20
5.511369318181822
 30
0.0
 11
-0.2922179428961034
 21
5.568187500000002
 31
0.0
  0
LINE
  5
245
330
2
100
AcDbEntity
  8
0
100
AcDbLine
 10
-0.2922179428961034
 20
5.454551136363639
 30
0.0
 11
-0.3906299205988795
 21
5.511369318181819
 31
0.0
  0
LINE
  5
246
330
2
100
AcDbEntity
  8
0
100
AcDbLine
 10
-0.2922179428961034
 20
5.568187500000002
 30
0.0
 11
-0.3906299205988795
 21
5.625005681818186
 31
0.0
  0
LINE
  5
247
330
2
100
AcDbEntity
  8
0
100
AcDbLine
 10
-0.3906299205988795
 20
5.965914772727279
 30
0.0
 11
-0.3315925751749944
 21
5.999999999999998
 31
0.0
  0
LINE
  5
248
330
2
100
AcDbEntity
  8
0
100
AcDbLine
 10
-0.2922179428961034
 20
5.909096590909096
 30
0.0
 11
-0.3906299205988795
 21
5.965914772727276
 31
0.0
  0
LINE
  5
249
330
2
100
AcDbEntity
  8
0
100
AcDbLine
 10
-0.2922179428961034
 20
5.795460227272729
 30
0.0
 11
-0.3906299205988795
 21
5.852278409090912
 31
0.0
  0
LINE
  5
24A
330
2
100
AcDbEntity
  8
0
100
AcDbLine
 10
-0.3906299205988795
 20
5.738642045454549
 30
0.0
 11
-0.2922179428961034
 21
5.795460227272729
 31
0.0
  0
LINE
  5
24B
330
2
100
AcDbEntity
  8
0
100
AcDbLine
 10
-0.3906299205988795
 20
5.852278409090912
 30
0.0
 11
-0.2922179428961034
 21
5.909096590909096
 31
0.0
  0
LINE
  5
24C
330
2
100
AcDbEntity
  8
0
100
AcDbLine
 10
0.3906200794011188
 20
5.681818181818185
 30
0.0
 11
0.2922081016983444
 21
5.738636363636365
 31
0.0
  0
LINE
  5
24D
330
2
100
AcDbEntity
  8
0
100
AcDbLine
 10
0.2922081016983444
 20
5.625000000000002
 30
0.0
 11
0.3906200794011205
 21
5.681818181818182
 31
0.0
  0
LINE
  5
24E
330
2
100
AcDbEntity
  8
0
100
AcDbLine
 10
0.2922081016983444
 20
5.511363636363639
 30
0.0
 11
0.3906200794011205
 21
5.568181818181822
 31
0.0
  0
LINE
  5
24F
330
2
100
AcDbEntity
  8
0
100
AcDbLine
 10
0.3906200794011188
 20
5.454545454545459
 30
0.0
 11
0.2922081016983444
 21
5.511363636363639
 31
0.0
  0
LINE
  5
250
330
2
100
AcDbEntity
  8
0
100
AcDbLine
 10
0.3906200794011188
 20
5.568181818181822
 30
0.0
 11
0.2922081016983444
 21
5.625000000000002
 31
0.0
  0
LINE
  5
251
330
2
100
AcDbEntity
  8
0
100
AcDbLine
 10
0.3906200794011188
 20
5.909090909090912
 30
0.0
 11
0.2922081016983444
 21
5.965909090909095
 31
0.0
  0
LINE
  5
252
330
2
100
AcDbEntity
  8
0
100
AcDbLine
 10
0.2922081016983444
 20
5.965909090909095
 30
0.0
 11
0.3512552883200026
 21
5.999999999999998
 31
0.0
  0
LINE
  5
253
330
2
100
AcDbEntity
  8
0
100
AcDbLine
 10
0.3906200794011188
 20
5.795454545454549
 30
0.0
 11
0.2922081016983444
 21
5.852272727272732
 31
0.0
  0
LINE
  5
254
330
2
100
AcDbEntity
  8
0
100
AcDbLine
 10
0.2922081016983444
 20
5.738636363636365
 30
0.0
 11
0.3906200794011205
 21
5.795454545454549
 31
0.0
  0
LINE
  5
255
330
2
100
AcDbEntity
  8
0
100
AcDbLine
 10
0.2922081016983444
 20
5.852272727272732
 30
0.0
 11
0.3906200794011205
 21
5.909090909090912
 31
0.0
  0
LINE
  5
256
330
2
100
AcDbEntity
  8
0
100
AcDbLine
 10
1.5625
 20
6.232959810794496
 30
0.0
 11
1.5625
 21
6.0
 31
0.0
  0
LINE
  5
257
330
2
100
AcDbEntity
  8
0
100
AcDbLine
 10
1.625
 20
6.121033659523183
 30
0.0
 11
1.625
 21
6.0
 31
0.0
  0
ARC
  5
258
330
2
100
AcDbEntity
  8
0
100
AcDbCircle
 10
1.612500000000001
 20
6.232959810794496
 30
0.0
 40
0.05
100
AcDbArc
 50
90.00000000000162
 51
180.0
  0
LINE
  5
259
330
2
100
AcDbEntity
  8
0
100
AcDbLine
 10
1.625
 20
6.282959810794496
 30
0.0
 11
1.612499999999997
 21
6.282959810794496
 31
0.0
  0
CIRCLE
  5
25A
330
2
100
AcDbEntity
  8
0
100
AcDbCircle
 10
0.0
 20
7.500000000000004
 30
0.0
 40
0.281
  0
CIRCLE
  5
25B
330
2
100
AcDbEntity
  8
0
100
AcDbCircle
 10
-0.875
 20
6.812500000000004
 30
0.0
 40
0.0855
  0
CIRCLE
  5
25C
330
2
100
AcDbEntity
  8
0
100
AcDbCircle
 10
0.875
 20
6.812500000000004
 30
0.0
 40
0.0855
  0
CIRCLE
  5
25D
330
2
100
AcDbEntity
  8
0
100
AcDbCircle
 10
-0.875
 20
8.000000000000004
 30
0.0
 40
0.0855000000000025
  0
CIRCLE
  5
25E
330
2
100
AcDbEntity
  8
0
100
AcDbCircle
 10
0.875
 20
8.000000000000004
 30
0.0
 40
0.0855
  0
LINE
  5
25F
330
2
100
AcDbEntity
  8
0
100
AcDbLine
 10
5.016378236667617
 20
6.225633659523181
 30
0.0
 11
5.016378236667617
 21
8.24603365952318
 31
0.0
  0
LINE
  5
260
330
2
100
AcDbEntity
  8
0
100
AcDbLine
 10
4.891378236667617
 20
8.24603365952318
 30
0.0
 11
4.891378236667617
 21
6.205633659523182
 31
0.0
  0
ARC
  5
262
330
2
100
AcDbEntity
  8
0
100
AcDbCircle
 10
5.100978236667618
 20
6.205633659523182
 30
0.0
 40
0.2096
100
AcDbArc
 50
180.0
 51
269.9999999999999
  0
LINE
  5
263
330
2
100
AcDbEntity
  8
0
100
AcDbLine
 10
5.141378236667617
 20
5.99603365952318
 30
0.0
 11
5.203878236667617
 21
5.99603365952318
 31
0.0
  0
ARC
  5
264
330
2
100
AcDbEntity
  8
0
100
AcDbCircle
 10
5.120978236667614
 20
6.225633659523181
 30
0.0
 40
0.1046
100
AcDbArc
 50
180.0
 51
269.9999999999999
  0
LINE
  5
266
330
2
100
AcDbEntity
  8
0
100
AcDbLine
 10
7.079500892161736
 20
5.393760932250455
 30
0.0
 11
7.177912869864512
 21
5.450579114068635
 31
0.0
  0
LINE
  5
267
330
2
100
AcDbEntity
  8
0
100
AcDbLine
 10
6.396662869864512
 20
5.393766614068635
 30
0.0
 11
6.495074847567288
 21
5.450584795886819
 31
0.0
  0
LINE
  5
268
330
2
100
AcDbEntity
  8
0
100
AcDbLine
 10
7.177912869864512
 20
5.450579114068638
 30
0.0
 11
6.396662869864512
 21
5.393766614068635
 31
0.0
  0
ARC
  5
269
330
2
100
AcDbEntity
  8
0
100
AcDbCircle
 10
6.787287869864512
 20
3.214082321987887
 30
0.0
 40
1.362499999999996
100
AcDbArc
 50
79.00726691069063
 51
100.9927330893092
  0
LINE
  5
26A
330
2
100
AcDbEntity
  8
0
100
AcDbLine
 10
7.176999301567513
 20
4.576582321987882
 30
0.0
 11
6.397576438161517
 21
4.576582321987882
 31
0.0
  0
LINE
  5
26B
330
2
100
AcDbEntity
  8
0
100
AcDbLine
 10
6.495074847567288
 20
5.223312068614092
 30
0.0
 11
7.079500892161736
 21
5.280124568614092
 31
0.0
  0
LINE
  5
26C
330
2
100
AcDbEntity
  8
0
100
AcDbLine
 10
7.177912869864512
 20
5.336942750432272
 30
0.0
 11
6.396662869864512
 21
5.280130250432272
 31
0.0
  0
LINE
  5
26D
330
2
100
AcDbEntity
  8
0
100
AcDbLine
 10
6.495074847567288
 20
5.336948432250456
 30
0.0
 11
7.079500892161736
 21
5.393760932250455
 31
0.0
  0
LINE
  5
26E
330
2
100
AcDbEntity
  8
0
100
AcDbLine
 10
7.177912869864512
 20
5.223306386795908
 30
0.0
 11
6.396662869864512
 21
5.166493886795909
 31
0.0
  0
LINE
  5
26F
330
2
100
AcDbEntity
  8
0
100
AcDbLine
 10
6.495074847567288
 20
5.109675704977725
 30
0.0
 11
7.079500892161736
 21
5.166488204977728
 31
0.0
  0
LINE
  5
270
330
2
100
AcDbEntity
  8
0
100
AcDbLine
 10
6.495074847567288
 20
4.882402977704999
 30
0.0
 11
7.079500892161736
 21
4.939215477704998
 31
0.0
  0
LINE
  5
271
330
2
100
AcDbEntity
  8
0
100
AcDbLine
 10
6.495074847567288
 20
4.996039341341362
 30
0.0
 11
7.079500892161736
 21
5.052851841341361
 31
0.0
  0
LINE
  5
272
330
2
100
AcDbEntity
  8
0
100
AcDbLine
 10
6.495074847567288
 20
4.655130250432269
 30
0.0
 11
7.079500892161736
 21
4.711942750432272
 31
0.0
  0
LINE
  5
273
330
2
100
AcDbEntity
  8
0
100
AcDbLine
 10
6.495074847567288
 20
4.768766614068635
 30
0.0
 11
7.079500892161736
 21
4.825579114068631
 31
0.0
  0
LINE
  5
274
330
2
100
AcDbEntity
  8
0
100
AcDbLine
 10
7.177912869864512
 20
4.655124568614088
 30
0.0
 11
6.396662869864512
 21
4.598312068614089
 31
0.0
  0
LINE
  5
275
330
2
100
AcDbEntity
  8
0
100
AcDbLine
 10
7.177912869864512
 20
4.768760932250451
 30
0.0
 11
6.396662869864512
 21
4.711948432250452
 31
0.0
  0
LINE
  5
276
330
2
100
AcDbEntity
  8
0
100
AcDbLine
 10
7.177912869864512
 20
4.882397295886815
 30
0.0
 11
6.396662869864512
 21
4.825584795886815
 31
0.0
  0
LINE
  5
277
330
2
100
AcDbEntity
  8
0
100
AcDbLine
 10
7.177912869864512
 20
4.996033659523182
 30
0.0
 11
6.396662869864512
 21
4.939221159523179
 31
0.0
  0
LINE
  5
278
330
2
100
AcDbEntity
  8
0
100
AcDbLine
 10
7.177912869864512
 20
5.109670023159541
 30
0.0
 11
6.396662869864512
 21
5.052857523159542
 31
0.0
  0
LINE
  5
279
330
2
100
AcDbEntity
  8
0
100
AcDbLine
 10
6.495074847567288
 20
4.768766614068635
 30
0.0
 11
6.396662869864512
 21
4.825584795886815
 31
0.0
  0
ARC
  5
27A
330
2
100
AcDbEntity
  8
0
100
AcDbCircle
 10
6.397576438161515
 20
4.226582321987891
 30
0.0
 40
0.3499999999999915
100
AcDbArc
 50
68.21321070173785
 51
111.786789298262
  0
LINE
  5
27B
330
2
100
AcDbEntity
  8
0
100
AcDbLine
 10
6.495074847567288
 20
4.655130250432269
 30
0.0
 11
6.396662869864512
 21
4.711948432250452
 31
0.0
  0
LINE
  5
27C
330
2
100
AcDbEntity
  8
0
100
AcDbLine
 10
6.434299895056698
 20
4.576582321987882
 30
0.0
 11
6.396662869864512
 21
4.598312068614089
 31
0.0
  0
LINE
  5
27D
330
2
100
AcDbEntity
  8
0
100
AcDbLine
 10
6.396662869864512
 20
4.598312068614089
 30
0.0
 11
6.495074847567288
 21
4.655130250432269
 31
0.0
  0
LINE
  5
27E
330
2
100
AcDbEntity
  8
0
100
AcDbLine
 10
6.396662869864512
 20
4.711948432250452
 30
0.0
 11
6.495074847567288
 21
4.768766614068635
 31
0.0
  0
LINE
  5
27F
330
2
100
AcDbEntity
  8
0
100
AcDbLine
 10
6.396662869864512
 20
5.052857523159545
 30
0.0
 11
6.495074847567288
 21
5.109675704977725
 31
0.0
  0
LINE
  5
280
330
2
100
AcDbEntity
  8
0
100
AcDbLine
 10
6.396662869864512
 20
4.939221159523179
 30
0.0
 11
6.495074847567288
 21
4.996039341341362
 31
0.0
  0
LINE
  5
281
330
2
100
AcDbEntity
  8
0
100
AcDbLine
 10
6.495074847567288
 20
4.882402977704999
 30
0.0
 11
6.396662869864512
 21
4.939221159523179
 31
0.0
  0
LINE
  5
282
330
2
100
AcDbEntity
  8
0
100
AcDbLine
 10
6.495074847567288
 20
4.996039341341362
 30
0.0
 11
6.396662869864512
 21
5.052857523159542
 31
0.0
  0
LINE
  5
283
330
2
100
AcDbEntity
  8
0
100
AcDbLine
 10
6.396662869864512
 20
4.825584795886819
 30
0.0
 11
6.495074847567288
 21
4.882402977704999
 31
0.0
  0
LINE
  5
284
330
2
100
AcDbEntity
  8
0
100
AcDbLine
 10
6.495074847567288
 20
5.223312068614092
 30
0.0
 11
6.396662869864512
 21
5.280130250432272
 31
0.0
  0
LINE
  5
285
330
2
100
AcDbEntity
  8
0
100
AcDbLine
 10
6.396662869864512
 20
5.280130250432276
 30
0.0
 11
6.495074847567288
 21
5.336948432250456
 31
0.0
  0
LINE
  5
286
330
2
100
AcDbEntity
  8
0
100
AcDbLine
 10
6.495074847567288
 20
5.336948432250456
 30
0.0
 11
6.396662869864512
 21
5.393766614068635
 31
0.0
  0
LINE
  5
287
330
2
100
AcDbEntity
  8
0
100
AcDbLine
 10
6.396662869864512
 20
5.166493886795909
 30
0.0
 11
6.495074847567288
 21
5.223312068614092
 31
0.0
  0
LINE
  5
288
330
2
100
AcDbEntity
  8
0
100
AcDbLine
 10
6.495074847567288
 20
5.109675704977725
 30
0.0
 11
6.396662869864512
 21
5.166493886795909
 31
0.0
  0
LINE
  5
289
330
2
100
AcDbEntity
  8
0
100
AcDbLine
 10
7.17791286986451
 20
4.768760932250451
 30
0.0
 11
7.079500892161736
 21
4.825579114068631
 31
0.0
  0
ARC
  5
28A
330
2
100
AcDbEntity
  8
0
100
AcDbCircle
 10
7.176999301567513
 20
4.22658232198787
 30
0.0
 40
0.3500000000000102
100
AcDbArc
 50
68.21321070173863
 51
111.7867892982614
  0
LINE
  5
28B
330
2
100
AcDbEntity
  8
0
100
AcDbLine
 10
7.17791286986451
 20
4.655124568614088
 30
0.0
 11
7.079500892161736
 21
4.711942750432272
 31
0.0
  0
LINE
  5
28C
330
2
100
AcDbEntity
  8
0
100
AcDbLine
 10
7.117128076156153
 20
4.576582321987882
 30
0.0
 11
7.079500892161736
 21
4.598306386795905
 31
0.0
  0
LINE
  5
28D
330
2
100
AcDbEntity
  8
0
100
AcDbLine
 10
7.079500892161736
 20
4.598306386795905
 30
0.0
 11
7.177912869864512
 21
4.655124568614088
 31
0.0
  0
LINE
  5
28E
330
2
100
AcDbEntity
  8
0
100
AcDbLine
 10
7.079500892161736
 20
4.711942750432272
 30
0.0
 11
7.177912869864512
 21
4.768760932250451
 31
0.0
  0
LINE
  5
28F
330
2
100
AcDbEntity
  8
0
100
AcDbLine
 10
6.856027021653212
 20
4.576582321987882
 30
0.0
 11
7.079500892161736
 21
4.598306386795905
 31
0.0
  0
LINE
  5
290
330
2
100
AcDbEntity
  8
0
100
AcDbLine
 10
7.079500892161736
 20
5.052851841341361
 30
0.0
 11
7.177912869864512
 21
5.109670023159541
 31
0.0
  0
LINE
  5
291
330
2
100
AcDbEntity
  8
0
100
AcDbLine
 10
7.079500892161736
 20
4.939215477704998
 30
0.0
 11
7.177912869864512
 21
4.996033659523178
 31
0.0
  0
LINE
  5
292
330
2
100
AcDbEntity
  8
0
100
AcDbLine
 10
7.079500892161736
 20
4.825579114068631
 30
0.0
 11
7.177912869864512
 21
4.882397295886815
 31
0.0
  0
LINE
  5
293
330
2
100
AcDbEntity
  8
0
100
AcDbLine
 10
7.17791286986451
 20
4.882397295886815
 30
0.0
 11
7.079500892161736
 21
4.939215477704998
 31
0.0
  0
LINE
  5
294
330
2
100
AcDbEntity
  8
0
100
AcDbLine
 10
7.17791286986451
 20
4.996033659523182
 30
0.0
 11
7.079500892161736
 21
5.052851841341361
 31
0.0
  0
LINE
  5
295
330
2
100
AcDbEntity
  8
0
100
AcDbLine
 10
7.17791286986451
 20
5.336942750432272
 30
0.0
 11
7.079500892161736
 21
5.393760932250455
 31
0.0
  0
LINE
  5
296
330
2
100
AcDbEntity
  8
0
100
AcDbLine
 10
7.079500892161736
 20
5.280124568614092
 30
0.0
 11
7.177912869864512
 21
5.336942750432272
 31
0.0
  0
LINE
  5
297
330
2
100
AcDbEntity
  8
0
100
AcDbLine
 10
7.17791286986451
 20
5.223306386795908
 30
0.0
 11
7.079500892161736
 21
5.280124568614092
 31
0.0
  0
LINE
  5
298
330
2
100
AcDbEntity
  8
0
100
AcDbLine
 10
7.079500892161736
 20
5.166488204977728
 30
0.0
 11
7.177912869864512
 21
5.223306386795908
 31
0.0
  0
LINE
  5
299
330
2
100
AcDbEntity
  8
0
100
AcDbLine
 10
7.17791286986451
 20
5.109670023159541
 30
0.0
 11
7.079500892161736
 21
5.166488204977728
 31
0.0
  0
LINE
  5
29A
330
2
100
AcDbEntity
  8
0
100
AcDbLine
 10
7.177912869864512
 20
5.564215477705002
 30
0.0
 11
6.396662869864512
 21
5.507402977704999
 31
0.0
  0
LINE
  5
29B
330
2
100
AcDbEntity
  8
0
100
AcDbLine
 10
7.177912869864512
 20
5.677851841341365
 30
0.0
 11
6.396662869864512
 21
5.621039341341366
 31
0.0
  0
LINE
  5
29C
330
2
100
AcDbEntity
  8
0
100
AcDbLine
 10
7.177912869864512
 20
5.791488204977728
 30
0.0
 11
6.396662869864512
 21
5.734675704977729
 31
0.0
  0
LINE
  5
29D
330
2
100
AcDbEntity
  8
0
100
AcDbLine
 10
7.177912869864512
 20
5.905124568614092
 30
0.0
 11
6.396662869864512
 21
5.848312068614092
 31
0.0
  0
LINE
  5
29E
330
2
100
AcDbEntity
  8
0
100
AcDbLine
 10
6.495074847567288
 20
5.564221159523182
 30
0.0
 11
7.079500892161736
 21
5.621033659523182
 31
0.0
  0
LINE
  5
29F
330
2
100
AcDbEntity
  8
0
100
AcDbLine
 10
6.495074847567288
 20
5.450584795886819
 30
0.0
 11
7.079500892161736
 21
5.507397295886818
 31
0.0
  0
LINE
  5
2A0
330
2
100
AcDbEntity
  8
0
100
AcDbLine
 10
6.495074847567288
 20
5.677857523159549
 30
0.0
 11
7.079500892161736
 21
5.734670023159545
 31
0.0
  0
LINE
  5
2A1
330
2
100
AcDbEntity
  8
0
100
AcDbLine
 10
6.495074847567288
 20
5.791493886795909
 30
0.0
 11
7.079500892161736
 21
5.848306386795912
 31
0.0
  0
LINE
  5
2A2
330
2
100
AcDbEntity
  8
0
100
AcDbLine
 10
6.495074847567288
 20
5.905130250432276
 30
0.0
 11
7.079500892161736
 21
5.961942750432275
 31
0.0
  0
LINE
  5
2A3
330
2
100
AcDbEntity
  8
0
100
AcDbLine
 10
6.865381616739166
 20
5.99603365952318
 30
0.0
 11
6.396662869864512
 21
5.961948432250456
 31
0.0
  0
LINE
  5
2A4
330
2
100
AcDbEntity
  8
0
100
AcDbLine
 10
6.495074847567288
 20
5.677857523159549
 30
0.0
 11
6.396662869864512
 21
5.734675704977729
 31
0.0
  0
LINE
  5
2A5
330
2
100
AcDbEntity
  8
0
100
AcDbLine
 10
6.396662869864512
 20
5.621039341341366
 30
0.0
 11
6.495074847567288
 21
5.677857523159549
 31
0.0
  0
LINE
  5
2A6
330
2
100
AcDbEntity
  8
0
100
AcDbLine
 10
6.495074847567288
 20
5.450584795886819
 30
0.0
 11
6.396662869864512
 21
5.507402977704999
 31
0.0
  0
LINE
  5
2A7
330
2
100
AcDbEntity
  8
0
100
AcDbLine
 10
6.396662869864512
 20
5.507402977705002
 30
0.0
 11
6.495074847567288
 21
5.564221159523182
 31
0.0
  0
LINE
  5
2A8
330
2
100
AcDbEntity
  8
0
100
AcDbLine
 10
6.495074847567288
 20
5.564221159523182
 30
0.0
 11
6.396662869864512
 21
5.621039341341366
 31
0.0
  0
LINE
  5
2A9
330
2
100
AcDbEntity
  8
0
100
AcDbLine
 10
6.396662869864512
 20
5.734675704977729
 30
0.0
 11
6.495074847567288
 21
5.791493886795909
 31
0.0
  0
LINE
  5
2AA
330
2
100
AcDbEntity
  8
0
100
AcDbLine
 10
6.495074847567288
 20
5.791493886795909
 30
0.0
 11
6.396662869864512
 21
5.848312068614092
 31
0.0
  0
LINE
  5
2AB
330
2
100
AcDbEntity
  8
0
100
AcDbLine
 10
6.396662869864512
 20
5.848312068614092
 30
0.0
 11
6.495074847567288
 21
5.905130250432276
 31
0.0
  0
LINE
  5
2AC
330
2
100
AcDbEntity
  8
0
100
AcDbLine
 10
6.495074847567288
 20
5.905130250432276
 30
0.0
 11
6.396662869864512
 21
5.961948432250456
 31
0.0
  0
LINE
  5
2AD
330
2
100
AcDbEntity
  8
0
100
AcDbLine
 10
6.396662869864512
 20
5.961948432250459
 30
0.0
 11
6.455700215288397
 21
5.996033659523178
 31
0.0
  0
LINE
  5
2AE
330
2
100
AcDbEntity
  8
0
100
AcDbLine
 10
7.17791286986451
 20
5.677851841341365
 30
0.0
 11
7.079500892161736
 21
5.734670023159545
 31
0.0
  0
LINE
  5
2AF
330
2
100
AcDbEntity
  8
0
100
AcDbLine
 10
7.079500892161736
 20
5.621033659523182
 30
0.0
 11
7.177912869864512
 21
5.677851841341361
 31
0.0
  0
LINE
  5
2B0
330
2
100
AcDbEntity
  8
0
100
AcDbLine
 10
7.17791286986451
 20
5.450579114068638
 30
0.0
 11
7.079500892161736
 21
5.507397295886818
 31
0.0
  0
LINE
  5
2B1
330
2
100
AcDbEntity
  8
0
100
AcDbLine
 10
7.079500892161736
 20
5.507397295886818
 30
0.0
 11
7.177912869864512
 21
5.564215477705002
 31
0.0
  0
LINE
  5
2B2
330
2
100
AcDbEntity
  8
0
100
AcDbLine
 10
7.17791286986451
 20
5.564215477705002
 30
0.0
 11
7.079500892161736
 21
5.621033659523182
 31
0.0
  0
LINE
  5
2B3
330
2
100
AcDbEntity
  8
0
100
AcDbLine
 10
7.079500892161736
 20
5.961942750432275
 30
0.0
 11
7.138548078783394
 21
5.996033659523178
 31
0.0
  0
LINE
  5
2B4
330
2
100
AcDbEntity
  8
0
100
AcDbLine
 10
7.079500892161736
 20
5.734670023159545
 30
0.0
 11
7.177912869864512
 21
5.791488204977728
 31
0.0
  0
LINE
  5
2B5
330
2
100
AcDbEntity
  8
0
100
AcDbLine
 10
7.17791286986451
 20
5.791488204977728
 30
0.0
 11
7.079500892161736
 21
5.848306386795912
 31
0.0
  0
LINE
  5
2B6
330
2
100
AcDbEntity
  8
0
100
AcDbLine
 10
7.079500892161736
 20
5.848306386795912
 30
0.0
 11
7.177912869864512
 21
5.905124568614092
 31
0.0
  0
LINE
  5
2B7
330
2
100
AcDbEntity
  8
0
100
AcDbLine
 10
7.17791286986451
 20
5.905124568614092
 30
0.0
 11
7.079500892161736
 21
5.961942750432275
 31
0.0
  0
LINE
  5
2B8
330
2
100
AcDbEntity
  8
0
100
AcDbLine
 10
5.016378236667617
 20
8.24603365952318
 30
0.0
 11
4.891378236667617
 21
8.24603365952318
 31
0.0
  0
LINE
  5
2B9
330
2
100
AcDbEntity
  8
0
100
AcDbLine
 10
8.703878236667617
 20
8.24603365952318
 30
0.0
 11
8.703878236667617
 21
6.205633659523182
 31
0.0
  0
LINE
  5
2BA
330
2
100
AcDbEntity
  8
0
100
AcDbLine
 10
8.578878236667617
 20
8.24603365952318
 30
0.0
 11
8.578878236667617
 21
6.225633659523181
 31
0.0
  0
ARC
  5
2BC
330
2
100
AcDbEntity
  8
0
100
AcDbCircle
 10
8.494278236667615
 20
6.205633659523182
 30
0.0
 40
0.2096
100
AcDbArc
 50
270.0
 51
0.0
  0
ARC
  5
2BD
330
2
100
AcDbEntity
  8
0
100
AcDbCircle
 10
8.474278236667619
 20
6.225633659523181
 30
0.0
 40
0.1046
100
AcDbArc
 50
270.0
 51
0.0
  0
LINE
  5
2BF
330
2
100
AcDbEntity
  8
0
100
AcDbLine
 10
8.703878236667617
 20
8.24603365952318
 30
0.0
 11
8.578878236667617
 21
8.24603365952318
 31
0.0
  0
LINE
  5
2D2
330
2
100
AcDbEntity
  8
0
100
AcDbLine
 10
1.625
 20
6.121033659523182
 30
0.0
 11
1.5625
 21
6.121033659523182
 31
0.0
  0
LINE
  5
2D3
330
2
100
AcDbEntity
  8
0
100
AcDbLine
 10
-1.5625
 20
6.121033659523183
 30
0.0
 11
-1.625
 21
6.121033659523182
 31
0.0
  0
LINE
  5
2D9
330
2
100
AcDbEntity
  8
0
  6
HIDDEN
100
AcDbLine
 10
-1.5625
 20
6.121033659523183
 30
0.0
 11
1.5625
 21
6.116479905397248
 31
0.0
  0
ENDSEC
  0
SECTION
  2
OBJECTS
  0
DICTIONARY
  5
7
330
0
100
AcDbDictionary
281
     1
  3
ACAD_COLOR
350
2CD
  3
ACAD_GROUP
350
20
  3
ACAD_LAYOUT
350
B
  3
ACAD_MATERIAL
350
2CC
  3
ACAD_MLINESTYLE
350
21
  3
ACAD_PLOTSETTINGS
350
22
  3
ACAD_PLOTSTYLENAME
350
6
  3
ACAD_TABLESTYLE
350
2CE
  3
ACDBHEADERROUNDTRIPXREC
350
2E3
  3
AcDbVariableDictionary
350
2C0
  0
DICTIONARY
  5
2D4
330
2
100
AcDbDictionary
280
     1
281
     1
  3
ACAD_SORTENTS
360
2D5
  0
DICTIONARY
  5
2CD
102
{ACAD_REACTORS
330
7
102
}
330
7
100
AcDbDictionary
281
     1
  0
DICTIONARY
  5
20
102
{ACAD_REACTORS
330
7
102
}
330
7
100
AcDbDictionary
281
     1
  0
DICTIONARY
  5
B
102
{ACAD_REACTORS
330
7
102
}
330
7
100
AcDbDictionary
281
     1
  3
Layout1
350
F
  3
Model
350
A
  0
DICTIONARY
  5
2CC
102
{ACAD_REACTORS
330
7
102
}
330
7
100
AcDbDictionary
281
     1
  0
DICTIONARY
  5
21
102
{ACAD_REACTORS
330
7
102
}
330
7
100
AcDbDictionary
281
     1
  3
STANDARD
350
24
  0
DICTIONARY
  5
22
102
{ACAD_REACTORS
330
7
102
}
330
7
100
AcDbDictionary
281
     1
  0
ACDBDICTIONARYWDFLT
  5
6
102
{ACAD_REACTORS
330
7
102
}
330
7
100
AcDbDictionary
281
     1
  3
Normal
350
5
100
AcDbDictionaryWithDefault
340
5
  0
DICTIONARY
  5
2CE
102
{ACAD_REACTORS
330
7
102
}
330
7
100
AcDbDictionary
281
     1
  3
Standard
350
2CF
  0
DICTIONARY
  5
2E3
102
{ACAD_REACTORS
330
7
102
}
330
7
100
AcDbDictionary
281
     1
  3
COLORDICT
350
2E4
  3
MATERIALDICT
350
2E5
  0
DICTIONARY
  5
2C0
102
{ACAD_REACTORS
330
7
102
}
330
7
100
AcDbDictionary
281
     1
  3
CTABLESTYLE
350
2E0
  3
HIDETEXT
350
2E2
  0
SORTENTSTABLE
  5
2D5
102
{ACAD_REACTORS
330
2D4
102
}
330
2D4
100
AcDbSortentsTable
330
2
331
14B
  5
14B
331
145
  5
145
331
6B
  5
6B
331
114
  5
114
331
1CA
  5
1CA
331
A3
  5
A3
331
146
  5
146
331
A7
  5
A7
331
222
  5
222
331
223
  5
223
331
A4
  5
A4
331
1F6
  5
1F6
331
1F7
  5
1F7
331
159
  5
159
331
10E
  5
10E
331
B4
  5
B4
331
BC
  5
BC
331
1B6
  5
1B6
331
1CB
  5
1CB
331
1EE
  5
1EE
331
1B1
  5
1B1
331
CD
  5
CD
331
F5
  5
F5
331
1C0
  5
1C0
331
E1
  5
E1
331
200
  5
200
331
201
  5
201
331
28B
  5
28B
331
28C
  5
28C
331
28D
  5
28D
331
B6
  5
B6
331
29
  5
29
331
240
  5
240
331
241
  5
241
331
25
  5
25
331
3C
  5
3C
331
20A
  5
20A
331
20B
  5
20B
331
5D
  5
5D
331
1BA
  5
1BA
331
DD
  5
DD
331
2B9
  5
2B9
331
2BA
  5
2BA
331
2BC
  5
2BC
331
13D
  5
13D
331
136
  5
136
331
E4
  5
E4
331
DC
  5
DC
331
13F
  5
13F
331
48
  5
48
331
236
  5
236
331
237
  5
237
331
83
  5
83
331
C3
  5
C3
331
5B
  5
5B
331
14C
  5
14C
331
1C4
  5
1C4
331
172
  5
172
331
1D2
  5
1D2
331
60
  5
60
331
21C
  5
21C
331
21D
  5
21D
331
EF
  5
EF
331
1CC
  5
1CC
331
12A
  5
12A
331
22C
  5
22C
331
22D
  5
22D
331
1A0
  5
1A0
331
105
  5
105
331
232
  5
232
331
233
  5
233
331
12C
  5
12C
331
11F
  5
11F
331
2AA
  5
2AA
331
2AB
  5
2AB
331
2AC
  5
2AC
331
78
  5
78
331
1DA
  5
1DA
331
143
  5
143
331
8C
  5
8C
331
4C
  5
4C
331
155
  5
155
331
162
  5
162
331
25B
  5
25B
331
25C
  5
25C
331
AB
  5
AB
331
46
  5
46
331
212
  5
212
331
213
  5
213
331
26D
  5
26D
331
26E
  5
26E
331
1CF
  5
1CF
331
1A2
  5
1A2
331
2B3
  5
2B3
331
2B4
  5
2B4
331
2B5
  5
2B5
331
C8
  5
C8
331
DF
  5
DF
331
106
  5
106
331
104
  5
104
331
E3
  5
E3
331
E0
  5
E0
331
272
  5
272
331
273
  5
273
331
17D
  5
17D
331
11D
  5
11D
331
1E2
  5
1E2
331
1E3
  5
1E3
331
173
  5
173
331
58
  5
58
331
11C
  5
11C
331
17A
  5
17A
331
230
  5
230
331
231
  5
231
331
E7
  5
E7
331
19E
  5
19E
331
99
  5
99
331
7A
  5
7A
331
D6
  5
D6
331
FE
  5
FE
331
1EF
  5
1EF
331
1F0
  5
1F0
331
22E
  5
22E
331
22F
  5
22F
331
2B6
  5
2B6
331
2B7
  5
2B7
331
2B8
  5
2B8
331
14D
  5
14D
331
103
  5
103
331
281
  5
281
331
282
  5
282
331
12B
  5
12B
331
148
  5
148
331
ED
  5
ED
331
5A
  5
5A
331
73
  5
73
331
D4
  5
D4
331
12F
  5
12F
331
24F
  5
24F
331
250
  5
250
331
FB
  5
FB
331
FA
  5
FA
331
168
  5
168
331
B2
  5
B2
331
C2
  5
C2
331
B8
  5
B8
331
14F
  5
14F
331
206
  5
206
331
207
  5
207
331
38
  5
38
331
D7
  5
D7
331
147
  5
147
331
B1
  5
B1
331
80
  5
80
331
277
  5
277
331
278
  5
278
331
22A
  5
22A
331
22B
  5
22B
331
17E
  5
17E
331
90
  5
90
331
6D
  5
6D
331
29E
  5
29E
331
29F
  5
29F
331
2A0
  5
2A0
331
16C
  5
16C
331
91
  5
91
331
98
  5
98
331
102
  5
102
331
11A
  5
11A
331
113
  5
113
331
179
  5
179
331
1D5
  5
1D5
331
199
  5
199
331
196
  5
196
331
151
  5
151
331
244
  5
244
331
245
  5
245
331
16A
  5
16A
331
88
  5
88
331
1C9
  5
1C9
331
13B
  5
13B
331
130
  5
130
331
23C
  5
23C
331
23D
  5
23D
331
79
  5
79
331
10F
  5
10F
331
109
  5
109
331
258
  5
258
331
259
  5
259
331
25A
  5
25A
331
36
  5
36
331
CE
  5
CE
331
43
  5
43
331
1C3
  5
1C3
331
112
  5
112
331
1A3
  5
1A3
331
1D6
  5
1D6
331
2AD
  5
2AD
331
2AE
  5
2AE
331
2AF
  5
2AF
331
DA
  5
DA
331
71
  5
71
331
25D
  5
25D
331
25E
  5
25E
331
7F
  5
7F
331
1A1
  5
1A1
331
1AE
  5
1AE
331
27E
  5
27E
331
27F
  5
27F
331
280
  5
280
331
1DF
  5
1DF
331
192
  5
192
331
6A
  5
6A
331
268
  5
268
331
269
  5
269
331
26A
  5
26A
331
42
  5
42
331
F2
  5
F2
331
11E
  5
11E
331
1A6
  5
1A6
331
1D3
  5
1D3
331
226
  5
226
331
227
  5
227
331
157
  5
157
331
8B
  5
8B
331
19B
  5
19B
331
254
  5
254
331
255
  5
255
331
59
  5
59
331
1E9
  5
1E9
331
10D
  5
10D
331
1C7
  5
1C7
331
CF
  5
CF
331
F9
  5
F9
331
64
  5
64
331
5F
  5
5F
331
21A
  5
21A
331
21B
  5
21B
331
12E
  5
12E
331
D5
  5
D5
331
1D1
  5
1D1
331
17C
  5
17C
331
177
  5
177
331
1B2
  5
1B2
331
F3
  5
F3
331
186
  5
186
331
234
  5
234
331
235
  5
235
331
1D0
  5
1D0
331
274
  5
274
331
275
  5
275
331
276
  5
276
331
9C
  5
9C
331
C6
  5
C6
331
35
  5
35
331
84
  5
84
331
1DB
  5
1DB
331
1DC
  5
1DC
331
E8
  5
E8
331
E9
  5
E9
331
EA
  5
EA
331
EB
  5
EB
331
F1
  5
F1
331
C7
  5
C7
331
175
  5
175
331
10C
  5
10C
331
166
  5
166
331
189
  5
189
331
27C
  5
27C
331
27D
  5
27D
331
1EA
  5
1EA
331
1EB
  5
1EB
331
26F
  5
26F
331
270
  5
270
331
271
  5
271
331
B9
  5
B9
331
198
  5
198
331
100
  5
100
331
286
  5
286
331
287
  5
287
331
288
  5
288
331
D9
  5
D9
331
BD
  5
BD
331
14E
  5
14E
331
F0
  5
F0
331
185
  5
185
331
1AA
  5
1AA
331
1C2
  5
1C2
331
195
  5
195
331
10A
  5
10A
331
1DD
  5
1DD
331
1DE
  5
1DE
331
2A1
  5
2A1
331
2A2
  5
2A2
331
2A3
  5
2A3
331
2A
  5
2A
331
A1
  5
A1
331
1F3
  5
1F3
331
1E5
  5
1E5
331
1E6
  5
1E6
331
299
  5
299
331
29A
  5
29A
331
4E
  5
4E
331
1AB
  5
1AB
331
127
  5
127
331
178
  5
178
331
1B0
  5
1B0
331
18C
  5
18C
331
3B
  5
3B
331
6C
  5
6C
331
1F9
  5
1F9
331
1FA
  5
1FA
331
75
  5
75
331
37
  5
37
331
DB
  5
DB
331
16D
  5
16D
331
180
  5
180
331
1C8
  5
1C8
331
82
  5
82
331
108
  5
108
331
B5
  5
B5
331
7D
  5
7D
331
81
  5
81
331
1FE
  5
1FE
331
1FF
  5
1FF
331
224
  5
224
331
225
  5
225
331
19F
  5
19F
331
24A
  5
24A
331
24B
  5
24B
331
24C
  5
24C
331
1B3
  5
1B3
331
B7
  5
B7
331
2BD
  5
2BD
331
2BF
  5
2BF
331
15E
  5
15E
331
A8
  5
A8
331
14A
  5
14A
331
B0
  5
B0
331
126
  5
126
331
A0
  5
A0
331
4A
  5
4A
331
8F
  5
8F
331
181
  5
181
331
169
  5
169
331
AA
  5
AA
331
40
  5
40
331
238
  5
238
331
239
  5
239
331
65
  5
65
331
CA
  5
CA
331
246
  5
246
331
247
  5
247
331
8E
  5
8E
331
149
  5
149
331
120
  5
120
331
AE
  5
AE
331
167
  5
167
331
15D
  5
15D
331
1D4
  5
1D4
331
D2
  5
D2
331
18E
  5
18E
331
69
  5
69
331
51
  5
51
331
68
  5
68
331
52
  5
52
331
18F
  5
18F
331
137
  5
137
331
129
  5
129
331
D1
  5
D1
331
1B4
  5
1B4
331
95
  5
95
331
19C
  5
19C
331
E5
  5
E5
331
110
  5
110
331
21E
  5
21E
331
21F
  5
21F
331
1B5
  5
1B5
331
CB
  5
CB
331
2C
  5
2C
331
15B
  5
15B
331
164
  5
164
331
171
  5
171
331
1A9
  5
1A9
331
15F
  5
15F
331
279
  5
279
331
27A
  5
27A
331
27B
  5
27B
331
256
  5
256
331
257
  5
257
331
70
  5
70
331
BB
  5
BB
331
2B0
  5
2B0
331
2B1
  5
2B1
331
2B2
  5
2B2
331
1FB
  5
1FB
331
1FC
  5
1FC
331
23A
  5
23A
331
23B
  5
23B
331
1A5
  5
1A5
331
154
  5
154
331
1E4
  5
1E4
331
C1
  5
C1
331
133
  5
133
331
24D
  5
24D
331
24E
  5
24E
331
1CE
  5
1CE
331
1C1
  5
1C1
331
161
  5
161
331
163
  5
163
331
1BC
  5
1BC
331
124
  5
124
331
1EC
  5
1EC
331
1ED
  5
1ED
331
94
  5
94
331
152
  5
152
331
18D
  5
18D
331
190
  5
190
331
142
  5
142
331
7E
  5
7E
331
10B
  5
10B
331
141
  5
141
331
191
  5
191
331
187
  5
187
331
74
  5
74
331
17F
  5
17F
331
93
  5
93
331
63
  5
63
331
1C5
  5
1C5
331
156
  5
156
331
87
  5
87
331
97
  5
97
331
9A
  5
9A
331
9F
  5
9F
331
BE
  5
BE
331
18A
  5
18A
331
C9
  5
C9
331
7B
  5
7B
331
15A
  5
15A
331
26
  5
26
331
62
  5
62
331
AC
  5
AC
331
67
  5
67
331
182
  5
182
331
92
  5
92
331
122
  5
122
331
D8
  5
D8
331
4D
  5
4D
331
FF
  5
FF
331
1AF
  5
1AF
331
EC
  5
EC
331
1AC
  5
1AC
331
208
  5
208
331
209
  5
209
331
19A
  5
19A
331
1D7
  5
1D7
331
1D8
  5
1D8
331
150
  5
150
331
1E0
  5
1E0
331
1E1
  5
1E1
331
E2
  5
E2
331
50
  5
50
331
13E
  5
13E
331
13A
  5
13A
331
A5
  5
A5
331
210
  5
210
331
211
  5
211
331
61
  5
61
331
184
  5
184
331
33
  5
33
331
116
  5
116
331
1F4
  5
1F4
331
1F5
  5
1F5
331
89
  5
89
331
176
  5
176
331
E6
  5
E6
331
242
  5
242
331
243
  5
243
331
117
  5
117
331
118
  5
118
331
45
  5
45
331
4B
  5
4B
331
16E
  5
16E
331
3A
  5
3A
331
204
  5
204
331
205
  5
205
331
28E
  5
28E
331
28F
  5
28F
331
290
  5
290
331
1AD
  5
1AD
331
123
  5
123
331
27
  5
27
331
3F
  5
3F
331
BF
  5
BF
331
107
  5
107
331
A6
  5
A6
331
193
  5
193
331
54
  5
54
331
53
  5
53
331
291
  5
291
331
292
  5
292
331
11B
  5
11B
331
72
  5
72
331
C0
  5
C0
331
128
  5
128
331
1BD
  5
1BD
331
CC
  5
CC
331
34
  5
34
331
1E7
  5
1E7
331
1E8
  5
1E8
331
9E
  5
9E
331
12D
  5
12D
331
26B
  5
26B
331
26C
  5
26C
331
F8
  5
F8
331
56
  5
56
331
115
  5
115
331
AF
  5
AF
331
C4
  5
C4
331
293
  5
293
331
294
  5
294
331
295
  5
295
331
228
  5
228
331
229
  5
229
331
153
  5
153
331
30
  5
30
331
174
  5
174
331
19D
  5
19D
331
134
  5
134
331
F4
  5
F4
331
44
  5
44
331
214
  5
214
331
215
  5
215
331
2E
  5
2E
331
1D9
  5
1D9
331
121
  5
121
331
160
  5
160
331
131
  5
131
331
76
  5
76
331
170
  5
170
331
BA
  5
BA
331
119
  5
119
331
138
  5
138
331
A2
  5
A2
331
139
  5
139
331
1BF
  5
1BF
331
111
  5
111
331
DE
  5
DE
331
5C
  5
5C
331
1A8
  5
1A8
331
2D
  5
2D
331
57
  5
57
331
1F1
  5
1F1
331
1F2
  5
1F2
331
39
  5
39
331
296
  5
296
331
297
  5
297
331
298
  5
298
331
251
  5
251
331
252
  5
252
331
253
  5
253
331
6E
  5
6E
331
6F
  5
6F
331
B3
  5
B3
331
9B
  5
9B
331
D3
  5
D3
331
1FD
  5
1FD
331
197
  5
197
331
29B
  5
29B
331
29C
  5
29C
331
29D
  5
29D
331
220
  5
220
331
221
  5
221
331
125
  5
125
331
77
  5
77
331
248
  5
248
331
249
  5
249
331
1C6
  5
1C6
331
20E
  5
20E
331
20F
  5
20F
331
2A7
  5
2A7
331
2A8
  5
2A8
331
2A9
  5
2A9
331
8A
  5
8A
331
2B
  5
2B
331
86
  5
86
331
85
  5
85
331
55
  5
55
331
3E
  5
3E
331
3D
  5
3D
331
4F
  5
4F
331
F6
  5
F6
331
20C
  5
20C
331
20D
  5
20D
331
2A4
  5
2A4
331
2A5
  5
2A5
331
2A6
  5
2A6
331
216
  5
216
331
217
  5
217
331
25F
  5
25F
331
260
  5
260
331
262
  5
262
331
13C
  5
13C
331
283
  5
283
331
284
  5
284
331
285
  5
285
331
218
  5
218
331
219
  5
219
331
7C
  5
7C
331
194
  5
194
331
41
  5
41
331
47
  5
47
331
49
  5
49
331
EE
  5
EE
331
1F8
  5
1F8
331
165
  5
165
331
8D
  5
8D
331
18B
  5
18B
331
266
  5
266
331
267
  5
267
331
FD
  5
FD
331
188
  5
188
331
289
  5
289
331
28A
  5
28A
331
1A7
  5
1A7
331
1B7
  5
1B7
331
144
  5
144
331
1BB
  5
1BB
331
D0
  5
D0
331
AD
  5
AD
331
16B
  5
16B
331
F7
  5
F7
331
17B
  5
17B
331
1B8
  5
1B8
331
66
  5
66
331
2F
  5
2F
331
23E
  5
23E
331
23F
  5
23F
331
1BE
  5
1BE
331
1CD
  5
1CD
331
135
  5
135
331
1B9
  5
1B9
331
15C
  5
15C
331
140
  5
140
331
16F
  5
16F
331
9D
  5
9D
331
1A4
  5
1A4
331
A9
  5
A9
331
183
  5
183
331
263
  5
263
331
264
  5
264
331
C5
  5
C5
331
101
  5
101
331
FC
  5
FC
331
31
  5
31
331
158
  5
158
331
132
  5
132
331
32
  5
32
331
202
  5
202
331
203
  5
203
331
5E
  5
5E
331
2D2
  5
2D2
331
2D3
  5
2D3
331
96
  5
96
  0
LAYOUT
  5
F
102
{ACAD_REACTORS
330
B
102
}
102
{ACAD_XDICTIONARY
360
2E6
102
}
330
B
100
AcDbPlotSettings
  1

  2
HP LaserJet 2100 Series PS
  4

  6

 40
0.0
 41
0.0
 42
0.0
 43
0.0
 44
0.0
 45
0.0
 46
0.0
 47
0.0
 48
0.0
 49
0.0
140
0.0
141
0.0
142
1.0
143
1.0
 70
   688
 72
     0
 73
     0
 74
     5
  7
monochrome.ctb
 75
    16
147
1.0
148
0.0
149
0.0
100
AcDbLayout
  1
Layout1
 70
     0
 71
     1
 10
0.0
 20
0.0
 11
12.0
 21
9.0
 12
0.0
 22
0.0
 32
0.0
 14
1.000000000000000E+20
 24
1.000000000000000E+20
 34
1.000000000000000E+20
 15
-1.000000000000000E+20
 25
-1.000000000000000E+20
 35
-1.000000000000000E+20
146
0.0
 13
0.0
 23
0.0
 33
0.0
 16
1.0
 26
0.0
 36
0.0
 17
0.0
 27
1.0
 37
0.0
 76
     0
330
C
  0
LAYOUT
  5
A
102
{ACAD_REACTORS
330
B
102
}
102
{ACAD_XDICTIONARY
360
2E8
102
}
330
B
100
AcDbPlotSettings
  1

  2
HP LaserJet 2100 Series PS
  4
Letter
  6

 40
5.365749835968018
 41
5.408073902130127
 42
5.132904052734375
 43
5.090576171875
 44
215.8999938964844
 45
279.3999938964844
 46
0.0
 47
0.0
 48
0.0
 49
0.0
140
0.0
141
0.0
142
1.0
143
1.0
 70
 11952
 72
     0
 73
     1
 74
     0
  7
monochrome.ctb
 75
     0
147
1.0
148
-92.33070797844178
149
24.17269656488928
100
AcDbLayout
  1
Model
 70
     1
 71
     0
 10
0.0
 20
0.0
 11
12.0
 21
9.0
 12
0.0
 22
0.0
 32
0.0
 14
0.0
 24
0.0
 34
0.0
 15
0.0
 25
0.0
 35
0.0
146
0.0
 13
0.0
 23
0.0
 33
0.0
 16
1.0
 26
0.0
 36
0.0
 17
0.0
 27
1.0
 37
0.0
 76
     0
330
2
  0
MLINESTYLE
  5
24
102
{ACAD_REACTORS
330
21
102
}
330
21
100
AcDbMlineStyle
  2
STANDARD
 70
     0
  3

 62
   256
 51
90.0
 52
90.0
 71
     2
 49
0.5
 62
   256
  6
BYLAYER
 49
-0.5
 62
   256
  6
BYLAYER
  0
ACDBPLACEHOLDER
  5
5
102
{ACAD_REACTORS
330
6
102
}
330
6
  0
ACAD_PROXY_OBJECT
  5
2CF
102
{ACAD_REACTORS
330
2CE
102
}
330
2CE
100
AcDbProxyObject
 90
      499
 91
      505
 95
   983063
 70
     0
 93
     1841
310
4214DD185B99185C9928B81E85EB51B8AE3F2E07A17AD46E2B8FC02B5E8DC0F42B1CFD028000000C1008070000C3001FDFF8000000C1003FBFF000000182007F7FE00000030400FEFFC00000060801FDFF8000000C1003FBFF00000018200000000000000681FA0B0000001820100E000186003FBFF000000182007F7FE000
310
00030400FEFFC00000060801FDFF8000000C1003FBFF000000182007F7FE000000304000AD7A3703D0AC73F4160000003040201C00030C007F7FE00000030400FEFFC00000060801FDFF8000000C1003FBFF000000182007F7FE00000030400FEFFC000000608000
340
12
340
12
340
12
 94
        0
  0
XRECORD
  5
2E4
102
{ACAD_REACTORS
330
2E3
102
}
330
2E3
100
AcDbXrecord
340
2CD
  0
XRECORD
  5
2E5
102
{ACAD_REACTORS
330
2E3
102
}
330
2E3
100
AcDbXrecord
340
2CC
  0
DICTIONARYVAR
  5
2E0
102
{ACAD_REACTORS
330
2C0
102
}
330
2C0
100
DictionaryVariables
280
     0
  1
STANDARD
  0
DICTIONARYVAR
  5
2E2
102
{ACAD_REACTORS
330
2C0
102
}
330
2C0
100
DictionaryVariables
280
     0
  1
0
  0
DICTIONARY
  5
2E6
330
F
100
AcDbDictionary
280
     1
281
     1
  3
ACAD_XREC_ROUNDTRIP
360
2E7
  0
DICTIONARY
  5
2E8
330
A
100
AcDbDictionary
280
     1
281
     1
  3
ACAD_XREC_ROUNDTRIP
360
2E9
  0
XRECORD
  5
2E7
102
{ACAD_REACTORS
330
2E6
102
}
330
2E6
100
AcDbXrecord
102
SHADEPLOT
 70
     0
102
SHADEPLOTRESLEVEL
 70
     2
102
SHADEPLOTCUSTOMDPI
 70
   300
  0
XRECORD
  5
2E9
102
{ACAD_REACTORS
330
2E8
102
}
330
2E8
100
AcDbXrecord
102
SHADEPLOT
 70
     0
102
SHADEPLOTRESLEVEL
 70
     2
102
SHADEPLOTCUSTOMDPI
 70
   300
  0
ENDSEC
  0
EOF
