  0
SECTION
  2
HEADER
  9
$ACADVER
  1
AC1015
  9
$ACADMAINTVER
 70
     6
  9
$DWGCODEPAGE
  3
ANSI_1252
  9
$INSBASE
 10
0.0
 20
0.0
 30
0.0
  9
$EXTMIN
 10
-1.352826563875535
 20
0.1874961010207983
 30
0.0
  9
$EXTMAX
 10
16.24421334931472
 20
12.66852302723933
 30
0.0
  9
$LIMMIN
 10
0.0
 20
0.0
  9
$LIMMAX
 10
26.25
 20
20.0
  9
$ORTHOMODE
 70
     1
  9
$REGENMODE
 70
     1
  9
$FILLMODE
 70
     1
  9
$QTEXTMODE
 70
     0
  9
$MIRRTEXT
 70
     0
  9
$LTSCALE
 40
0.5
  9
$ATTMODE
 70
     1
  9
$TEXTSIZE
 40
0.225
  9
$TRACEWID
 40
0.05
  9
$TEXTSTYLE
  7
STANDARD
  9
$CLAYER
  8
0
  9
$CELTYPE
  6
BYLAYER
  9
$CECOLOR
 62
   256
  9
$CELTSCALE
 40
1.0
  9
$DISPSILH
 70
     0
  9
$DIMSCALE
 40
2.5
  9
$DIMASZ
 40
0.125
  9
$DIMEXO
 40
0.062
  9
$DIMDLI
 40
0.375
  9
$DIMRND
 40
0.0
  9
$DIMDLE
 40
0.0
  9
$DIMEXE
 40
0.08
  9
$DIMTP
 40
0.0
  9
$DIMTM
 40
0.0
  9
$DIMTXT
 40
0.09
  9
$DIMCEN
 40
-0.06
  9
$DIMTSZ
 40
0.0
  9
$DIMTOL
 70
     0
  9
$DIMLIM
 70
     0
  9
$DIMTIH
 70
     1
  9
$DIMTOH
 70
     1
  9
$DIMSE1
 70
     0
  9
$DIMSE2
 70
     0
  9
$DIMTAD
 70
     0
  9
$DIMZIN
 70
     0
  9
$DIMBLK
  1

  9
$DIMASO
 70
     0
  9
$DIMSHO
 70
     0
  9
$DIMPOST
  1

  9
$DIMAPOST
  1

  9
$DIMALT
 70
     0
  9
$DIMALTD
 70
     2
  9
$DIMALTF
 40
25.4
  9
$DIMLFAC
 40
1.0
  9
$DIMTOFL
 70
     0
  9
$DIMTVP
 40
0.0
  9
$DIMTIX
 70
     0
  9
$DIMSOXD
 70
     0
  9
$DIMSAH
 70
     0
  9
$DIMBLK1
  1

  9
$DIMBLK2
  1

  9
$DIMSTYLE
  2
STANDARD
  9
$DIMCLRD
 70
     0
  9
$DIMCLRE
 70
     0
  9
$DIMCLRT
 70
     0
  9
$DIMTFAC
 40
1.0
  9
$DIMGAP
 40
0.09
  9
$DIMJUST
 70
     0
  9
$DIMSD1
 70
     0
  9
$DIMSD2
 70
     0
  9
$DIMTOLJ
 70
     1
  9
$DIMTZIN
 70
     0
  9
$DIMALTZ
 70
     0
  9
$DIMALTTZ
 70
     0
  9
$DIMUPT
 70
     0
  9
$DIMDEC
 70
     4
  9
$DIMTDEC
 70
     4
  9
$DIMALTU
 70
     2
  9
$DIMALTTD
 70
     2
  9
$DIMTXSTY
  7
STANDARD
  9
$DIMAUNIT
 70
     0
  9
$DIMADEC
 70
     0
  9
$DIMALTRND
 40
0.0
  9
$DIMAZIN
 70
     0
  9
$DIMDSEP
 70
    46
  9
$DIMATFIT
 70
     3
  9
$DIMFRAC
 70
     0
  9
$DIMLDRBLK
  1

  9
$DIMLUNIT
 70
     2
  9
$DIMLWD
 70
    -2
  9
$DIMLWE
 70
    -2
  9
$DIMTMOVE
 70
     2
  9
$LUNITS
 70
     2
  9
$LUPREC
 70
     4
  9
$SKETCHINC
 40
0.1
  9
$FILLETRAD
 40
0.0
  9
$AUNITS
 70
     0
  9
$AUPREC
 70
     0
  9
$MENU
  1
qa
  9
$ELEVATION
 40
0.0
  9
$PELEVATION
 40
0.0
  9
$THICKNESS
 40
0.0
  9
$LIMCHECK
 70
     0
  9
$CHAMFERA
 40
0.25
  9
$CHAMFERB
 40
0.25
  9
$CHAMFERC
 40
0.0
  9
$CHAMFERD
 40
0.0
  9
$SKPOLY
 70
     0
  9
$TDCREATE
 40
2449771.675867477
  9
$TDUCREATE
 40
2449772.00920081
  9
$TDUPDATE
 40
2454162.834934305
  9
$TDUUPDATE
 40
2454163.168267639
  9
$TDINDWG
 40
0.2024061343
  9
$TDUSRTIMER
 40
0.2024061343
  9
$USRTIMER
 70
     1
  9
$ANGBASE
 50
0.0
  9
$ANGDIR
 70
     0
  9
$PDMODE
 70
     0
  9
$PDSIZE
 40
0.0
  9
$PLINEWID
 40
0.0
  9
$SPLFRAME
 70
     0
  9
$SPLINETYPE
 70
     6
  9
$SPLINESEGS
 70
     8
  9
$HANDSEED
  5
77F
  9
$SURFTAB1
 70
     6
  9
$SURFTAB2
 70
     6
  9
$SURFTYPE
 70
     6
  9
$SURFU
 70
     6
  9
$SURFV
 70
     6
  9
$UCSBASE
  2

  9
$UCSNAME
  2

  9
$UCSORG
 10
0.0
 20
0.0
 30
0.0
  9
$UCSXDIR
 10
1.0
 20
0.0
 30
0.0
  9
$UCSYDIR
 10
0.0
 20
1.0
 30
0.0
  9
$UCSORTHOREF
  2

  9
$UCSORTHOVIEW
 70
     0
  9
$UCSORGTOP
 10
0.0
 20
0.0
 30
0.0
  9
$UCSORGBOTTOM
 10
0.0
 20
0.0
 30
0.0
  9
$UCSORGLEFT
 10
0.0
 20
0.0
 30
0.0
  9
$UCSORGRIGHT
 10
0.0
 20
0.0
 30
0.0
  9
$UCSORGFRONT
 10
0.0
 20
0.0
 30
0.0
  9
$UCSORGBACK
 10
0.0
 20
0.0
 30
0.0
  9
$PUCSBASE
  2

  9
$PUCSNAME
  2

  9
$PUCSORG
 10
0.0
 20
0.0
 30
0.0
  9
$PUCSXDIR
 10
1.0
 20
0.0
 30
0.0
  9
$PUCSYDIR
 10
0.0
 20
1.0
 30
0.0
  9
$PUCSORTHOREF
  2

  9
$PUCSORTHOVIEW
 70
     0
  9
$PUCSORGTOP
 10
0.0
 20
0.0
 30
0.0
  9
$PUCSORGBOTTOM
 10
0.0
 20
0.0
 30
0.0
  9
$PUCSORGLEFT
 10
0.0
 20
0.0
 30
0.0
  9
$PUCSORGRIGHT
 10
0.0
 20
0.0
 30
0.0
  9
$PUCSORGFRONT
 10
0.0
 20
0.0
 30
0.0
  9
$PUCSORGBACK
 10
0.0
 20
0.0
 30
0.0
  9
$USERI1
 70
     0
  9
$USERI2
 70
     0
  9
$USERI3
 70
     0
  9
$USERI4
 70
     0
  9
$USERI5
 70
     0
  9
$USERR1
 40
0.0
  9
$USERR2
 40
0.0
  9
$USERR3
 40
0.0
  9
$USERR4
 40
0.0
  9
$USERR5
 40
0.0
  9
$WORLDVIEW
 70
     1
  9
$SHADEDGE
 70
     3
  9
$SHADEDIF
 70
    70
  9
$TILEMODE
 70
     1
  9
$MAXACTVP
 70
    16
  9
$PINSBASE
 10
0.0
 20
0.0
 30
0.0
  9
$PLIMCHECK
 70
     0
  9
$PEXTMIN
 10
1.000000000000000E+20
 20
1.000000000000000E+20
 30
1.000000000000000E+20
  9
$PEXTMAX
 10
-1.000000000000000E+20
 20
-1.000000000000000E+20
 30
-1.000000000000000E+20
  9
$PLIMMIN
 10
0.0
 20
0.0
  9
$PLIMMAX
 10
12.0
 20
9.0
  9
$UNITMODE
 70
     0
  9
$VISRETAIN
 70
     0
  9
$PLINEGEN
 70
     0
  9
$PSLTSCALE
 70
     0
  9
$TREEDEPTH
 70
  3020
  9
$CMLSTYLE
  2
STANDARD
  9
$CMLJUST
 70
     0
  9
$CMLSCALE
 40
1.0
  9
$PROXYGRAPHICS
 70
     1
  9
$MEASUREMENT
 70
     0
  9
$CELWEIGHT
370
    -1
  9
$ENDCAPS
280
     0
  9
$JOINSTYLE
280
     0
  9
$LWDISPLAY
290
     0
  9
$INSUNITS
 70
     0
  9
$HYPERLINKBASE
  1

  9
$STYLESHEET
  1

  9
$XEDIT
290
     1
  9
$CEPSNTYPE
380
     0
  9
$PSTYLEMODE
290
     1
  9
$FINGERPRINTGUID
  2
{6373DD30-55A5-11D5-BE3F-00508B5FCD51}
  9
$VERSIONGUID
  2
{8C2473C2-8009-482B-8F7A-CF129CC79B12}
  9
$EXTNAMES
290
     1
  9
$PSVPSCALE
 40
0.0
  9
$OLESTARTUP
290
     0
  0
ENDSEC
  0
SECTION
  2
CLASSES
  0
CLASS
  1
DICTIONARYVAR
  2
AcDbDictionaryVar
  3
AutoCAD 2000
 90
        0
280
     0
281
     0
  0
CLASS
  1
LWPOLYLINE
  2
AcDbPolyline
  3
AutoCAD 2000
 90
        0
280
     0
281
     1
  0
CLASS
  1
ACDBDICTIONARYWDFLT
  2
AcDbDictionaryWithDefault
  3
AutoCAD 2000
 90
        0
280
     0
281
     0
  0
CLASS
  1
ACDBPLACEHOLDER
  2
AcDbPlaceHolder
  3
ObjectDBX Classes
 90
        0
280
     0
281
     0
  0
CLASS
  1
LAYOUT
  2
AcDbLayout
  3
ObjectDBX Classes
 90
        0
280
     0
281
     0
  0
CLASS
  1
LONG_TRANSACTION
  2
AcDbLongTransaction
  3
ObjectDBX Classes
 90
   -65536
280
     1
281
     0
  0
CLASS
  1
LWPOLYLINE
  2
AcDbPolyline
  3
AutoCAD 2000
 90
        0
280
     0
281
     1
  0
CLASS
  1
HATCH
  2
AcDbHatch
  3
AutoCAD 2000
 90
        0
280
     0
281
     1
  0
CLASS
  1
XRECORD
  2
AcDbXrecord
  3
AutoCAD 2000
 90
        0
280
     0
281
     0
  0
CLASS
  1
LONG_TRANSACTION
  2
AcDbLongTransaction
  3
ObjectDBX Classes
 90
   -65536
280
     1
281
     0
  0
CLASS
  1
LWPOLYLINE
  2
AcDbPolyline
  3
AutoCAD 2000
 90
        0
280
     0
281
     1
  0
CLASS
  1
HATCH
  2
AcDbHatch
  3
AutoCAD 2000
 90
        0
280
     0
281
     1
  0
CLASS
  1
XRECORD
  2
AcDbXrecord
  3
AutoCAD 2000
 90
        0
280
     0
281
     0
  0
CLASS
  1
LONG_TRANSACTION
  2
AcDbLongTransaction
  3
ObjectDBX Classes
 90
   -65536
280
     1
281
     0
  0
CLASS
  1
LWPOLYLINE
  2
AcDbPolyline
  3
AutoCAD 2000
 90
        0
280
     0
281
     1
  0
CLASS
  1
HATCH
  2
AcDbHatch
  3
AutoCAD 2000
 90
        0
280
     0
281
     1
  0
CLASS
  1
XRECORD
  2
AcDbXrecord
  3
AutoCAD 2000
 90
        0
280
     0
281
     0
  0
CLASS
  1
LONG_TRANSACTION
  2
AcDbLongTransaction
  3
ObjectDBX Classes
 90
   -65536
280
     1
281
     0
  0
CLASS
  1
LWPOLYLINE
  2
AcDbPolyline
  3
AutoCAD 2000
 90
        0
280
     0
281
     1
  0
CLASS
  1
HATCH
  2
AcDbHatch
  3
AutoCAD 2000
 90
        0
280
     0
281
     1
  0
CLASS
  1
XRECORD
  2
AcDbXrecord
  3
AutoCAD 2000
 90
        0
280
     0
281
     0
  0
CLASS
  1
LONG_TRANSACTION
  2
AcDbLongTransaction
  3
ObjectDBX Classes
 90
   -65536
280
     1
281
     0
  0
CLASS
  1
LWPOLYLINE
  2
AcDbPolyline
  3
AutoCAD 2000
 90
        0
280
     0
281
     1
  0
CLASS
  1
HATCH
  2
AcDbHatch
  3
AutoCAD 2000
 90
        0
280
     0
281
     1
  0
CLASS
  1
XRECORD
  2
AcDbXrecord
  3
AutoCAD 2000
 90
        0
280
     0
281
     0
  0
CLASS
  1
TABLESTYLE
  2
AcDbTableStyle
  3
ObjectDBX Classes
 90
     2047
280
     1
281
     0
  0
ENDSEC
  0
SECTION
  2
TABLES
  0
TABLE
  2
VPORT
  5
1D
330
0
100
AcDbSymbolTable
 70
     3
  0
VPORT
  5
771
330
1D
100
AcDbSymbolTableRecord
100
AcDbViewportTableRecord
  2
*Active
 70
     0
 10
0.0
 20
0.0
 11
1.0
 21
1.0
 12
12.61697505275119
 22
8.734407464370008
 13
0.0
 23
0.0
 14
0.063
 24
0.063
 15
0.25
 25
0.25
 16
0.0
 26
0.0
 36
1.0
 17
0.0
 27
0.0
 37
0.0
 40
20.24948024005093
 41
1.814583333333333
 42
50.0
 43
0.0
 44
0.0
 50
0.0
 51
0.0
 71
     0
 72
   100
 73
     1
 74
     0
 75
     0
 76
     0
 77
     0
 78
     0
281
     0
 65
     1
110
0.0
120
0.0
130
0.0
111
1.0
121
0.0
131
0.0
112
0.0
122
1.0
132
0.0
 79
     0
146
0.0
  0
ENDTAB
  0
TABLE
  2
LTYPE
  5
18
330
0
100
AcDbSymbolTable
 70
     2
  0
LTYPE
  5
19
330
18
100
AcDbSymbolTableRecord
100
AcDbLinetypeTableRecord
  2
BYBLOCK
 70
     0
  3

 72
    65
 73
     0
 40
0.0
  0
LTYPE
  5
1A
330
18
100
AcDbSymbolTableRecord
100
AcDbLinetypeTableRecord
  2
BYLAYER
 70
     0
  3

 72
    65
 73
     0
 40
0.0
  0
LTYPE
  5
A
330
18
100
AcDbSymbolTableRecord
100
AcDbLinetypeTableRecord
  2
CONTINUOUS
 70
     0
  3
Solid line
 72
    65
 73
     0
 40
0.0
  0
LTYPE
  5
754
330
18
100
AcDbSymbolTableRecord
100
AcDbLinetypeTableRecord
  2
HIDDEN
 70
     0
  3
Hidden __ __ __ __ __ __ __ __ __ __ __ __ __ _
 72
    65
 73
     2
 40
0.375
 49
0.25
 74
     0
 49
-0.125
 74
     0
  0
ENDTAB
  0
TABLE
  2
LAYER
  5
14
330
0
100
AcDbSymbolTable
 70
     1
  0
LAYER
  5
6
330
14
100
AcDbSymbolTableRecord
100
AcDbLayerTableRecord
  2
0
 70
     0
 62
     7
  6
CONTINUOUS
370
    -3
390
7
  0
ENDTAB
  0
TABLE
  2
STYLE
  5
15
330
0
100
AcDbSymbolTable
 70
     2
  0
STYLE
  5
16
330
15
100
AcDbSymbolTableRecord
100
AcDbTextStyleTableRecord
  2
STANDARD
 70
     0
 40
0.0
 41
1.0
 50
0.0
 71
     0
 42
0.225
  3
TXT
  4

  0
STYLE
  5
753
330
15
100
AcDbSymbolTableRecord
100
AcDbTextStyleTableRecord
  2

 70
     1
 40
0.0
 41
1.0
 50
0.0
 71
     0
 42
0.225
  3
ltypeshp.shx
  4

  0
ENDTAB
  0
TABLE
  2
VIEW
  5
1B
330
0
100
AcDbSymbolTable
 70
     0
  0
ENDTAB
  0
TABLE
  2
UCS
  5
1C
330
0
100
AcDbSymbolTable
 70
     0
  0
ENDTAB
  0
TABLE
  2
APPID
  5
1F
330
0
100
AcDbSymbolTable
 70
     1
  0
APPID
  5
20
330
1F
100
AcDbSymbolTableRecord
100
AcDbRegAppTableRecord
  2
ACAD
 70
     0
  0
ENDTAB
  0
TABLE
  2
DIMSTYLE
  5
21
330
0
100
AcDbSymbolTable
 70
     1
100
AcDbDimStyleTable
  0
DIMSTYLE
105
28
330
21
100
AcDbSymbolTableRecord
100
AcDbDimStyleTableRecord
  2
STANDARD
 70
     0
  3

  4

340
16
  0
ENDTAB
  0
TABLE
  2
BLOCK_RECORD
  5
1
330
0
100
AcDbSymbolTable
 70
     0
  0
BLOCK_RECORD
  5
2
330
1
100
AcDbSymbolTableRecord
100
AcDbBlockTableRecord
  2
*MODEL_SPACE
340
C
  0
BLOCK_RECORD
  5
E
330
1
100
AcDbSymbolTableRecord
100
AcDbBlockTableRecord
  2
*PAPER_SPACE
340
13
  0
ENDTAB
  0
ENDSEC
  0
SECTION
  2
BLOCKS
  0
BLOCK
  5
5
330
2
100
AcDbEntity
  8
0
100
AcDbBlockBegin
  2
*MODEL_SPACE
 70
     0
 10
0.0
 20
0.0
 30
0.0
  3
*MODEL_SPACE
  1

  4

  0
ENDBLK
  5
B
330
2
100
AcDbEntity
  8
0
100
AcDbBlockEnd
  0
BLOCK
  5
11
330
E
100
AcDbEntity
 67
     1
  8
0
100
AcDbBlockBegin
  2
*PAPER_SPACE
 70
     0
 10
0.0
 20
0.0
 30
0.0
  3
*PAPER_SPACE
  1

  4

  0
ENDBLK
  5
12
330
E
100
AcDbEntity
 67
     1
  8
0
100
AcDbBlockEnd
  0
ENDSEC
  0
SECTION
  2
ENTITIES
  0
LINE
  5
5FC
330
2
100
AcDbEntity
  8
0
100
AcDbLine
 10
-1.102826563875535
 20
7.255246101020799
 30
0.0
 11
1.272173436124465
 21
7.255246101020799
 31
0.0
  0
LINE
  5
5FD
330
2
100
AcDbEntity
  8
0
  6
HIDDEN
100
AcDbLine
 10
-1.352826563875535
 20
5.286496101020797
 30
0.0
 11
1.522173436124465
 21
5.286496101020797
 31
0.0
  0
LINE
  5
5FE
330
2
100
AcDbEntity
  8
0
100
AcDbLine
 10
-1.352826563875535
 20
5.187496101020798
 30
0.0
 11
1.522173436124465
 21
5.1874961010208
 31
0.0
  0
LINE
  5
5FF
330
2
100
AcDbEntity
  8
0
100
AcDbLine
 10
1.522173436124465
 20
7.005246101020799
 30
0.0
 11
1.522173436124465
 21
5.1874961010208
 31
0.0
  0
LINE
  5
600
330
2
100
AcDbEntity
  8
0
100
AcDbLine
 10
1.272173436124465
 20
7.255246101020799
 30
0.0
 11
1.522173436124465
 21
7.005246101020799
 31
0.0
  0
LINE
  5
601
330
2
100
AcDbEntity
  8
0
100
AcDbLine
 10
-0.2799515638755423
 20
4.906246101020798
 30
0.0
 11
-0.2799515638755388
 21
5.062496101020798
 31
0.0
  0
LINE
  5
602
330
2
100
AcDbEntity
  8
0
100
AcDbLine
 10
0.4492984361244581
 20
4.906246101020795
 30
0.0
 11
0.4492984361244616
 21
5.062496101020798
 31
0.0
  0
LINE
  5
603
330
2
100
AcDbEntity
  8
0
100
AcDbLine
 10
0.3971734361244437
 20
1.778409737384436
 30
0.0
 11
0.3184438539622221
 21
1.823864282838981
 31
0.0
  0
LINE
  5
604
330
2
100
AcDbEntity
  8
0
100
AcDbLine
 10
-0.2278265638755563
 20
1.823859737384435
 30
0.0
 11
0.3971734361244437
 21
1.778409737384434
 31
0.0
  0
LINE
  5
605
330
2
100
AcDbEntity
  8
0
100
AcDbLine
 10
-0.1490969817133383
 20
1.778405191929888
 30
0.0
 11
-0.2278265638755563
 21
1.823859737384435
 31
0.0
  0
LINE
  5
606
330
2
100
AcDbEntity
  8
0
100
AcDbLine
 10
0.3760757986108381
 20
0.2451359186276321
 30
0.0
 11
0.3184438539622221
 21
0.2784097373844343
 31
0.0
  0
LINE
  5
607
330
2
100
AcDbEntity
  8
0
100
AcDbLine
 10
-0.2278265638755563
 20
0.2784051919298882
 30
0.0
 11
0.3760757986108381
 21
0.2451359186276321
 31
0.0
  0
LINE
  5
608
330
2
100
AcDbEntity
  8
0
100
AcDbLine
 10
-0.1490969817133383
 20
0.2329506464753433
 30
0.0
 11
-0.2278265638755563
 21
0.2784051919298882
 31
0.0
  0
LINE
  5
609
330
2
100
AcDbEntity
  8
0
100
AcDbLine
 10
0.3184359810040043
 20
0.1874961010207983
 30
0.0
 11
-0.1490969817133383
 21
0.1874961010207983
 31
0.0
  0
LINE
  5
60A
330
2
100
AcDbEntity
  8
0
100
AcDbLine
 10
0.3184438539622221
 20
0.1875006464753426
 30
0.0
 11
-0.1490969817133383
 21
0.2329506464753433
 31
0.0
  0
LINE
  5
60B
330
2
100
AcDbEntity
  8
0
100
AcDbLine
 10
0.3760757986108381
 20
0.2451359186276321
 30
0.0
 11
0.3184359810040043
 21
0.1874961010207983
 31
0.0
  0
LINE
  5
60C
330
2
100
AcDbEntity
  8
0
100
AcDbLine
 10
-0.1490969817133383
 20
0.1874961010207983
 30
0.0
 11
-0.1779140088140458
 21
0.2163131281215041
 31
0.0
  0
LINE
  5
60D
330
2
100
AcDbEntity
  8
0
100
AcDbLine
 10
-0.1779140088140458
 20
0.2163131281215041
 30
0.0
 11
-0.1490969817133383
 21
0.2329506464753433
 31
0.0
  0
LINE
  5
60E
330
2
100
AcDbEntity
  8
0
100
AcDbLine
 10
0.3184438539622221
 20
1.005682464657163
 30
0.0
 11
-0.1490969817133383
 21
1.051132464657162
 31
0.0
  0
LINE
  5
60F
330
2
100
AcDbEntity
  8
0
100
AcDbLine
 10
0.3184438539622221
 20
1.005682464657163
 30
0.0
 11
0.3971734361244437
 21
1.051137010111706
 31
0.0
  0
LINE
  5
610
330
2
100
AcDbEntity
  8
0
100
AcDbLine
 10
-0.2278265638755563
 20
1.005677919202615
 30
0.0
 11
-0.1490969817133383
 21
1.051132464657162
 31
0.0
  0
LINE
  5
611
330
2
100
AcDbEntity
  8
0
100
AcDbLine
 10
0.3184438539622221
 20
0.6420461010207976
 30
0.0
 11
-0.1490969817133383
 21
0.6874961010207965
 31
0.0
  0
LINE
  5
612
330
2
100
AcDbEntity
  8
0
100
AcDbLine
 10
0.3184438539622221
 20
0.6420461010207976
 30
0.0
 11
0.3971734361244437
 21
0.6875006464753426
 31
0.0
  0
LINE
  5
613
330
2
100
AcDbEntity
  8
0
100
AcDbLine
 10
-0.2278265638755563
 20
0.6420415555662515
 30
0.0
 11
-0.1490969817133383
 21
0.6874961010207965
 31
0.0
  0
LINE
  5
614
330
2
100
AcDbEntity
  8
0
100
AcDbLine
 10
0.3184438539622221
 20
0.2784097373844343
 30
0.0
 11
-0.1490969817133383
 21
0.3238597373844332
 31
0.0
  0
LINE
  5
615
330
2
100
AcDbEntity
  8
0
100
AcDbLine
 10
0.3184438539622221
 20
0.3693188282935243
 30
0.0
 11
-0.1490969817133383
 21
0.4147688282935249
 31
0.0
  0
LINE
  5
616
330
2
100
AcDbEntity
  8
0
100
AcDbLine
 10
0.3184438539622221
 20
0.460227919202616
 30
0.0
 11
-0.1490969817133383
 21
0.5056779192026149
 31
0.0
  0
LINE
  5
617
330
2
100
AcDbEntity
  8
0
100
AcDbLine
 10
0.3184438539622221
 20
0.5511370101117059
 30
0.0
 11
-0.1490969817133383
 21
0.5965870101117066
 31
0.0
  0
LINE
  5
618
330
2
100
AcDbEntity
  8
0
100
AcDbLine
 10
-0.2278265638755563
 20
0.3693142828389799
 30
0.0
 11
0.3971734361244437
 21
0.3238642828389793
 31
0.0
  0
LINE
  5
619
330
2
100
AcDbEntity
  8
0
100
AcDbLine
 10
-0.2278265638755563
 20
0.4602233737480699
 30
0.0
 11
0.3971734361244437
 21
0.4147733737480692
 31
0.0
  0
LINE
  5
61A
330
2
100
AcDbEntity
  8
0
100
AcDbLine
 10
-0.2278265638755563
 20
0.5511324646571616
 30
0.0
 11
0.3971734361244437
 21
0.5056824646571609
 31
0.0
  0
LINE
  5
61B
330
2
100
AcDbEntity
  8
0
100
AcDbLine
 10
-0.2278265638755563
 20
0.6420415555662515
 30
0.0
 11
0.3971734361244437
 21
0.5965915555662509
 31
0.0
  0
LINE
  5
61C
330
2
100
AcDbEntity
  8
0
100
AcDbLine
 10
0.3971734361244437
 20
0.5056824646571609
 30
0.0
 11
0.3184438539622221
 21
0.5511370101117059
 31
0.0
  0
LINE
  5
61D
330
2
100
AcDbEntity
  8
0
100
AcDbLine
 10
0.3184438539622221
 20
0.2784097373844343
 30
0.0
 11
0.3971734361244437
 21
0.3238642828389793
 31
0.0
  0
LINE
  5
61E
330
2
100
AcDbEntity
  8
0
100
AcDbLine
 10
0.3971734361244437
 20
0.3238642828389793
 30
0.0
 11
0.3184438539622221
 21
0.3693188282935243
 31
0.0
  0
LINE
  5
61F
330
2
100
AcDbEntity
  8
0
100
AcDbLine
 10
0.3184438539622221
 20
0.3693188282935243
 30
0.0
 11
0.3971734361244437
 21
0.4147733737480692
 31
0.0
  0
LINE
  5
620
330
2
100
AcDbEntity
  8
0
100
AcDbLine
 10
0.3971734361244437
 20
0.414773373748071
 30
0.0
 11
0.3184438539622221
 21
0.460227919202616
 31
0.0
  0
LINE
  5
621
330
2
100
AcDbEntity
  8
0
100
AcDbLine
 10
0.3184438539622221
 20
0.460227919202616
 30
0.0
 11
0.3971734361244437
 21
0.5056824646571609
 31
0.0
  0
LINE
  5
622
330
2
100
AcDbEntity
  8
0
100
AcDbLine
 10
0.3184438539622221
 20
0.5511370101117059
 30
0.0
 11
0.3971734361244437
 21
0.5965915555662509
 31
0.0
  0
LINE
  5
623
330
2
100
AcDbEntity
  8
0
100
AcDbLine
 10
0.3971734361244437
 20
0.5965915555662527
 30
0.0
 11
0.3184438539622221
 21
0.6420461010207976
 31
0.0
  0
LINE
  5
624
330
2
100
AcDbEntity
  8
0
100
AcDbLine
 10
-0.1490969817133383
 20
0.5056779192026149
 30
0.0
 11
-0.2278265638755563
 21
0.5511324646571598
 31
0.0
  0
LINE
  5
625
330
2
100
AcDbEntity
  8
0
100
AcDbLine
 10
-0.2278265638755563
 20
0.2784051919298882
 30
0.0
 11
-0.1490969817133383
 21
0.3238597373844332
 31
0.0
  0
LINE
  5
626
330
2
100
AcDbEntity
  8
0
100
AcDbLine
 10
-0.1490969817133383
 20
0.3238597373844332
 30
0.0
 11
-0.2278265638755563
 21
0.3693142828389782
 31
0.0
  0
LINE
  5
627
330
2
100
AcDbEntity
  8
0
100
AcDbLine
 10
-0.2278265638755563
 20
0.3693142828389799
 30
0.0
 11
-0.1490969817133383
 21
0.4147688282935249
 31
0.0
  0
LINE
  5
628
330
2
100
AcDbEntity
  8
0
100
AcDbLine
 10
-0.1490969817133383
 20
0.4147688282935249
 30
0.0
 11
-0.2278265638755563
 21
0.4602233737480699
 31
0.0
  0
LINE
  5
629
330
2
100
AcDbEntity
  8
0
100
AcDbLine
 10
-0.2278265638755563
 20
0.4602233737480699
 30
0.0
 11
-0.1490969817133383
 21
0.5056779192026149
 31
0.0
  0
LINE
  5
62A
330
2
100
AcDbEntity
  8
0
100
AcDbLine
 10
-0.2278265638755563
 20
0.5511324646571616
 30
0.0
 11
-0.1490969817133383
 21
0.5965870101117066
 31
0.0
  0
LINE
  5
62B
330
2
100
AcDbEntity
  8
0
100
AcDbLine
 10
-0.1490969817133383
 20
0.5965870101117066
 30
0.0
 11
-0.2278265638755563
 21
0.6420415555662515
 31
0.0
  0
LINE
  5
62C
330
2
100
AcDbEntity
  8
0
100
AcDbLine
 10
0.3184438539622221
 20
0.7329551919298893
 30
0.0
 11
-0.1490969817133383
 21
0.7784051919298882
 31
0.0
  0
LINE
  5
62D
330
2
100
AcDbEntity
  8
0
100
AcDbLine
 10
0.3184438539622221
 20
0.8238642828389793
 30
0.0
 11
-0.1490969817133383
 21
0.8693142828389799
 31
0.0
  0
LINE
  5
62E
330
2
100
AcDbEntity
  8
0
100
AcDbLine
 10
0.3184438539622221
 20
0.9147733737480692
 30
0.0
 11
-0.1490969817133383
 21
0.9602233737480717
 31
0.0
  0
LINE
  5
62F
330
2
100
AcDbEntity
  8
0
100
AcDbLine
 10
-0.2278265638755563
 20
0.7329506464753433
 30
0.0
 11
0.3971734361244437
 21
0.6875006464753426
 31
0.0
  0
LINE
  5
630
330
2
100
AcDbEntity
  8
0
100
AcDbLine
 10
-0.2278265638755563
 20
0.823859737384435
 30
0.0
 11
0.3971734361244437
 21
0.7784097373844343
 31
0.0
  0
LINE
  5
631
330
2
100
AcDbEntity
  8
0
100
AcDbLine
 10
-0.2278265638755563
 20
0.9147688282935249
 30
0.0
 11
0.3971734361244437
 21
0.8693188282935243
 31
0.0
  0
LINE
  5
632
330
2
100
AcDbEntity
  8
0
100
AcDbLine
 10
-0.2278265638755563
 20
1.005677919202615
 30
0.0
 11
0.3971734361244437
 21
0.960227919202616
 31
0.0
  0
LINE
  5
633
330
2
100
AcDbEntity
  8
0
100
AcDbLine
 10
0.3184438539622221
 20
0.9147733737480692
 30
0.0
 11
0.3971734361244437
 21
0.960227919202616
 31
0.0
  0
LINE
  5
634
330
2
100
AcDbEntity
  8
0
100
AcDbLine
 10
0.3971734361244437
 20
0.6875006464753444
 30
0.0
 11
0.3184438539622221
 21
0.7329551919298893
 31
0.0
  0
LINE
  5
635
330
2
100
AcDbEntity
  8
0
100
AcDbLine
 10
0.3184438539622221
 20
0.7329551919298893
 30
0.0
 11
0.3971734361244437
 21
0.7784097373844343
 31
0.0
  0
LINE
  5
636
330
2
100
AcDbEntity
  8
0
100
AcDbLine
 10
0.3971734361244437
 20
0.7784097373844343
 30
0.0
 11
0.3184438539622221
 21
0.8238642828389793
 31
0.0
  0
LINE
  5
637
330
2
100
AcDbEntity
  8
0
100
AcDbLine
 10
0.3184438539622221
 20
0.8238642828389793
 30
0.0
 11
0.3971734361244437
 21
0.8693188282935243
 31
0.0
  0
LINE
  5
638
330
2
100
AcDbEntity
  8
0
100
AcDbLine
 10
0.3971734361244437
 20
0.869318828293526
 30
0.0
 11
0.3184438539622221
 21
0.9147733737480692
 31
0.0
  0
LINE
  5
639
330
2
100
AcDbEntity
  8
0
100
AcDbLine
 10
0.3971734361244437
 20
0.960227919202616
 30
0.0
 11
0.3184438539622221
 21
1.005682464657163
 31
0.0
  0
LINE
  5
63A
330
2
100
AcDbEntity
  8
0
100
AcDbLine
 10
-0.2278265638755563
 20
0.9147688282935249
 30
0.0
 11
-0.1490969817133383
 21
0.9602233737480717
 31
0.0
  0
LINE
  5
63B
330
2
100
AcDbEntity
  8
0
100
AcDbLine
 10
-0.1490969817133383
 20
0.6874961010207965
 30
0.0
 11
-0.2278265638755563
 21
0.7329506464753415
 31
0.0
  0
LINE
  5
63C
330
2
100
AcDbEntity
  8
0
100
AcDbLine
 10
-0.2278265638755563
 20
0.7329506464753433
 30
0.0
 11
-0.1490969817133383
 21
0.7784051919298882
 31
0.0
  0
LINE
  5
63D
330
2
100
AcDbEntity
  8
0
100
AcDbLine
 10
-0.1490969817133383
 20
0.7784051919298882
 30
0.0
 11
-0.2278265638755563
 21
0.8238597373844332
 31
0.0
  0
LINE
  5
63E
330
2
100
AcDbEntity
  8
0
100
AcDbLine
 10
-0.2278265638755563
 20
0.823859737384435
 30
0.0
 11
-0.1490969817133383
 21
0.8693142828389799
 31
0.0
  0
LINE
  5
63F
330
2
100
AcDbEntity
  8
0
100
AcDbLine
 10
-0.1490969817133383
 20
0.8693142828389799
 30
0.0
 11
-0.2278265638755563
 21
0.9147688282935249
 31
0.0
  0
LINE
  5
640
330
2
100
AcDbEntity
  8
0
100
AcDbLine
 10
-0.1490969817133383
 20
0.9602233737480717
 30
0.0
 11
-0.2278265638755563
 21
1.005677919202615
 31
0.0
  0
LINE
  5
641
330
2
100
AcDbEntity
  8
0
100
AcDbLine
 10
0.3971734361244437
 20
1.414773373748073
 30
0.0
 11
0.3184438539622221
 21
1.460227919202618
 31
0.0
  0
LINE
  5
642
330
2
100
AcDbEntity
  8
0
100
AcDbLine
 10
-0.2278265638755563
 20
1.460223373748072
 30
0.0
 11
0.3971734361244437
 21
1.414773373748071
 31
0.0
  0
LINE
  5
643
330
2
100
AcDbEntity
  8
0
100
AcDbLine
 10
-0.1490969817133383
 20
1.414768828293525
 30
0.0
 11
-0.2278265638755563
 21
1.460223373748072
 31
0.0
  0
LINE
  5
644
330
2
100
AcDbEntity
  8
0
100
AcDbLine
 10
0.3184438539622221
 20
1.187500646475346
 30
0.0
 11
-0.1490969817133383
 21
1.232950646475345
 31
0.0
  0
LINE
  5
645
330
2
100
AcDbEntity
  8
0
100
AcDbLine
 10
0.3184438539622221
 20
1.278409737384436
 30
0.0
 11
-0.1490969817133383
 21
1.323859737384435
 31
0.0
  0
LINE
  5
646
330
2
100
AcDbEntity
  8
0
100
AcDbLine
 10
0.3184438539622221
 20
1.369318828293526
 30
0.0
 11
-0.1490969817133383
 21
1.414768828293525
 31
0.0
  0
LINE
  5
647
330
2
100
AcDbEntity
  8
0
100
AcDbLine
 10
0.3184438539622221
 20
1.096591555566253
 30
0.0
 11
-0.1490969817133383
 21
1.142041555566252
 31
0.0
  0
LINE
  5
648
330
2
100
AcDbEntity
  8
0
100
AcDbLine
 10
-0.2278265638755563
 20
1.27840519192989
 30
0.0
 11
0.3971734361244437
 21
1.232955191929889
 31
0.0
  0
LINE
  5
649
330
2
100
AcDbEntity
  8
0
100
AcDbLine
 10
-0.2278265638755563
 20
1.369314282838982
 30
0.0
 11
0.3971734361244437
 21
1.323864282838979
 31
0.0
  0
LINE
  5
64A
330
2
100
AcDbEntity
  8
0
100
AcDbLine
 10
-0.2278265638755563
 20
1.096587010111708
 30
0.0
 11
0.3971734361244437
 21
1.051137010111706
 31
0.0
  0
LINE
  5
64B
330
2
100
AcDbEntity
  8
0
100
AcDbLine
 10
-0.2278265638755563
 20
1.187496101020798
 30
0.0
 11
0.3971734361244437
 21
1.142046101020796
 31
0.0
  0
LINE
  5
64C
330
2
100
AcDbEntity
  8
0
100
AcDbLine
 10
0.3971734361244437
 20
1.323864282838983
 30
0.0
 11
0.3184438539622221
 21
1.369318828293526
 31
0.0
  0
LINE
  5
64D
330
2
100
AcDbEntity
  8
0
100
AcDbLine
 10
0.3184438539622221
 20
1.096591555566253
 30
0.0
 11
0.3971734361244437
 21
1.142046101020796
 31
0.0
  0
LINE
  5
64E
330
2
100
AcDbEntity
  8
0
100
AcDbLine
 10
0.3971734361244437
 20
1.051137010111706
 30
0.0
 11
0.3184438539622221
 21
1.096591555566253
 31
0.0
  0
LINE
  5
64F
330
2
100
AcDbEntity
  8
0
100
AcDbLine
 10
0.3971734361244437
 20
1.142046101020799
 30
0.0
 11
0.3184438539622221
 21
1.187500646475346
 31
0.0
  0
LINE
  5
650
330
2
100
AcDbEntity
  8
0
100
AcDbLine
 10
0.3184438539622221
 20
1.187500646475346
 30
0.0
 11
0.3971734361244437
 21
1.232955191929889
 31
0.0
  0
LINE
  5
651
330
2
100
AcDbEntity
  8
0
100
AcDbLine
 10
0.3184438539622221
 20
1.278409737384436
 30
0.0
 11
0.3971734361244437
 21
1.323864282838981
 31
0.0
  0
LINE
  5
652
330
2
100
AcDbEntity
  8
0
100
AcDbLine
 10
0.3971734361244437
 20
1.232955191929891
 30
0.0
 11
0.3184438539622221
 21
1.278409737384436
 31
0.0
  0
LINE
  5
653
330
2
100
AcDbEntity
  8
0
100
AcDbLine
 10
0.3184438539622221
 20
1.369318828293526
 30
0.0
 11
0.3971734361244437
 21
1.414773373748073
 31
0.0
  0
LINE
  5
654
330
2
100
AcDbEntity
  8
0
100
AcDbLine
 10
-0.1490969817133383
 20
1.323859737384435
 30
0.0
 11
-0.2278265638755563
 21
1.36931428283898
 31
0.0
  0
LINE
  5
655
330
2
100
AcDbEntity
  8
0
100
AcDbLine
 10
-0.2278265638755563
 20
1.096587010111708
 30
0.0
 11
-0.1490969817133383
 21
1.142041555566252
 31
0.0
  0
LINE
  5
656
330
2
100
AcDbEntity
  8
0
100
AcDbLine
 10
-0.1490969817133383
 20
1.051132464657162
 30
0.0
 11
-0.2278265638755563
 21
1.096587010111705
 31
0.0
  0
LINE
  5
657
330
2
100
AcDbEntity
  8
0
100
AcDbLine
 10
-0.2278265638755563
 20
1.187496101020798
 30
0.0
 11
-0.1490969817133383
 21
1.232950646475345
 31
0.0
  0
LINE
  5
658
330
2
100
AcDbEntity
  8
0
100
AcDbLine
 10
-0.1490969817133383
 20
1.232950646475345
 30
0.0
 11
-0.2278265638755563
 21
1.278405191929888
 31
0.0
  0
LINE
  5
659
330
2
100
AcDbEntity
  8
0
100
AcDbLine
 10
-0.2278265638755563
 20
1.27840519192989
 30
0.0
 11
-0.1490969817133383
 21
1.323859737384435
 31
0.0
  0
LINE
  5
65A
330
2
100
AcDbEntity
  8
0
100
AcDbLine
 10
-0.1490969817133383
 20
1.142041555566252
 30
0.0
 11
-0.2278265638755563
 21
1.187496101020798
 31
0.0
  0
LINE
  5
65B
330
2
100
AcDbEntity
  8
0
100
AcDbLine
 10
-0.2278265638755563
 20
1.369314282838982
 30
0.0
 11
-0.1490969817133383
 21
1.414768828293525
 31
0.0
  0
LINE
  5
65C
330
2
100
AcDbEntity
  8
0
100
AcDbLine
 10
0.3184438539622221
 20
1.460227919202618
 30
0.0
 11
-0.1490969817133383
 21
1.505677919202617
 31
0.0
  0
LINE
  5
65D
330
2
100
AcDbEntity
  8
0
100
AcDbLine
 10
0.3184438539622221
 20
1.55113701011171
 30
0.0
 11
-0.1490969817133383
 21
1.596587010111708
 31
0.0
  0
LINE
  5
65E
330
2
100
AcDbEntity
  8
0
100
AcDbLine
 10
0.3184438539622221
 20
1.642046101020799
 30
0.0
 11
-0.1490969817133383
 21
1.687496101020798
 31
0.0
  0
LINE
  5
65F
330
2
100
AcDbEntity
  8
0
100
AcDbLine
 10
0.3184438539622221
 20
1.732955191929889
 30
0.0
 11
-0.1490969817133383
 21
1.778405191929888
 31
0.0
  0
LINE
  5
660
330
2
100
AcDbEntity
  8
0
100
AcDbLine
 10
-0.2278265638755563
 20
1.551132464657162
 30
0.0
 11
0.3971734361244437
 21
1.505682464657163
 31
0.0
  0
LINE
  5
661
330
2
100
AcDbEntity
  8
0
100
AcDbLine
 10
-0.2278265638755563
 20
1.642041555566252
 30
0.0
 11
0.3971734361244437
 21
1.596591555566253
 31
0.0
  0
LINE
  5
662
330
2
100
AcDbEntity
  8
0
100
AcDbLine
 10
-0.2278265638755563
 20
1.732950646475345
 30
0.0
 11
0.3971734361244437
 21
1.687500646475343
 31
0.0
  0
LINE
  5
663
330
2
100
AcDbEntity
  8
0
100
AcDbLine
 10
0.3184438539622221
 20
1.732955191929889
 30
0.0
 11
0.3971734361244437
 21
1.778409737384436
 31
0.0
  0
LINE
  5
664
330
2
100
AcDbEntity
  8
0
100
AcDbLine
 10
0.3971734361244437
 20
1.505682464657163
 30
0.0
 11
0.3184438539622221
 21
1.55113701011171
 31
0.0
  0
LINE
  5
665
330
2
100
AcDbEntity
  8
0
100
AcDbLine
 10
0.3184438539622221
 20
1.460227919202618
 30
0.0
 11
0.3971734361244437
 21
1.505682464657163
 31
0.0
  0
LINE
  5
666
330
2
100
AcDbEntity
  8
0
100
AcDbLine
 10
0.3184438539622221
 20
1.55113701011171
 30
0.0
 11
0.3971734361244437
 21
1.596591555566253
 31
0.0
  0
LINE
  5
667
330
2
100
AcDbEntity
  8
0
100
AcDbLine
 10
0.3184438539622221
 20
1.642046101020799
 30
0.0
 11
0.3971734361244437
 21
1.687500646475343
 31
0.0
  0
LINE
  5
668
330
2
100
AcDbEntity
  8
0
100
AcDbLine
 10
0.3971734361244437
 20
1.596591555566253
 30
0.0
 11
0.3184438539622221
 21
1.642046101020799
 31
0.0
  0
LINE
  5
669
330
2
100
AcDbEntity
  8
0
100
AcDbLine
 10
0.3971734361244437
 20
1.687500646475346
 30
0.0
 11
0.3184438539622221
 21
1.732955191929889
 31
0.0
  0
LINE
  5
66A
330
2
100
AcDbEntity
  8
0
100
AcDbLine
 10
-0.2278265638755563
 20
1.732950646475345
 30
0.0
 11
-0.1490969817133383
 21
1.778405191929888
 31
0.0
  0
LINE
  5
66B
330
2
100
AcDbEntity
  8
0
100
AcDbLine
 10
-0.1490969817133383
 20
1.505677919202617
 30
0.0
 11
-0.2278265638755563
 21
1.551132464657162
 31
0.0
  0
LINE
  5
66C
330
2
100
AcDbEntity
  8
0
100
AcDbLine
 10
-0.2278265638755563
 20
1.460223373748072
 30
0.0
 11
-0.1490969817133383
 21
1.505677919202617
 31
0.0
  0
LINE
  5
66D
330
2
100
AcDbEntity
  8
0
100
AcDbLine
 10
-0.2278265638755563
 20
1.551132464657162
 30
0.0
 11
-0.1490969817133383
 21
1.596587010111708
 31
0.0
  0
LINE
  5
66E
330
2
100
AcDbEntity
  8
0
100
AcDbLine
 10
-0.1490969817133383
 20
1.596587010111708
 30
0.0
 11
-0.2278265638755563
 21
1.642041555566252
 31
0.0
  0
LINE
  5
66F
330
2
100
AcDbEntity
  8
0
100
AcDbLine
 10
-0.2278265638755563
 20
1.642041555566252
 30
0.0
 11
-0.1490969817133383
 21
1.687496101020798
 31
0.0
  0
LINE
  5
670
330
2
100
AcDbEntity
  8
0
100
AcDbLine
 10
-0.1490969817133383
 20
1.687496101020798
 30
0.0
 11
-0.2278265638755563
 21
1.732950646475342
 31
0.0
  0
LINE
  5
671
330
2
100
AcDbEntity
  8
0
100
AcDbLine
 10
0.3184438539622221
 20
3.369318828293526
 30
0.0
 11
-0.1490969817133383
 21
3.414768828293525
 31
0.0
  0
LINE
  5
672
330
2
100
AcDbEntity
  8
0
100
AcDbLine
 10
0.3184438539622221
 20
3.369318828293526
 30
0.0
 11
0.3971734361244437
 21
3.414773373748071
 31
0.0
  0
LINE
  5
673
330
2
100
AcDbEntity
  8
0
100
AcDbLine
 10
-0.2278265638755563
 20
3.36931428283898
 30
0.0
 11
-0.1490969817133383
 21
3.414768828293525
 31
0.0
  0
LINE
  5
674
330
2
100
AcDbEntity
  8
0
100
AcDbLine
 10
0.3184438539622221
 20
2.551137010111708
 30
0.0
 11
-0.1490969817133383
 21
2.596587010111707
 31
0.0
  0
LINE
  5
675
330
2
100
AcDbEntity
  8
0
100
AcDbLine
 10
0.3184438539622221
 20
2.551137010111708
 30
0.0
 11
0.3971734361244437
 21
2.596591555566253
 31
0.0
  0
LINE
  5
676
330
2
100
AcDbEntity
  8
0
100
AcDbLine
 10
-0.2278265638755563
 20
2.551132464657162
 30
0.0
 11
-0.1490969817133383
 21
2.596587010111707
 31
0.0
  0
LINE
  5
677
330
2
100
AcDbEntity
  8
0
100
AcDbLine
 10
0.3184438539622221
 20
2.187500646475344
 30
0.0
 11
-0.1490969817133383
 21
2.232950646475343
 31
0.0
  0
LINE
  5
678
330
2
100
AcDbEntity
  8
0
100
AcDbLine
 10
0.3184438539622221
 20
2.187500646475344
 30
0.0
 11
0.3971734361244437
 21
2.232955191929889
 31
0.0
  0
LINE
  5
679
330
2
100
AcDbEntity
  8
0
100
AcDbLine
 10
-0.2278265638755563
 20
2.187496101020798
 30
0.0
 11
-0.1490969817133383
 21
2.232950646475343
 31
0.0
  0
LINE
  5
67A
330
2
100
AcDbEntity
  8
0
100
AcDbLine
 10
0.3184438539622221
 20
1.823864282838981
 30
0.0
 11
-0.1490969817133383
 21
1.86931428283898
 31
0.0
  0
LINE
  5
67B
330
2
100
AcDbEntity
  8
0
100
AcDbLine
 10
0.3184438539622221
 20
1.914773373748073
 30
0.0
 11
-0.1490969817133383
 21
1.960223373748072
 31
0.0
  0
LINE
  5
67C
330
2
100
AcDbEntity
  8
0
100
AcDbLine
 10
0.3184438539622221
 20
2.005682464657163
 30
0.0
 11
-0.1490969817133383
 21
2.051132464657162
 31
0.0
  0
LINE
  5
67D
330
2
100
AcDbEntity
  8
0
100
AcDbLine
 10
0.3184438539622221
 20
2.096591555566253
 30
0.0
 11
-0.1490969817133383
 21
2.142041555566252
 31
0.0
  0
LINE
  5
67E
330
2
100
AcDbEntity
  8
0
100
AcDbLine
 10
-0.2278265638755563
 20
2.187496101020798
 30
0.0
 11
0.3971734361244437
 21
2.142046101020798
 31
0.0
  0
LINE
  5
67F
330
2
100
AcDbEntity
  8
0
100
AcDbLine
 10
-0.2278265638755563
 20
1.914768828293525
 30
0.0
 11
0.3971734361244437
 21
1.869318828293526
 31
0.0
  0
LINE
  5
680
330
2
100
AcDbEntity
  8
0
100
AcDbLine
 10
-0.2278265638755563
 20
2.005677919202617
 30
0.0
 11
0.3971734361244437
 21
1.960227919202616
 31
0.0
  0
LINE
  5
681
330
2
100
AcDbEntity
  8
0
100
AcDbLine
 10
-0.2278265638755563
 20
2.096587010111708
 30
0.0
 11
0.3971734361244437
 21
2.051137010111706
 31
0.0
  0
LINE
  5
682
330
2
100
AcDbEntity
  8
0
100
AcDbLine
 10
0.3971734361244437
 20
2.142046101020799
 30
0.0
 11
0.3184438539622221
 21
2.187500646475344
 31
0.0
  0
LINE
  5
683
330
2
100
AcDbEntity
  8
0
100
AcDbLine
 10
0.3184438539622221
 20
1.914773373748073
 30
0.0
 11
0.3971734361244437
 21
1.960227919202616
 31
0.0
  0
LINE
  5
684
330
2
100
AcDbEntity
  8
0
100
AcDbLine
 10
0.3184438539622221
 20
1.823864282838981
 30
0.0
 11
0.3971734361244437
 21
1.869318828293526
 31
0.0
  0
LINE
  5
685
330
2
100
AcDbEntity
  8
0
100
AcDbLine
 10
0.3971734361244437
 20
1.869318828293526
 30
0.0
 11
0.3184438539622221
 21
1.914773373748073
 31
0.0
  0
LINE
  5
686
330
2
100
AcDbEntity
  8
0
100
AcDbLine
 10
0.3184438539622221
 20
2.005682464657163
 30
0.0
 11
0.3971734361244437
 21
2.051137010111708
 31
0.0
  0
LINE
  5
687
330
2
100
AcDbEntity
  8
0
100
AcDbLine
 10
0.3971734361244437
 20
1.960227919202618
 30
0.0
 11
0.3184438539622221
 21
2.005682464657163
 31
0.0
  0
LINE
  5
688
330
2
100
AcDbEntity
  8
0
100
AcDbLine
 10
0.3184438539622221
 20
2.096591555566253
 30
0.0
 11
0.3971734361244437
 21
2.142046101020799
 31
0.0
  0
LINE
  5
689
330
2
100
AcDbEntity
  8
0
100
AcDbLine
 10
0.3971734361244437
 20
2.05113701011171
 30
0.0
 11
0.3184438539622221
 21
2.096591555566253
 31
0.0
  0
LINE
  5
68A
330
2
100
AcDbEntity
  8
0
100
AcDbLine
 10
-0.1490969817133383
 20
2.142041555566252
 30
0.0
 11
-0.2278265638755563
 21
2.187496101020798
 31
0.0
  0
LINE
  5
68B
330
2
100
AcDbEntity
  8
0
100
AcDbLine
 10
-0.2278265638755563
 20
1.914768828293525
 30
0.0
 11
-0.1490969817133383
 21
1.960223373748072
 31
0.0
  0
LINE
  5
68C
330
2
100
AcDbEntity
  8
0
100
AcDbLine
 10
-0.2278265638755563
 20
1.823859737384435
 30
0.0
 11
-0.1490969817133383
 21
1.86931428283898
 31
0.0
  0
LINE
  5
68D
330
2
100
AcDbEntity
  8
0
100
AcDbLine
 10
-0.1490969817133383
 20
1.86931428283898
 30
0.0
 11
-0.2278265638755563
 21
1.914768828293525
 31
0.0
  0
LINE
  5
68E
330
2
100
AcDbEntity
  8
0
100
AcDbLine
 10
-0.1490969817133383
 20
1.960223373748072
 30
0.0
 11
-0.2278265638755563
 21
2.005677919202615
 31
0.0
  0
LINE
  5
68F
330
2
100
AcDbEntity
  8
0
100
AcDbLine
 10
-0.2278265638755563
 20
2.005677919202617
 30
0.0
 11
-0.1490969817133383
 21
2.051132464657162
 31
0.0
  0
LINE
  5
690
330
2
100
AcDbEntity
  8
0
100
AcDbLine
 10
-0.1490969817133383
 20
2.051132464657162
 30
0.0
 11
-0.2278265638755563
 21
2.096587010111707
 31
0.0
  0
LINE
  5
691
330
2
100
AcDbEntity
  8
0
100
AcDbLine
 10
-0.2278265638755563
 20
2.096587010111708
 30
0.0
 11
-0.1490969817133383
 21
2.142041555566252
 31
0.0
  0
LINE
  5
692
330
2
100
AcDbEntity
  8
0
100
AcDbLine
 10
0.3184438539622221
 20
2.278409737384436
 30
0.0
 11
-0.1490969817133383
 21
2.323859737384435
 31
0.0
  0
LINE
  5
693
330
2
100
AcDbEntity
  8
0
100
AcDbLine
 10
0.3184438539622221
 20
2.369318828293526
 30
0.0
 11
-0.1490969817133383
 21
2.414768828293525
 31
0.0
  0
LINE
  5
694
330
2
100
AcDbEntity
  8
0
100
AcDbLine
 10
0.3184438539622221
 20
2.460227919202616
 30
0.0
 11
-0.1490969817133383
 21
2.505677919202615
 31
0.0
  0
LINE
  5
695
330
2
100
AcDbEntity
  8
0
100
AcDbLine
 10
-0.2278265638755563
 20
2.278405191929888
 30
0.0
 11
0.3971734361244437
 21
2.232955191929889
 31
0.0
  0
LINE
  5
696
330
2
100
AcDbEntity
  8
0
100
AcDbLine
 10
-0.2278265638755563
 20
2.36931428283898
 30
0.0
 11
0.3971734361244437
 21
2.323864282838979
 31
0.0
  0
LINE
  5
697
330
2
100
AcDbEntity
  8
0
100
AcDbLine
 10
-0.2278265638755563
 20
2.460223373748072
 30
0.0
 11
0.3971734361244437
 21
2.414773373748069
 31
0.0
  0
LINE
  5
698
330
2
100
AcDbEntity
  8
0
100
AcDbLine
 10
-0.2278265638755563
 20
2.551132464657162
 30
0.0
 11
0.3971734361244437
 21
2.505682464657161
 31
0.0
  0
LINE
  5
699
330
2
100
AcDbEntity
  8
0
100
AcDbLine
 10
0.3971734361244437
 20
2.323864282838981
 30
0.0
 11
0.3184438539622221
 21
2.369318828293526
 31
0.0
  0
LINE
  5
69A
330
2
100
AcDbEntity
  8
0
100
AcDbLine
 10
0.3184438539622221
 20
2.278409737384436
 30
0.0
 11
0.3971734361244437
 21
2.323864282838979
 31
0.0
  0
LINE
  5
69B
330
2
100
AcDbEntity
  8
0
100
AcDbLine
 10
0.3971734361244437
 20
2.232955191929889
 30
0.0
 11
0.3184438539622221
 21
2.278409737384436
 31
0.0
  0
LINE
  5
69C
330
2
100
AcDbEntity
  8
0
100
AcDbLine
 10
0.3184438539622221
 20
2.369318828293526
 30
0.0
 11
0.3971734361244437
 21
2.414773373748071
 31
0.0
  0
LINE
  5
69D
330
2
100
AcDbEntity
  8
0
100
AcDbLine
 10
0.3184438539622221
 20
2.460227919202616
 30
0.0
 11
0.3971734361244437
 21
2.505682464657163
 31
0.0
  0
LINE
  5
69E
330
2
100
AcDbEntity
  8
0
100
AcDbLine
 10
0.3971734361244437
 20
2.414773373748073
 30
0.0
 11
0.3184438539622221
 21
2.460227919202616
 31
0.0
  0
LINE
  5
69F
330
2
100
AcDbEntity
  8
0
100
AcDbLine
 10
0.3971734361244437
 20
2.505682464657163
 30
0.0
 11
0.3184438539622221
 21
2.551137010111708
 31
0.0
  0
LINE
  5
6A0
330
2
100
AcDbEntity
  8
0
100
AcDbLine
 10
-0.1490969817133383
 20
2.323859737384435
 30
0.0
 11
-0.2278265638755563
 21
2.369314282838978
 31
0.0
  0
LINE
  5
6A1
330
2
100
AcDbEntity
  8
0
100
AcDbLine
 10
-0.1490969817133383
 20
2.232950646475343
 30
0.0
 11
-0.2278265638755563
 21
2.278405191929888
 31
0.0
  0
LINE
  5
6A2
330
2
100
AcDbEntity
  8
0
100
AcDbLine
 10
-0.2278265638755563
 20
2.278405191929888
 30
0.0
 11
-0.1490969817133383
 21
2.323859737384435
 31
0.0
  0
LINE
  5
6A3
330
2
100
AcDbEntity
  8
0
100
AcDbLine
 10
-0.2278265638755563
 20
2.36931428283898
 30
0.0
 11
-0.1490969817133383
 21
2.414768828293525
 31
0.0
  0
LINE
  5
6A4
330
2
100
AcDbEntity
  8
0
100
AcDbLine
 10
-0.1490969817133383
 20
2.414768828293525
 30
0.0
 11
-0.2278265638755563
 21
2.46022337374807
 31
0.0
  0
LINE
  5
6A5
330
2
100
AcDbEntity
  8
0
100
AcDbLine
 10
-0.2278265638755563
 20
2.460223373748072
 30
0.0
 11
-0.1490969817133383
 21
2.505677919202615
 31
0.0
  0
LINE
  5
6A6
330
2
100
AcDbEntity
  8
0
100
AcDbLine
 10
-0.1490969817133383
 20
2.505677919202615
 30
0.0
 11
-0.2278265638755563
 21
2.551132464657162
 31
0.0
  0
LINE
  5
6A7
330
2
100
AcDbEntity
  8
0
100
AcDbLine
 10
0.3971734361244437
 20
2.960227919202618
 30
0.0
 11
0.3184438539622221
 21
3.005682464657161
 31
0.0
  0
LINE
  5
6A8
330
2
100
AcDbEntity
  8
0
100
AcDbLine
 10
-0.2278265638755563
 20
3.005677919202617
 30
0.0
 11
0.3971734361244437
 21
2.960227919202614
 31
0.0
  0
LINE
  5
6A9
330
2
100
AcDbEntity
  8
0
100
AcDbLine
 10
-0.1490969817133383
 20
2.96022337374807
 30
0.0
 11
-0.2278265638755563
 21
3.005677919202615
 31
0.0
  0
LINE
  5
6AA
330
2
100
AcDbEntity
  8
0
100
AcDbLine
 10
0.3184438539622221
 20
2.642046101020799
 30
0.0
 11
-0.1490969817133383
 21
2.687496101020798
 31
0.0
  0
LINE
  5
6AB
330
2
100
AcDbEntity
  8
0
100
AcDbLine
 10
0.3184438539622221
 20
2.732955191929889
 30
0.0
 11
-0.1490969817133383
 21
2.778405191929888
 31
0.0
  0
LINE
  5
6AC
330
2
100
AcDbEntity
  8
0
100
AcDbLine
 10
0.3184438539622221
 20
2.823864282838979
 30
0.0
 11
-0.1490969817133383
 21
2.869314282838978
 31
0.0
  0
LINE
  5
6AD
330
2
100
AcDbEntity
  8
0
100
AcDbLine
 10
0.3184438539622221
 20
2.914773373748071
 30
0.0
 11
-0.1490969817133383
 21
2.96022337374807
 31
0.0
  0
LINE
  5
6AE
330
2
100
AcDbEntity
  8
0
100
AcDbLine
 10
-0.2278265638755563
 20
2.642041555566252
 30
0.0
 11
0.3971734361244437
 21
2.596591555566253
 31
0.0
  0
LINE
  5
6AF
330
2
100
AcDbEntity
  8
0
100
AcDbLine
 10
-0.2278265638755563
 20
2.732950646475343
 30
0.0
 11
0.3971734361244437
 21
2.687500646475343
 31
0.0
  0
LINE
  5
6B0
330
2
100
AcDbEntity
  8
0
100
AcDbLine
 10
-0.2278265638755563
 20
2.823859737384435
 30
0.0
 11
0.3971734361244437
 21
2.778409737384433
 31
0.0
  0
LINE
  5
6B1
330
2
100
AcDbEntity
  8
0
100
AcDbLine
 10
-0.2278265638755563
 20
2.914768828293525
 30
0.0
 11
0.3971734361244437
 21
2.869318828293524
 31
0.0
  0
LINE
  5
6B2
330
2
100
AcDbEntity
  8
0
100
AcDbLine
 10
0.3184438539622221
 20
2.732955191929889
 30
0.0
 11
0.3971734361244437
 21
2.778409737384434
 31
0.0
  0
LINE
  5
6B3
330
2
100
AcDbEntity
  8
0
100
AcDbLine
 10
0.3184438539622221
 20
2.642046101020799
 30
0.0
 11
0.3971734361244437
 21
2.687500646475343
 31
0.0
  0
LINE
  5
6B4
330
2
100
AcDbEntity
  8
0
100
AcDbLine
 10
0.3971734361244437
 20
2.596591555566253
 30
0.0
 11
0.3184438539622221
 21
2.642046101020799
 31
0.0
  0
LINE
  5
6B5
330
2
100
AcDbEntity
  8
0
100
AcDbLine
 10
0.3971734361244437
 20
2.687500646475344
 30
0.0
 11
0.3184438539622221
 21
2.732955191929889
 31
0.0
  0
LINE
  5
6B6
330
2
100
AcDbEntity
  8
0
100
AcDbLine
 10
0.3184438539622221
 20
2.823864282838979
 30
0.0
 11
0.3971734361244437
 21
2.869318828293526
 31
0.0
  0
LINE
  5
6B7
330
2
100
AcDbEntity
  8
0
100
AcDbLine
 10
0.3971734361244437
 20
2.778409737384436
 30
0.0
 11
0.3184438539622221
 21
2.823864282838979
 31
0.0
  0
LINE
  5
6B8
330
2
100
AcDbEntity
  8
0
100
AcDbLine
 10
0.3184438539622221
 20
2.914773373748071
 30
0.0
 11
0.3971734361244437
 21
2.960227919202616
 31
0.0
  0
LINE
  5
6B9
330
2
100
AcDbEntity
  8
0
100
AcDbLine
 10
0.3971734361244437
 20
2.869318828293526
 30
0.0
 11
0.3184438539622221
 21
2.914773373748071
 31
0.0
  0
LINE
  5
6BA
330
2
100
AcDbEntity
  8
0
100
AcDbLine
 10
-0.2278265638755563
 20
2.732950646475343
 30
0.0
 11
-0.1490969817133383
 21
2.778405191929888
 31
0.0
  0
LINE
  5
6BB
330
2
100
AcDbEntity
  8
0
100
AcDbLine
 10
-0.1490969817133383
 20
2.596587010111707
 30
0.0
 11
-0.2278265638755563
 21
2.642041555566252
 31
0.0
  0
LINE
  5
6BC
330
2
100
AcDbEntity
  8
0
100
AcDbLine
 10
-0.2278265638755563
 20
2.642041555566252
 30
0.0
 11
-0.1490969817133383
 21
2.687496101020798
 31
0.0
  0
LINE
  5
6BD
330
2
100
AcDbEntity
  8
0
100
AcDbLine
 10
-0.1490969817133383
 20
2.687496101020798
 30
0.0
 11
-0.2278265638755563
 21
2.732950646475342
 31
0.0
  0
LINE
  5
6BE
330
2
100
AcDbEntity
  8
0
100
AcDbLine
 10
-0.1490969817133383
 20
2.778405191929888
 30
0.0
 11
-0.2278265638755563
 21
2.823859737384433
 31
0.0
  0
LINE
  5
6BF
330
2
100
AcDbEntity
  8
0
100
AcDbLine
 10
-0.2278265638755563
 20
2.823859737384435
 30
0.0
 11
-0.1490969817133383
 21
2.869314282838978
 31
0.0
  0
LINE
  5
6C0
330
2
100
AcDbEntity
  8
0
100
AcDbLine
 10
-0.1490969817133383
 20
2.869314282838978
 30
0.0
 11
-0.2278265638755563
 21
2.914768828293525
 31
0.0
  0
LINE
  5
6C1
330
2
100
AcDbEntity
  8
0
100
AcDbLine
 10
-0.2278265638755563
 20
2.914768828293525
 30
0.0
 11
-0.1490969817133383
 21
2.96022337374807
 31
0.0
  0
LINE
  5
6C2
330
2
100
AcDbEntity
  8
0
100
AcDbLine
 10
0.3184438539622221
 20
3.005682464657161
 30
0.0
 11
-0.1490969817133383
 21
3.05113246465716
 31
0.0
  0
LINE
  5
6C3
330
2
100
AcDbEntity
  8
0
100
AcDbLine
 10
0.3184438539622221
 20
3.096591555566253
 30
0.0
 11
-0.1490969817133383
 21
3.142041555566252
 31
0.0
  0
LINE
  5
6C4
330
2
100
AcDbEntity
  8
0
100
AcDbLine
 10
0.3184438539622221
 20
3.187500646475344
 30
0.0
 11
-0.1490969817133383
 21
3.232950646475343
 31
0.0
  0
LINE
  5
6C5
330
2
100
AcDbEntity
  8
0
100
AcDbLine
 10
0.3184438539622221
 20
3.278409737384434
 30
0.0
 11
-0.1490969817133383
 21
3.323859737384433
 31
0.0
  0
LINE
  5
6C6
330
2
100
AcDbEntity
  8
0
100
AcDbLine
 10
-0.2278265638755563
 20
3.096587010111707
 30
0.0
 11
0.3971734361244437
 21
3.051137010111706
 31
0.0
  0
LINE
  5
6C7
330
2
100
AcDbEntity
  8
0
100
AcDbLine
 10
-0.2278265638755563
 20
3.187496101020797
 30
0.0
 11
0.3971734361244437
 21
3.142046101020798
 31
0.0
  0
LINE
  5
6C8
330
2
100
AcDbEntity
  8
0
100
AcDbLine
 10
-0.2278265638755563
 20
3.27840519192989
 30
0.0
 11
0.3971734361244437
 21
3.232955191929888
 31
0.0
  0
LINE
  5
6C9
330
2
100
AcDbEntity
  8
0
100
AcDbLine
 10
-0.2278265638755563
 20
3.36931428283898
 30
0.0
 11
0.3971734361244437
 21
3.323864282838979
 31
0.0
  0
LINE
  5
6CA
330
2
100
AcDbEntity
  8
0
100
AcDbLine
 10
0.3971734361244437
 20
3.142046101020798
 30
0.0
 11
0.3184438539622221
 21
3.187500646475344
 31
0.0
  0
LINE
  5
6CB
330
2
100
AcDbEntity
  8
0
100
AcDbLine
 10
0.3184438539622221
 20
3.005682464657161
 30
0.0
 11
0.3971734361244437
 21
3.051137010111708
 31
0.0
  0
LINE
  5
6CC
330
2
100
AcDbEntity
  8
0
100
AcDbLine
 10
0.3184438539622221
 20
3.096591555566253
 30
0.0
 11
0.3971734361244437
 21
3.142046101020798
 31
0.0
  0
LINE
  5
6CD
330
2
100
AcDbEntity
  8
0
100
AcDbLine
 10
0.3971734361244437
 20
3.051137010111708
 30
0.0
 11
0.3184438539622221
 21
3.096591555566253
 31
0.0
  0
LINE
  5
6CE
330
2
100
AcDbEntity
  8
0
100
AcDbLine
 10
0.3184438539622221
 20
3.187500646475344
 30
0.0
 11
0.3971734361244437
 21
3.232955191929888
 31
0.0
  0
LINE
  5
6CF
330
2
100
AcDbEntity
  8
0
100
AcDbLine
 10
0.3184438539622221
 20
3.278409737384434
 30
0.0
 11
0.3971734361244437
 21
3.323864282838981
 31
0.0
  0
LINE
  5
6D0
330
2
100
AcDbEntity
  8
0
100
AcDbLine
 10
0.3971734361244437
 20
3.232955191929891
 30
0.0
 11
0.3184438539622221
 21
3.278409737384434
 31
0.0
  0
LINE
  5
6D1
330
2
100
AcDbEntity
  8
0
100
AcDbLine
 10
0.3971734361244437
 20
3.323864282838981
 30
0.0
 11
0.3184438539622221
 21
3.369318828293526
 31
0.0
  0
LINE
  5
6D2
330
2
100
AcDbEntity
  8
0
100
AcDbLine
 10
-0.1490969817133383
 20
3.142041555566252
 30
0.0
 11
-0.2278265638755563
 21
3.187496101020797
 31
0.0
  0
LINE
  5
6D3
330
2
100
AcDbEntity
  8
0
100
AcDbLine
 10
-0.2278265638755563
 20
3.005677919202617
 30
0.0
 11
-0.1490969817133383
 21
3.05113246465716
 31
0.0
  0
LINE
  5
6D4
330
2
100
AcDbEntity
  8
0
100
AcDbLine
 10
-0.1490969817133383
 20
3.05113246465716
 30
0.0
 11
-0.2278265638755563
 21
3.096587010111707
 31
0.0
  0
LINE
  5
6D5
330
2
100
AcDbEntity
  8
0
100
AcDbLine
 10
-0.2278265638755563
 20
3.096587010111707
 30
0.0
 11
-0.1490969817133383
 21
3.142041555566252
 31
0.0
  0
LINE
  5
6D6
330
2
100
AcDbEntity
  8
0
100
AcDbLine
 10
-0.2278265638755563
 20
3.187496101020797
 30
0.0
 11
-0.1490969817133383
 21
3.232950646475343
 31
0.0
  0
LINE
  5
6D7
330
2
100
AcDbEntity
  8
0
100
AcDbLine
 10
-0.1490969817133383
 20
3.232950646475343
 30
0.0
 11
-0.2278265638755563
 21
3.278405191929886
 31
0.0
  0
LINE
  5
6D8
330
2
100
AcDbEntity
  8
0
100
AcDbLine
 10
-0.2278265638755563
 20
3.27840519192989
 30
0.0
 11
-0.1490969817133383
 21
3.323859737384433
 31
0.0
  0
LINE
  5
6D9
330
2
100
AcDbEntity
  8
0
100
AcDbLine
 10
-0.1490969817133383
 20
3.323859737384433
 30
0.0
 11
-0.2278265638755563
 21
3.36931428283898
 31
0.0
  0
LINE
  5
6DA
330
2
100
AcDbEntity
  8
0
100
AcDbLine
 10
0.4349681345954863
 20
4.906246101020798
 30
0.0
 11
-0.2654469487323219
 21
4.906246101020798
 31
0.0
  0
LINE
  5
6DB
330
2
100
AcDbEntity
  8
0
100
AcDbLine
 10
-0.2799515638755388
 20
4.906246101020798
 30
0.0
 11
-0.227826563875535
 21
4.749996101020798
 31
0.0
  0
LINE
  5
6DC
330
2
100
AcDbEntity
  8
0
100
AcDbLine
 10
0.3971734361244437
 20
4.142046101020798
 30
0.0
 11
0.3184438539622221
 21
4.187500646475343
 31
0.0
  0
LINE
  5
6DD
330
2
100
AcDbEntity
  8
0
100
AcDbLine
 10
-0.2278265638755563
 20
4.187496101020798
 30
0.0
 11
0.3971734361244437
 21
4.142046101020798
 31
0.0
  0
LINE
  5
6DE
330
2
100
AcDbEntity
  8
0
100
AcDbLine
 10
-0.1490969817133383
 20
4.142041555566252
 30
0.0
 11
-0.2278265638755563
 21
4.187496101020797
 31
0.0
  0
LINE
  5
6DF
330
2
100
AcDbEntity
  8
0
100
AcDbLine
 10
0.3184438539622221
 20
3.732955191929889
 30
0.0
 11
-0.1490969817133383
 21
3.778405191929888
 31
0.0
  0
LINE
  5
6E0
330
2
100
AcDbEntity
  8
0
100
AcDbLine
 10
0.3184438539622221
 20
3.732955191929889
 30
0.0
 11
0.3971734361244437
 21
3.778409737384434
 31
0.0
  0
LINE
  5
6E1
330
2
100
AcDbEntity
  8
0
100
AcDbLine
 10
-0.2278265638755563
 20
3.732950646475343
 30
0.0
 11
-0.1490969817133383
 21
3.778405191929888
 31
0.0
  0
LINE
  5
6E2
330
2
100
AcDbEntity
  8
0
100
AcDbLine
 10
0.3184438539622221
 20
3.460227919202618
 30
0.0
 11
-0.1490969817133383
 21
3.505677919202617
 31
0.0
  0
LINE
  5
6E3
330
2
100
AcDbEntity
  8
0
100
AcDbLine
 10
0.3184438539622221
 20
3.551137010111708
 30
0.0
 11
-0.1490969817133383
 21
3.596587010111707
 31
0.0
  0
LINE
  5
6E4
330
2
100
AcDbEntity
  8
0
100
AcDbLine
 10
0.3184438539622221
 20
3.642046101020798
 30
0.0
 11
-0.1490969817133383
 21
3.687496101020797
 31
0.0
  0
LINE
  5
6E5
330
2
100
AcDbEntity
  8
0
100
AcDbLine
 10
-0.2278265638755563
 20
3.46022337374807
 30
0.0
 11
0.3971734361244437
 21
3.414773373748071
 31
0.0
  0
LINE
  5
6E6
330
2
100
AcDbEntity
  8
0
100
AcDbLine
 10
-0.2278265638755563
 20
3.551132464657162
 30
0.0
 11
0.3971734361244437
 21
3.505682464657161
 31
0.0
  0
LINE
  5
6E7
330
2
100
AcDbEntity
  8
0
100
AcDbLine
 10
-0.2278265638755563
 20
3.642041555566253
 30
0.0
 11
0.3971734361244437
 21
3.596591555566251
 31
0.0
  0
LINE
  5
6E8
330
2
100
AcDbEntity
  8
0
100
AcDbLine
 10
-0.2278265638755563
 20
3.732950646475343
 30
0.0
 11
0.3971734361244437
 21
3.687500646475343
 31
0.0
  0
LINE
  5
6E9
330
2
100
AcDbEntity
  8
0
100
AcDbLine
 10
0.3184438539622221
 20
3.551137010111708
 30
0.0
 11
0.3971734361244437
 21
3.596591555566253
 31
0.0
  0
LINE
  5
6EA
330
2
100
AcDbEntity
  8
0
100
AcDbLine
 10
0.3184438539622221
 20
3.460227919202618
 30
0.0
 11
0.3971734361244437
 21
3.505682464657161
 31
0.0
  0
LINE
  5
6EB
330
2
100
AcDbEntity
  8
0
100
AcDbLine
 10
0.3971734361244437
 20
3.414773373748071
 30
0.0
 11
0.3184438539622221
 21
3.460227919202618
 31
0.0
  0
LINE
  5
6EC
330
2
100
AcDbEntity
  8
0
100
AcDbLine
 10
0.3971734361244437
 20
3.505682464657163
 30
0.0
 11
0.3184438539622221
 21
3.551137010111708
 31
0.0
  0
LINE
  5
6ED
330
2
100
AcDbEntity
  8
0
100
AcDbLine
 10
0.3184438539622221
 20
3.642046101020798
 30
0.0
 11
0.3971734361244437
 21
3.687500646475344
 31
0.0
  0
LINE
  5
6EE
330
2
100
AcDbEntity
  8
0
100
AcDbLine
 10
0.3971734361244437
 20
3.596591555566254
 30
0.0
 11
0.3184438539622221
 21
3.642046101020798
 31
0.0
  0
LINE
  5
6EF
330
2
100
AcDbEntity
  8
0
100
AcDbLine
 10
0.3971734361244437
 20
3.687500646475344
 30
0.0
 11
0.3184438539622221
 21
3.732955191929889
 31
0.0
  0
LINE
  5
6F0
330
2
100
AcDbEntity
  8
0
100
AcDbLine
 10
-0.2278265638755563
 20
3.551132464657162
 30
0.0
 11
-0.1490969817133383
 21
3.596587010111707
 31
0.0
  0
LINE
  5
6F1
330
2
100
AcDbEntity
  8
0
100
AcDbLine
 10
-0.1490969817133383
 20
3.414768828293525
 30
0.0
 11
-0.2278265638755563
 21
3.46022337374807
 31
0.0
  0
LINE
  5
6F2
330
2
100
AcDbEntity
  8
0
100
AcDbLine
 10
-0.2278265638755563
 20
3.46022337374807
 30
0.0
 11
-0.1490969817133383
 21
3.505677919202617
 31
0.0
  0
LINE
  5
6F3
330
2
100
AcDbEntity
  8
0
100
AcDbLine
 10
-0.1490969817133383
 20
3.505677919202617
 30
0.0
 11
-0.2278265638755563
 21
3.55113246465716
 31
0.0
  0
LINE
  5
6F4
330
2
100
AcDbEntity
  8
0
100
AcDbLine
 10
-0.1490969817133383
 20
3.596587010111707
 30
0.0
 11
-0.2278265638755563
 21
3.642041555566252
 31
0.0
  0
LINE
  5
6F5
330
2
100
AcDbEntity
  8
0
100
AcDbLine
 10
-0.2278265638755563
 20
3.642041555566253
 30
0.0
 11
-0.1490969817133383
 21
3.687496101020797
 31
0.0
  0
LINE
  5
6F6
330
2
100
AcDbEntity
  8
0
100
AcDbLine
 10
-0.1490969817133383
 20
3.687496101020797
 30
0.0
 11
-0.2278265638755563
 21
3.732950646475343
 31
0.0
  0
LINE
  5
6F7
330
2
100
AcDbEntity
  8
0
100
AcDbLine
 10
0.3184438539622221
 20
3.823864282838979
 30
0.0
 11
-0.1490969817133383
 21
3.86931428283898
 31
0.0
  0
LINE
  5
6F8
330
2
100
AcDbEntity
  8
0
100
AcDbLine
 10
0.3184438539622221
 20
3.914773373748071
 30
0.0
 11
-0.1490969817133383
 21
3.96022337374807
 31
0.0
  0
LINE
  5
6F9
330
2
100
AcDbEntity
  8
0
100
AcDbLine
 10
0.3184438539622221
 20
4.005682464657161
 30
0.0
 11
-0.1490969817133383
 21
4.051132464657162
 31
0.0
  0
LINE
  5
6FA
330
2
100
AcDbEntity
  8
0
100
AcDbLine
 10
0.3184438539622221
 20
4.096591555566253
 30
0.0
 11
-0.1490969817133383
 21
4.142041555566252
 31
0.0
  0
LINE
  5
6FB
330
2
100
AcDbEntity
  8
0
100
AcDbLine
 10
-0.2278265638755563
 20
3.823859737384435
 30
0.0
 11
0.3971734361244437
 21
3.778409737384434
 31
0.0
  0
LINE
  5
6FC
330
2
100
AcDbEntity
  8
0
100
AcDbLine
 10
-0.2278265638755563
 20
3.914768828293525
 30
0.0
 11
0.3971734361244437
 21
3.869318828293524
 31
0.0
  0
LINE
  5
6FD
330
2
100
AcDbEntity
  8
0
100
AcDbLine
 10
-0.2278265638755563
 20
4.005677919202617
 30
0.0
 11
0.3971734361244437
 21
3.960227919202616
 31
0.0
  0
LINE
  5
6FE
330
2
100
AcDbEntity
  8
0
100
AcDbLine
 10
-0.2278265638755563
 20
4.096587010111707
 30
0.0
 11
0.3971734361244437
 21
4.051137010111706
 31
0.0
  0
LINE
  5
6FF
330
2
100
AcDbEntity
  8
0
100
AcDbLine
 10
0.3971734361244437
 20
3.778409737384434
 30
0.0
 11
0.3184438539622221
 21
3.823864282838979
 31
0.0
  0
LINE
  5
700
330
2
100
AcDbEntity
  8
0
100
AcDbLine
 10
0.3971734361244437
 20
3.960227919202616
 30
0.0
 11
0.3184438539622221
 21
4.005682464657161
 31
0.0
  0
LINE
  5
701
330
2
100
AcDbEntity
  8
0
100
AcDbLine
 10
0.3184438539622221
 20
3.823864282838979
 30
0.0
 11
0.3971734361244437
 21
3.869318828293524
 31
0.0
  0
LINE
  5
702
330
2
100
AcDbEntity
  8
0
100
AcDbLine
 10
0.3971734361244437
 20
3.869318828293526
 30
0.0
 11
0.3184438539622221
 21
3.914773373748071
 31
0.0
  0
LINE
  5
703
330
2
100
AcDbEntity
  8
0
100
AcDbLine
 10
0.3184438539622221
 20
3.914773373748071
 30
0.0
 11
0.3971734361244437
 21
3.960227919202616
 31
0.0
  0
LINE
  5
704
330
2
100
AcDbEntity
  8
0
100
AcDbLine
 10
0.3184438539622221
 20
4.005682464657161
 30
0.0
 11
0.3971734361244437
 21
4.051137010111706
 31
0.0
  0
LINE
  5
705
330
2
100
AcDbEntity
  8
0
100
AcDbLine
 10
0.3971734361244437
 20
4.051137010111708
 30
0.0
 11
0.3184438539622221
 21
4.096591555566253
 31
0.0
  0
LINE
  5
706
330
2
100
AcDbEntity
  8
0
100
AcDbLine
 10
0.3184438539622221
 20
4.096591555566253
 30
0.0
 11
0.3971734361244437
 21
4.142046101020798
 31
0.0
  0
LINE
  5
707
330
2
100
AcDbEntity
  8
0
100
AcDbLine
 10
-0.1490969817133383
 20
3.778405191929888
 30
0.0
 11
-0.2278265638755563
 21
3.823859737384433
 31
0.0
  0
LINE
  5
708
330
2
100
AcDbEntity
  8
0
100
AcDbLine
 10
-0.1490969817133383
 20
3.96022337374807
 30
0.0
 11
-0.2278265638755563
 21
4.005677919202615
 31
0.0
  0
LINE
  5
709
330
2
100
AcDbEntity
  8
0
100
AcDbLine
 10
-0.2278265638755563
 20
3.823859737384435
 30
0.0
 11
-0.1490969817133383
 21
3.86931428283898
 31
0.0
  0
LINE
  5
70A
330
2
100
AcDbEntity
  8
0
100
AcDbLine
 10
-0.1490969817133383
 20
3.86931428283898
 30
0.0
 11
-0.2278265638755563
 21
3.914768828293525
 31
0.0
  0
LINE
  5
70B
330
2
100
AcDbEntity
  8
0
100
AcDbLine
 10
-0.2278265638755563
 20
3.914768828293525
 30
0.0
 11
-0.1490969817133383
 21
3.96022337374807
 31
0.0
  0
LINE
  5
70C
330
2
100
AcDbEntity
  8
0
100
AcDbLine
 10
-0.2278265638755563
 20
4.005677919202617
 30
0.0
 11
-0.1490969817133383
 21
4.051132464657162
 31
0.0
  0
LINE
  5
70D
330
2
100
AcDbEntity
  8
0
100
AcDbLine
 10
-0.1490969817133383
 20
4.051132464657162
 30
0.0
 11
-0.2278265638755563
 21
4.096587010111707
 31
0.0
  0
LINE
  5
70E
330
2
100
AcDbEntity
  8
0
100
AcDbLine
 10
-0.2278265638755563
 20
4.096587010111707
 30
0.0
 11
-0.1490969817133383
 21
4.142041555566252
 31
0.0
  0
LINE
  5
70F
330
2
100
AcDbEntity
  8
0
100
AcDbLine
 10
0.3971734361244437
 20
4.505682464657163
 30
0.0
 11
0.3184438539622221
 21
4.551137010111708
 31
0.0
  0
LINE
  5
710
330
2
100
AcDbEntity
  8
0
100
AcDbLine
 10
-0.2278265638755563
 20
4.551132464657162
 30
0.0
 11
0.3971734361244437
 21
4.505682464657161
 31
0.0
  0
LINE
  5
711
330
2
100
AcDbEntity
  8
0
100
AcDbLine
 10
-0.1490969817133383
 20
4.505677919202615
 30
0.0
 11
-0.2278265638755563
 21
4.55113246465716
 31
0.0
  0
LINE
  5
712
330
2
100
AcDbEntity
  8
0
100
AcDbLine
 10
0.3184438539622221
 20
4.187500646475343
 30
0.0
 11
-0.1490969817133383
 21
4.232950646475343
 31
0.0
  0
LINE
  5
713
330
2
100
AcDbEntity
  8
0
100
AcDbLine
 10
0.3184438539622221
 20
4.278409737384434
 30
0.0
 11
-0.1490969817133383
 21
4.323859737384433
 31
0.0
  0
LINE
  5
714
330
2
100
AcDbEntity
  8
0
100
AcDbLine
 10
0.3184438539622221
 20
4.369318828293524
 30
0.0
 11
-0.1490969817133383
 21
4.414768828293525
 31
0.0
  0
LINE
  5
715
330
2
100
AcDbEntity
  8
0
100
AcDbLine
 10
0.3184438539622221
 20
4.460227919202616
 30
0.0
 11
-0.1490969817133383
 21
4.505677919202615
 31
0.0
  0
LINE
  5
716
330
2
100
AcDbEntity
  8
0
100
AcDbLine
 10
-0.2278265638755563
 20
4.278405191929888
 30
0.0
 11
0.3971734361244437
 21
4.232955191929888
 31
0.0
  0
LINE
  5
717
330
2
100
AcDbEntity
  8
0
100
AcDbLine
 10
-0.2278265638755563
 20
4.36931428283898
 30
0.0
 11
0.3971734361244437
 21
4.323864282838979
 31
0.0
  0
LINE
  5
718
330
2
100
AcDbEntity
  8
0
100
AcDbLine
 10
-0.2278265638755563
 20
4.46022337374807
 30
0.0
 11
0.3971734361244437
 21
4.414773373748069
 31
0.0
  0
LINE
  5
719
330
2
100
AcDbEntity
  8
0
100
AcDbLine
 10
0.3184438539622221
 20
4.187500646475343
 30
0.0
 11
0.3971734361244437
 21
4.232955191929888
 31
0.0
  0
LINE
  5
71A
330
2
100
AcDbEntity
  8
0
100
AcDbLine
 10
0.3184438539622221
 20
4.369318828293524
 30
0.0
 11
0.3971734361244437
 21
4.414773373748069
 31
0.0
  0
LINE
  5
71B
330
2
100
AcDbEntity
  8
0
100
AcDbLine
 10
0.3971734361244437
 20
4.232955191929889
 30
0.0
 11
0.3184438539622221
 21
4.278409737384434
 31
0.0
  0
LINE
  5
71C
330
2
100
AcDbEntity
  8
0
100
AcDbLine
 10
0.3184438539622221
 20
4.278409737384434
 30
0.0
 11
0.3971734361244437
 21
4.323864282838979
 31
0.0
  0
LINE
  5
71D
330
2
100
AcDbEntity
  8
0
100
AcDbLine
 10
0.3971734361244437
 20
4.323864282838979
 30
0.0
 11
0.3184438539622221
 21
4.369318828293524
 31
0.0
  0
LINE
  5
71E
330
2
100
AcDbEntity
  8
0
100
AcDbLine
 10
0.3971734361244437
 20
4.414773373748071
 30
0.0
 11
0.3184438539622221
 21
4.460227919202616
 31
0.0
  0
LINE
  5
71F
330
2
100
AcDbEntity
  8
0
100
AcDbLine
 10
0.3184438539622221
 20
4.460227919202616
 30
0.0
 11
0.3971734361244437
 21
4.505682464657161
 31
0.0
  0
LINE
  5
720
330
2
100
AcDbEntity
  8
0
100
AcDbLine
 10
-0.2278265638755563
 20
4.187496101020798
 30
0.0
 11
-0.1490969817133383
 21
4.232950646475343
 31
0.0
  0
LINE
  5
721
330
2
100
AcDbEntity
  8
0
100
AcDbLine
 10
-0.2278265638755563
 20
4.36931428283898
 30
0.0
 11
-0.1490969817133383
 21
4.414768828293525
 31
0.0
  0
LINE
  5
722
330
2
100
AcDbEntity
  8
0
100
AcDbLine
 10
-0.1490969817133383
 20
4.232950646475343
 30
0.0
 11
-0.2278265638755563
 21
4.278405191929888
 31
0.0
  0
LINE
  5
723
330
2
100
AcDbEntity
  8
0
100
AcDbLine
 10
-0.2278265638755563
 20
4.278405191929888
 30
0.0
 11
-0.1490969817133383
 21
4.323859737384433
 31
0.0
  0
LINE
  5
724
330
2
100
AcDbEntity
  8
0
100
AcDbLine
 10
-0.1490969817133383
 20
4.323859737384433
 30
0.0
 11
-0.2278265638755563
 21
4.369314282838978
 31
0.0
  0
LINE
  5
725
330
2
100
AcDbEntity
  8
0
100
AcDbLine
 10
-0.1490969817133383
 20
4.414768828293525
 30
0.0
 11
-0.2278265638755563
 21
4.46022337374807
 31
0.0
  0
LINE
  5
726
330
2
100
AcDbEntity
  8
0
100
AcDbLine
 10
-0.2278265638755563
 20
4.46022337374807
 30
0.0
 11
-0.1490969817133383
 21
4.505677919202615
 31
0.0
  0
LINE
  5
727
330
2
100
AcDbEntity
  8
0
100
AcDbLine
 10
0.3184438539622221
 20
4.551137010111708
 30
0.0
 11
-0.1490969817133383
 21
4.596587010111707
 31
0.0
  0
LINE
  5
728
330
2
100
AcDbEntity
  8
0
100
AcDbLine
 10
0.3184438539622221
 20
4.642046101020798
 30
0.0
 11
-0.1490969817133383
 21
4.687496101020798
 31
0.0
  0
LINE
  5
729
330
2
100
AcDbEntity
  8
0
100
AcDbLine
 10
-0.2278265638755563
 20
4.642041555566253
 30
0.0
 11
0.3971734361244437
 21
4.596591555566253
 31
0.0
  0
LINE
  5
72A
330
2
100
AcDbEntity
  8
0
100
AcDbLine
 10
-0.2278265638755563
 20
4.732950646475343
 30
0.0
 11
0.3971734361244437
 21
4.687500646475343
 31
0.0
  0
LINE
  5
72B
330
2
100
AcDbEntity
  8
0
100
AcDbLine
 10
-0.227826563875535
 20
4.7499961010208
 30
0.0
 11
0.397173436124465
 21
4.7499961010208
 31
0.0
  0
LINE
  5
72C
330
2
100
AcDbEntity
  8
0
100
AcDbLine
 10
0.397173436124465
 20
4.749996101020798
 30
0.0
 11
0.4492984361244616
 21
4.906246101020798
 31
0.0
  0
LINE
  5
72D
330
2
100
AcDbEntity
  8
0
100
AcDbLine
 10
0.3971734361244437
 20
4.596591555566253
 30
0.0
 11
0.3184438539622221
 21
4.642046101020798
 31
0.0
  0
LINE
  5
72E
330
2
100
AcDbEntity
  8
0
100
AcDbLine
 10
0.3184438539622221
 20
4.551137010111708
 30
0.0
 11
0.3971734361244437
 21
4.596591555566253
 31
0.0
  0
LINE
  5
72F
330
2
100
AcDbEntity
  8
0
100
AcDbLine
 10
0.3184438539622221
 20
4.642046101020798
 30
0.0
 11
0.3971734361244437
 21
4.687500646475343
 31
0.0
  0
LINE
  5
730
330
2
100
AcDbEntity
  8
0
100
AcDbLine
 10
0.3971734361244437
 20
4.687500646475344
 30
0.0
 11
0.3184438539622221
 21
4.732955191929889
 31
0.0
  0
LINE
  5
731
330
2
100
AcDbEntity
  8
0
100
AcDbLine
 10
0.3184438539622221
 20
4.732955191929889
 30
0.0
 11
0.3479595743148387
 21
4.7499961010208
 31
0.0
  0
LINE
  5
732
330
2
100
AcDbEntity
  8
0
100
AcDbLine
 10
0.3184438539622221
 20
4.732955191929889
 30
0.0
 11
0.1431452648085134
 21
4.7499961010208
 31
0.0
  0
LINE
  5
733
330
2
100
AcDbEntity
  8
0
100
AcDbLine
 10
-0.1490969817133383
 20
4.596587010111707
 30
0.0
 11
-0.2278265638755563
 21
4.642041555566252
 31
0.0
  0
LINE
  5
734
330
2
100
AcDbEntity
  8
0
100
AcDbLine
 10
-0.2278265638755563
 20
4.551132464657162
 30
0.0
 11
-0.1490969817133383
 21
4.596587010111707
 31
0.0
  0
LINE
  5
735
330
2
100
AcDbEntity
  8
0
100
AcDbLine
 10
-0.2278265638755563
 20
4.642041555566253
 30
0.0
 11
-0.1490969817133383
 21
4.687496101020798
 31
0.0
  0
LINE
  5
736
330
2
100
AcDbEntity
  8
0
100
AcDbLine
 10
-0.1490969817133383
 20
4.687496101020798
 30
0.0
 11
-0.2278265638755563
 21
4.732950646475343
 31
0.0
  0
LINE
  5
737
330
2
100
AcDbEntity
  8
0
100
AcDbLine
 10
-0.2278265638755563
 20
4.732950646475343
 30
0.0
 11
-0.1983029705647184
 21
4.7499961010208
 31
0.0
  0
LINE
  5
738
330
2
100
AcDbEntity
  8
0
100
AcDbLine
 10
-1.352826563875535
 20
5.1874961010208
 30
0.0
 11
-1.352826563875535
 21
7.005246101020799
 31
0.0
  0
CIRCLE
  5
739
330
2
100
AcDbEntity
  8
0
100
AcDbCircle
 10
0.4909734361244666
 20
6.442746101020799
 30
0.0
 40
0.0855
  0
ARC
  5
73A
330
2
100
AcDbEntity
  8
0
100
AcDbCircle
 10
0.5742984361244616
 20
5.062496101020798
 30
0.0
 40
0.125
100
AcDbArc
 50
90.0
 51
180.0
  0
CIRCLE
  5
73B
330
2
100
AcDbEntity
  8
0
100
AcDbCircle
 10
0.084673436124465
 20
6.255246101020799
 30
0.0
 40
0.1875
  0
ARC
  5
73C
330
2
100
AcDbEntity
  8
0
100
AcDbCircle
 10
-0.4049515638755388
 20
5.062496101020798
 30
0.0
 40
0.125
100
AcDbArc
 50
0.000000000000007
 51
90.0
  0
CIRCLE
  5
73D
330
2
100
AcDbEntity
  8
0
100
AcDbCircle
 10
0.834673436124465
 20
6.942746101020799
 30
0.0
 40
0.0855
  0
CIRCLE
  5
73E
330
2
100
AcDbEntity
  8
0
100
AcDbCircle
 10
-0.915326563875535
 20
6.942746101020799
 30
0.0
 40
0.0855
  0
LINE
  5
73F
330
2
100
AcDbEntity
  8
0
100
AcDbLine
 10
-1.102826563875535
 20
7.255246101020799
 30
0.0
 11
-1.352826563875535
 21
7.005246101020799
 31
0.0
  0
LINE
  5
740
330
2
100
AcDbEntity
  8
0
100
AcDbLine
 10
0.6873514573741097
 20
5.088496101020791
 30
0.0
 11
0.6028574967564921
 21
5.187496101020791
 31
0.0
  0
LINE
  5
741
330
2
100
AcDbEntity
  8
0
100
AcDbLine
 10
1.271620182425114
 20
5.134410893762544
 30
0.0
 11
0.6873514573741097
 21
5.088496101020791
 31
0.0
  0
LINE
  5
742
330
2
100
AcDbEntity
  8
0
100
AcDbLine
 10
-0.5180045851251833
 20
5.088496101020796
 30
0.0
 11
-0.4335106245075622
 21
5.187496101020797
 31
0.0
  0
LINE
  5
743
330
2
100
AcDbEntity
  8
0
100
AcDbLine
 10
-1.102273310176187
 20
5.134410893762556
 30
0.0
 11
-0.5180045851251833
 21
5.088496101020796
 31
0.0
  0
ARC
  5
744
330
2
100
AcDbEntity
  8
0
100
AcDbCircle
 10
1.267742178055077
 20
5.183758751690787
 30
0.0
 40
0.0495
100
AcDbArc
 50
274.4933577033087
 51
359.9999999999994
  0
LINE
  5
745
330
2
100
AcDbEntity
  8
0
100
AcDbLine
 10
1.317242178055075
 20
5.187496101020784
 30
0.0
 11
1.317242178055075
 21
5.183758751690787
 31
0.0
  0
ARC
  5
746
330
2
100
AcDbEntity
  8
0
100
AcDbCircle
 10
-1.098395305806147
 20
5.183758751690798
 30
0.0
 40
0.0495
100
AcDbArc
 50
180.0
 51
265.5066422966909
  0
LINE
  5
747
330
2
100
AcDbEntity
  8
0
100
AcDbLine
 10
-1.147895305806149
 20
5.187496101020797
 30
0.0
 11
-1.147895305806149
 21
5.183758751690798
 31
0.0
  0
ENDSEC
  0
SECTION
  2
OBJECTS
  0
DICTIONARY
  5
9
330
0
100
AcDbDictionary
281
     1
  3
ACAD_COLOR
350
5F7
  3
ACAD_GROUP
350
23
  3
ACAD_LAYOUT
350
D
  3
ACAD_MATERIAL
350
5F6
  3
ACAD_MLINESTYLE
350
24
  3
ACAD_PLOTSETTINGS
350
25
  3
ACAD_PLOTSTYLENAME
350
8
  3
ACAD_TABLESTYLE
350
5F8
  3
ACDBHEADERROUNDTRIPXREC
350
778
  3
AcDbVariableDictionary
350
316
  0
DICTIONARY
  5
5F7
102
{ACAD_REACTORS
330
9
102
}
330
9
100
AcDbDictionary
281
     1
  0
DICTIONARY
  5
23
102
{ACAD_REACTORS
330
9
102
}
330
9
100
AcDbDictionary
281
     1
  0
DICTIONARY
  5
D
102
{ACAD_REACTORS
330
9
102
}
330
9
100
AcDbDictionary
281
     1
  3
Layout1
350
13
  3
Model
350
C
  0
DICTIONARY
  5
5F6
102
{ACAD_REACTORS
330
9
102
}
330
9
100
AcDbDictionary
281
     1
  0
DICTIONARY
  5
24
102
{ACAD_REACTORS
330
9
102
}
330
9
100
AcDbDictionary
281
     1
  3
STANDARD
350
27
  0
DICTIONARY
  5
25
102
{ACAD_REACTORS
330
9
102
}
330
9
100
AcDbDictionary
281
     1
  0
ACDBDICTIONARYWDFLT
  5
8
102
{ACAD_REACTORS
330
9
102
}
330
9
100
AcDbDictionary
281
     1
  3
Normal
350
7
100
AcDbDictionaryWithDefault
340
7
  0
DICTIONARY
  5
5F8
102
{ACAD_REACTORS
330
9
102
}
330
9
100
AcDbDictionary
281
     1
  3
Standard
350
5F9
  0
DICTIONARY
  5
778
102
{ACAD_REACTORS
330
9
102
}
330
9
100
AcDbDictionary
281
     1
  3
COLORDICT
350
779
  3
MATERIALDICT
350
77A
  0
DICTIONARY
  5
316
102
{ACAD_REACTORS
330
9
102
}
330
9
100
AcDbDictionary
281
     1
  3
CTABLESTYLE
350
765
  3
HIDETEXT
350
777
  0
LAYOUT
  5
13
102
{ACAD_REACTORS
330
D
102
}
102
{ACAD_XDICTIONARY
360
77B
102
}
330
D
100
AcDbPlotSettings
  1

  2
HP LaserJet 2100 Series PS
  4

  6

 40
0.0
 41
0.0
 42
0.0
 43
0.0
 44
0.0
 45
0.0
 46
0.0
 47
0.0
 48
0.0
 49
0.0
140
0.0
141
0.0
142
1.0
143
1.0
 70
   688
 72
     0
 73
     0
 74
     5
  7

 75
    16
147
1.0
148
0.0
149
0.0
100
AcDbLayout
  1
Layout1
 70
     0
 71
     1
 10
0.0
 20
0.0
 11
12.0
 21
9.0
 12
0.0
 22
0.0
 32
0.0
 14
1.000000000000000E+20
 24
1.000000000000000E+20
 34
1.000000000000000E+20
 15
-1.000000000000000E+20
 25
-1.000000000000000E+20
 35
-1.000000000000000E+20
146
0.0
 13
0.0
 23
0.0
 33
0.0
 16
1.0
 26
0.0
 36
0.0
 17
0.0
 27
1.0
 37
0.0
 76
     0
330
E
  0
LAYOUT
  5
C
102
{ACAD_REACTORS
330
D
102
}
102
{ACAD_XDICTIONARY
360
77D
102
}
330
D
100
AcDbPlotSettings
  1

  2
HP LaserJet 4.pc3
  4
Letter
  6

 40
7.143749713897705
 41
6.127734661102295
 42
7.14373779296875
 43
7.14373779296875
 44
215.8999938964844
 45
279.3999938964844
 46
0.0
 47
0.0
 48
0.0
 49
0.0
140
0.0
141
0.0
142
1.0
143
2.519684959514791
 70
 11952
 72
     0
 73
     1
 74
     2
  7

 75
     0
147
0.396875012577988
148
0.0
149
0.0
100
AcDbLayout
  1
Model
 70
     1
 71
     0
 10
0.0
 20
0.0
 11
12.0
 21
9.0
 12
0.0
 22
0.0
 32
0.0
 14
0.0
 24
0.0
 34
0.0
 15
0.0
 25
0.0
 35
0.0
146
0.0
 13
0.0
 23
0.0
 33
0.0
 16
1.0
 26
0.0
 36
0.0
 17
0.0
 27
1.0
 37
0.0
 76
     0
330
2
  0
MLINESTYLE
  5
27
102
{ACAD_REACTORS
330
24
102
}
330
24
100
AcDbMlineStyle
  2
STANDARD
 70
     0
  3

 62
   256
 51
90.0
 52
90.0
 71
     2
 49
0.5
 62
   256
  6
BYLAYER
 49
-0.5
 62
   256
  6
BYLAYER
  0
ACDBPLACEHOLDER
  5
7
102
{ACAD_REACTORS
330
8
102
}
330
8
  0
ACAD_PROXY_OBJECT
  5
5F9
102
{ACAD_REACTORS
330
5F8
102
}
330
5F8
100
AcDbProxyObject
 90
      499
 91
      525
 95
   983063
 70
     0
 93
     1841
310
4214DD185B99185C9928B81E85EB51B8AE3F2E07A17AD46E2B8FC02B5E8DC0F42B1CFD028000000C1008070000C3001FDFF8000000C1003FBFF000000182007F7FE00000030400FEFFC00000060801FDFF8000000C1003FBFF00000018200000000000000681FA0B0000001820100E000186003FBFF000000182007F7FE000
310
00030400FEFFC00000060801FDFF8000000C1003FBFF000000182007F7FE000000304000AD7A3703D0AC73F4160000003040201C00030C007F7FE00000030400FEFFC00000060801FDFF8000000C1003FBFF000000182007F7FE00000030400FEFFC000000608000
340
16
340
16
340
16
 94
        0
  0
XRECORD
  5
779
102
{ACAD_REACTORS
330
778
102
}
330
778
100
AcDbXrecord
340
5F7
  0
XRECORD
  5
77A
102
{ACAD_REACTORS
330
778
102
}
330
778
100
AcDbXrecord
340
5F6
  0
DICTIONARYVAR
  5
765
102
{ACAD_REACTORS
330
316
102
}
330
316
100
DictionaryVariables
280
     0
  1
STANDARD
  0
DICTIONARYVAR
  5
777
102
{ACAD_REACTORS
330
316
102
}
330
316
100
DictionaryVariables
280
     0
  1
0
  0
DICTIONARY
  5
77B
330
13
100
AcDbDictionary
280
     1
281
     1
  3
ACAD_XREC_ROUNDTRIP
360
77C
  0
DICTIONARY
  5
77D
330
C
100
AcDbDictionary
280
     1
281
     1
  3
ACAD_XREC_ROUNDTRIP
360
77E
  0
XRECORD
  5
77C
102
{ACAD_REACTORS
330
77B
102
}
330
77B
100
AcDbXrecord
102
SHADEPLOT
 70
     0
102
SHADEPLOTRESLEVEL
 70
     2
102
SHADEPLOTCUSTOMDPI
 70
   300
  0
XRECORD
  5
77E
102
{ACAD_REACTORS
330
77D
102
}
330
77D
100
AcDbXrecord
102
SHADEPLOT
 70
     0
102
SHADEPLOTRESLEVEL
 70
     2
102
SHADEPLOTCUSTOMDPI
 70
   300
  0
ENDSEC
  0
EOF
